  0
SECTION
  2
HEADER
  9
$ACADVER
  1
AC1027
  9
$ACADMAINTVER
 70
   105
  9
$DWGCODEPAGE
  3
ANSI_1252
  9
$REQUIREDVERSIONS
160
                 0
  9
$LASTSAVEDBY
  1
christoph.stuessi
  9
$INSBASE
 10
0.0
 20
0.0
 30
0.0
  9
$EXTMIN
 10
-156.4452647181417
 20
-94.5708548181461
 30
0.0
  9
$EXTMAX
 10
296.0229868272048
 20
120.0615209149031
 30
0.0
  9
$LIMMIN
 10
-107.116661895
 20
-80.291797174
  9
$LIMMAX
 10
251.586897715
 20
78.871697917
  9
$ORTHOMODE
 70
     0
  9
$REGENMODE
 70
     1
  9
$FILLMODE
 70
     1
  9
$QTEXTMODE
 70
     0
  9
$MIRRTEXT
 70
     1
  9
$LTSCALE
 40
1.0
  9
$ATTMODE
 70
     1
  9
$TEXTSIZE
 40
0.2
  9
$TRACEWID
 40
0.05
  9
$TEXTSTYLE
  7
Standard
  9
$CLAYER
  8
1
  9
$CELTYPE
  6
ByLayer
  9
$CECOLOR
 62
   256
  9
$CELTSCALE
 40
1.0
  9
$DISPSILH
 70
     0
  9
$DIMSCALE
 40
1.0
  9
$DIMASZ
 40
0.18
  9
$DIMEXO
 40
0.0625
  9
$DIMDLI
 40
0.38
  9
$DIMRND
 40
0.0
  9
$DIMDLE
 40
0.0
  9
$DIMEXE
 40
0.18
  9
$DIMTP
 40
0.0
  9
$DIMTM
 40
0.0
  9
$DIMTXT
 40
0.18
  9
$DIMCEN
 40
0.09
  9
$DIMTSZ
 40
0.0
  9
$DIMTOL
 70
     0
  9
$DIMLIM
 70
     0
  9
$DIMTIH
 70
     1
  9
$DIMTOH
 70
     1
  9
$DIMSE1
 70
     0
  9
$DIMSE2
 70
     0
  9
$DIMTAD
 70
     0
  9
$DIMZIN
 70
     0
  9
$DIMBLK
  1

  9
$DIMASO
 70
     1
  9
$DIMSHO
 70
     1
  9
$DIMPOST
  1

  9
$DIMAPOST
  1

  9
$DIMALT
 70
     0
  9
$DIMALTD
 70
     2
  9
$DIMALTF
 40
25.4
  9
$DIMLFAC
 40
1.0
  9
$DIMTOFL
 70
     0
  9
$DIMTVP
 40
0.0
  9
$DIMTIX
 70
     0
  9
$DIMSOXD
 70
     0
  9
$DIMSAH
 70
     0
  9
$DIMBLK1
  1

  9
$DIMBLK2
  1

  9
$DIMSTYLE
  2
Standard
  9
$DIMCLRD
 70
     0
  9
$DIMCLRE
 70
     0
  9
$DIMCLRT
 70
     0
  9
$DIMTFAC
 40
1.0
  9
$DIMGAP
 40
0.09
  9
$DIMJUST
 70
     0
  9
$DIMSD1
 70
     0
  9
$DIMSD2
 70
     0
  9
$DIMTOLJ
 70
     1
  9
$DIMTZIN
 70
     0
  9
$DIMALTZ
 70
     0
  9
$DIMALTTZ
 70
     0
  9
$DIMUPT
 70
     0
  9
$DIMDEC
 70
     4
  9
$DIMTDEC
 70
     4
  9
$DIMALTU
 70
     2
  9
$DIMALTTD
 70
     2
  9
$DIMTXSTY
  7
Standard
  9
$DIMAUNIT
 70
     0
  9
$DIMADEC
 70
     0
  9
$DIMALTRND
 40
0.0
  9
$DIMAZIN
 70
     0
  9
$DIMDSEP
 70
    46
  9
$DIMATFIT
 70
     3
  9
$DIMFRAC
 70
     0
  9
$DIMLDRBLK
  1

  9
$DIMLUNIT
 70
     2
  9
$DIMLWD
 70
    -2
  9
$DIMLWE
 70
    -2
  9
$DIMTMOVE
 70
     2
  9
$DIMFXL
 40
1.0
  9
$DIMFXLON
 70
     0
  9
$DIMJOGANG
 40
0.7853981633974483
  9
$DIMTFILL
 70
     0
  9
$DIMTFILLCLR
 70
     0
  9
$DIMARCSYM
 70
     0
  9
$DIMLTYPE
  6

  9
$DIMLTEX1
  6

  9
$DIMLTEX2
  6

  9
$DIMTXTDIRECTION
 70
     0
  9
$LUNITS
 70
     2
  9
$LUPREC
 70
     4
  9
$SKETCHINC
 40
0.1
  9
$FILLETRAD
 40
0.5
  9
$AUNITS
 70
     2
  9
$AUPREC
 70
     0
  9
$MENU
  1
.
  9
$ELEVATION
 40
0.0
  9
$PELEVATION
 40
0.0
  9
$THICKNESS
 40
0.0
  9
$LIMCHECK
 70
     0
  9
$CHAMFERA
 40
0.5
  9
$CHAMFERB
 40
0.5
  9
$CHAMFERC
 40
1.0
  9
$CHAMFERD
 40
0.0
  9
$SKPOLY
 70
     0
  9
$TDCREATE
 40
2458327.549350683
  9
$TDUCREATE
 40
2458327.46601735
  9
$TDUPDATE
 40
2458604.324294989
  9
$TDUUPDATE
 40
2458604.240961655
  9
$TDINDWG
 40
0.0226529514
  9
$TDUSRTIMER
 40
0.0002750347
  9
$USRTIMER
 70
     1
  9
$ANGBASE
 50
0.0
  9
$ANGDIR
 70
     0
  9
$PDMODE
 70
     0
  9
$PDSIZE
 40
0.0
  9
$PLINEWID
 40
0.0
  9
$SPLFRAME
 70
     0
  9
$SPLINETYPE
 70
     6
  9
$SPLINESEGS
 70
     8
  9
$HANDSEED
  5
2D3
  9
$SURFTAB1
 70
     6
  9
$SURFTAB2
 70
     6
  9
$SURFTYPE
 70
     6
  9
$SURFU
 70
     6
  9
$SURFV
 70
     6
  9
$UCSBASE
  2

  9
$UCSNAME
  2

  9
$UCSORG
 10
0.0
 20
0.0
 30
0.0
  9
$UCSXDIR
 10
1.0
 20
0.0
 30
0.0
  9
$UCSYDIR
 10
0.0
 20
1.0
 30
0.0
  9
$UCSORTHOREF
  2

  9
$UCSORTHOVIEW
 70
     0
  9
$UCSORGTOP
 10
0.0
 20
0.0
 30
0.0
  9
$UCSORGBOTTOM
 10
0.0
 20
0.0
 30
0.0
  9
$UCSORGLEFT
 10
0.0
 20
0.0
 30
0.0
  9
$UCSORGRIGHT
 10
0.0
 20
0.0
 30
0.0
  9
$UCSORGFRONT
 10
0.0
 20
0.0
 30
0.0
  9
$UCSORGBACK
 10
0.0
 20
0.0
 30
0.0
  9
$PUCSBASE
  2

  9
$PUCSNAME
  2

  9
$PUCSORG
 10
0.0
 20
0.0
 30
0.0
  9
$PUCSXDIR
 10
1.0
 20
0.0
 30
0.0
  9
$PUCSYDIR
 10
0.0
 20
1.0
 30
0.0
  9
$PUCSORTHOREF
  2

  9
$PUCSORTHOVIEW
 70
     0
  9
$PUCSORGTOP
 10
0.0
 20
0.0
 30
0.0
  9
$PUCSORGBOTTOM
 10
0.0
 20
0.0
 30
0.0
  9
$PUCSORGLEFT
 10
0.0
 20
0.0
 30
0.0
  9
$PUCSORGRIGHT
 10
0.0
 20
0.0
 30
0.0
  9
$PUCSORGFRONT
 10
0.0
 20
0.0
 30
0.0
  9
$PUCSORGBACK
 10
0.0
 20
0.0
 30
0.0
  9
$USERI1
 70
     0
  9
$USERI2
 70
     0
  9
$USERI3
 70
     0
  9
$USERI4
 70
     0
  9
$USERI5
 70
     0
  9
$USERR1
 40
0.0
  9
$USERR2
 40
0.0
  9
$USERR3
 40
0.0
  9
$USERR4
 40
0.0
  9
$USERR5
 40
0.0
  9
$WORLDVIEW
 70
     1
  9
$SHADEDGE
 70
     3
  9
$SHADEDIF
 70
    70
  9
$TILEMODE
 70
     1
  9
$MAXACTVP
 70
    64
  9
$PINSBASE
 10
0.0
 20
0.0
 30
0.0
  9
$PLIMCHECK
 70
     0
  9
$PEXTMIN
 10
1.000000000000000E+20
 20
1.000000000000000E+20
 30
1.000000000000000E+20
  9
$PEXTMAX
 10
-1.000000000000000E+20
 20
-1.000000000000000E+20
 30
-1.000000000000000E+20
  9
$PLIMMIN
 10
0.0
 20
0.0
  9
$PLIMMAX
 10
0.0
 20
0.0
  9
$UNITMODE
 70
     0
  9
$VISRETAIN
 70
     1
  9
$PLINEGEN
 70
     0
  9
$PSLTSCALE
 70
     1
  9
$TREEDEPTH
 70
  3020
  9
$CMLSTYLE
  2
Standard
  9
$CMLJUST
 70
     0
  9
$CMLSCALE
 40
1.0
  9
$PROXYGRAPHICS
 70
     1
  9
$MEASUREMENT
 70
     0
  9
$CELWEIGHT
370
    -1
  9
$ENDCAPS
280
     0
  9
$JOINSTYLE
280
     0
  9
$LWDISPLAY
290
     0
  9
$INSUNITS
 70
     0
  9
$HYPERLINKBASE
  1

  9
$STYLESHEET
  1

  9
$XEDIT
290
     1
  9
$CEPSNTYPE
380
     0
  9
$PSTYLEMODE
290
     1
  9
$FINGERPRINTGUID
  2
{FB751A98-7048-4C56-9133-9F5A70734E9A}
  9
$VERSIONGUID
  2
{FAEB1C32-E019-11D5-929B-00C0DF256EC4}
  9
$EXTNAMES
290
     1
  9
$PSVPSCALE
 40
0.0
  9
$OLESTARTUP
290
     0
  9
$SORTENTS
280
   127
  9
$INDEXCTL
280
     0
  9
$HIDETEXT
280
     1
  9
$XCLIPFRAME
280
     2
  9
$HALOGAP
280
     0
  9
$OBSCOLOR
 70
   257
  9
$OBSLTYPE
280
     0
  9
$INTERSECTIONDISPLAY
280
     0
  9
$INTERSECTIONCOLOR
 70
   257
  9
$DIMASSOC
280
     2
  9
$PROJECTNAME
  1

  9
$CAMERADISPLAY
290
     0
  9
$LENSLENGTH
 40
50.0
  9
$CAMERAHEIGHT
 40
0.0
  9
$STEPSPERSEC
 40
2.0
  9
$STEPSIZE
 40
6.0
  9
$3DDWFPREC
 40
2.0
  9
$PSOLWIDTH
 40
0.25
  9
$PSOLHEIGHT
 40
4.0
  9
$LOFTANG1
 40
1.570796326794897
  9
$LOFTANG2
 40
1.570796326794897
  9
$LOFTMAG1
 40
0.0
  9
$LOFTMAG2
 40
0.0
  9
$LOFTPARAM
 70
     7
  9
$LOFTNORMALS
280
     1
  9
$LATITUDE
 40
37.795
  9
$LONGITUDE
 40
-122.394
  9
$NORTHDIRECTION
 40
0.0
  9
$TIMEZONE
 70
 -8000
  9
$LIGHTGLYPHDISPLAY
280
     1
  9
$TILEMODELIGHTSYNCH
280
     1
  9
$SOLIDHIST
280
     0
  9
$SHOWHIST
280
     1
  9
$DWFFRAME
280
     2
  9
$DGNFRAME
280
     2
  9
$REALWORLDSCALE
290
     1
  9
$INTERFERECOLOR
 62
   256
  9
$CSHADOW
280
     0
  9
$SHADOWPLANELOCATION
 40
0.0
  0
ENDSEC
  0
SECTION
  2
CLASSES
  0
CLASS
  1
ACDBDICTIONARYWDFLT
  2
AcDbDictionaryWithDefault
  3
ObjectDBX Classes
 90
        0
 91
        6
280
     0
281
     0
  0
CLASS
  1
SCALE
  2
AcDbScale
  3
ObjectDBX Classes
 90
     1153
 91
        6
280
     0
281
     0
  0
CLASS
  1
VISUALSTYLE
  2
AcDbVisualStyle
  3
ObjectDBX Classes
 90
     4095
 91
        6
280
     0
281
     0
  0
CLASS
  1
MATERIAL
  2
AcDbMaterial
  3
ObjectDBX Classes
 90
     1153
 91
        6
280
     0
281
     0
  0
CLASS
  1
DICTIONARYVAR
  2
AcDbDictionaryVar
  3
ObjectDBX Classes
 90
        0
 91
        6
280
     0
281
     0
  0
CLASS
  1
ACDBPLACEHOLDER
  2
AcDbPlaceHolder
  3
ObjectDBX Classes
 90
        0
 91
        1
280
     0
281
     0
  0
CLASS
  1
LAYOUT
  2
AcDbLayout
  3
ObjectDBX Classes
 90
        0
 91
        1
280
     0
281
     0
  0
CLASS
  1
TABLESTYLE
  2
AcDbTableStyle
  3
ObjectDBX Classes
 90
     4095
 91
        6
280
     0
281
     0
  0
CLASS
  1
MLEADERSTYLE
  2
AcDbMLeaderStyle
  3
ACDB_MLEADERSTYLE_CLASS
 90
     4095
 91
        6
280
     0
281
     0
  0
CLASS
  1
SUN
  2
AcDbSun
  3
SCENEOE
 90
     1153
 91
        6
280
     0
281
     0
  0
CLASS
  1
CELLSTYLEMAP
  2
AcDbCellStyleMap
  3
ObjectDBX Classes
 90
     1152
 91
        6
280
     0
281
     0
  0
ENDSEC
  0
SECTION
  2
TABLES
  0
TABLE
  2
VPORT
  5
8
330
0
100
AcDbSymbolTable
 70
     1
  0
VPORT
  5
182
330
8
100
AcDbSymbolTableRecord
100
AcDbViewportTableRecord
  2
*Active
 70
     0
 10
0.0
 20
0.0
 11
1.0
 21
1.0
 12
-11.75778068194967
 22
9.5457216708119
 13
0.0
 23
0.0
 14
0.5
 24
0.5
 15
0.5
 25
0.5
 16
0.0
 26
0.0
 36
1.0
 17
0.0
 27
0.0
 37
0.0
 40
373.5943384852648
 41
1.925373134328358
 42
50.0
 43
0.0
 44
0.0
 50
0.0
 51
0.0
 71
    16
 72
   100
 73
     1
 74
     3
 75
     0
 76
     0
 77
     0
 78
     0
281
     0
 65
     1
110
0.0
120
0.0
130
0.0
111
1.0
121
0.0
131
0.0
112
0.0
122
1.0
132
0.0
 79
     0
146
0.0
348
1B3
 60
     3
 61
     5
292
     1
282
     1
141
0.0
142
0.0
 63
   256
361
266
  0
ENDTAB
  0
TABLE
  2
LTYPE
  5
5
330
0
100
AcDbSymbolTable
 70
     8
  0
LTYPE
  5
14
330
5
100
AcDbSymbolTableRecord
100
AcDbLinetypeTableRecord
  2
ByBlock
 70
     0
  3

 72
    65
 73
     0
 40
0.0
  0
LTYPE
  5
15
330
5
100
AcDbSymbolTableRecord
100
AcDbLinetypeTableRecord
  2
ByLayer
 70
     0
  3

 72
    65
 73
     0
 40
0.0
  0
LTYPE
  5
16
330
5
100
AcDbSymbolTableRecord
100
AcDbLinetypeTableRecord
  2
Continuous
 70
     0
  3
Solid line
 72
    65
 73
     0
 40
0.0
  0
LTYPE
  5
20
330
5
100
AcDbSymbolTableRecord
100
AcDbLinetypeTableRecord
  2
PUNKT
 70
     0
  3
..............
 72
    65
 73
     2
 40
1.5
 49
0.7
 74
     0
 49
-0.8
 74
     0
  0
LTYPE
  5
21
330
5
100
AcDbSymbolTableRecord
100
AcDbLinetypeTableRecord
  2
GESTRICHELT
 70
     0
  3
-- -- -- -- --
 72
    65
 73
     7
 40
2.8
 49
0.9
 74
     0
 49
0.0
 74
     0
 49
0.9
 74
     0
 49
0.0
 74
     0
 49
0.2
 74
     0
 49
0.0
 74
     0
 49
-0.8
 74
     0
  0
LTYPE
  5
22
330
5
100
AcDbSymbolTableRecord
100
AcDbLinetypeTableRecord
  2
STRICHPUNKT
 70
     0
  3
--.--.--.--.--
 72
    65
 73
     4
 40
8.8
 49
5.5
 74
     0
 49
-1.3
 74
     0
 49
0.7
 74
     0
 49
-1.3
 74
     0
  0
LTYPE
  5
25
330
5
100
AcDbSymbolTableRecord
100
AcDbLinetypeTableRecord
  2
PHANTOM
 70
     0
  3
--..--..--..--
 72
    65
 73
     6
 40
14.2
 49
7.0
 74
     0
 49
-1.8
 74
     0
 49
0.9
 74
     0
 49
-1.8
 74
     0
 49
0.9
 74
     0
 49
-1.8
 74
     0
  0
LTYPE
  5
1FA
330
5
100
AcDbSymbolTableRecord
100
AcDbLinetypeTableRecord
  2
DASH
 70
     0
  3
DASH _ _ _ _ _
 72
    65
 73
     2
 40
0.75
 49
0.4
 74
     0
 49
-0.35
 74
     0
  0
LTYPE
  5
1FB
330
5
100
AcDbSymbolTableRecord
100
AcDbLinetypeTableRecord
  2
LONGDASH_DASH
 70
     0
  3
LONGDASH_DASH __ . __ . __
 72
    65
 73
     4
 40
0.85
 49
0.4
 74
     0
 49
-0.2
 74
     0
 49
0.05
 74
     0
 49
-0.2
 74
     0
  0
LTYPE
  5
1FC
330
5
100
AcDbSymbolTableRecord
100
AcDbLinetypeTableRecord
  2
LONGDASH_DASH_DASH
 70
     0
  3
LONGDASH_DASH_DASH __ . . __ . . __
 72
    65
 73
     6
 40
1.1
 49
0.4
 74
     0
 49
-0.2
 74
     0
 49
0.05
 74
     0
 49
-0.2
 74
     0
 49
0.05
 74
     0
 49
-0.2
 74
     0
  0
ENDTAB
  0
TABLE
  2
LAYER
  5
2
102
{ACAD_XDICTIONARY
360
219
102
}
330
0
100
AcDbSymbolTable
 70
    15
  0
LAYER
  5
1C4
330
2
100
AcDbSymbolTableRecord
100
AcDbLayerTableRecord
  2
200
 70
     0
 62
     2
  6
Continuous
370
    50
390
F
347
1C2
348
0
  0
LAYER
  5
1FD
330
2
100
AcDbSymbolTableRecord
100
AcDbLayerTableRecord
  2
0
 70
     0
 62
     1
  6
Continuous
370
    -3
390
F
347
1C2
348
0
  0
LAYER
  5
1FE
330
2
100
AcDbSymbolTableRecord
100
AcDbLayerTableRecord
  2
1
 70
     0
 62
     4
  6
Continuous
370
    50
390
F
347
1C2
348
0
  0
LAYER
  5
1FF
330
2
100
AcDbSymbolTableRecord
100
AcDbLayerTableRecord
  2
2
 70
     0
 62
     7
  6
Continuous
370
    25
390
F
347
1C2
348
0
  0
LAYER
  5
200
330
2
100
AcDbSymbolTableRecord
100
AcDbLayerTableRecord
  2
3
 70
     0
 62
     1
  6
DASH
370
    35
390
F
347
1C2
348
0
  0
LAYER
  5
201
330
2
100
AcDbSymbolTableRecord
100
AcDbLayerTableRecord
  2
4
 70
     0
 62
     2
  6
LONGDASH_DASH
370
    25
390
F
347
1C2
348
0
  0
LAYER
  5
202
330
2
100
AcDbSymbolTableRecord
100
AcDbLayerTableRecord
  2
6
 70
     0
 62
     5
  6
Continuous
370
    -3
390
F
347
1C2
348
0
  0
LAYER
  5
203
330
2
100
AcDbSymbolTableRecord
100
AcDbLayerTableRecord
  2
CUT
 70
     0
 62
     1
  6
Continuous
370
    25
390
F
347
1C2
348
0
  0
LAYER
  5
204
330
2
100
AcDbSymbolTableRecord
100
AcDbLayerTableRecord
  2
NOCUT
 70
     0
 62
     7
  6
Continuous
370
    25
390
F
347
1C2
348
0
  0
LAYER
  5
205
330
2
100
AcDbSymbolTableRecord
100
AcDbLayerTableRecord
  2
SK1
 70
     0
 62
     4
  6
Continuous
370
    50
390
F
347
1C2
348
0
  0
LAYER
  5
206
330
2
100
AcDbSymbolTableRecord
100
AcDbLayerTableRecord
  2
SK2
 70
     0
 62
     7
  6
Continuous
370
    25
390
F
347
1C2
348
0
  0
LAYER
  5
207
330
2
100
AcDbSymbolTableRecord
100
AcDbLayerTableRecord
  2
SK3
 70
     0
 62
     1
  6
DASH
370
    35
390
F
347
1C2
348
0
  0
LAYER
  5
208
330
2
100
AcDbSymbolTableRecord
100
AcDbLayerTableRecord
  2
SK4
 70
     0
 62
     2
  6
LONGDASH_DASH
370
    25
390
F
347
1C2
348
0
  0
LAYER
  5
209
330
2
100
AcDbSymbolTableRecord
100
AcDbLayerTableRecord
  2
SK6
 70
     0
 62
     5
  6
Continuous
370
    -3
390
F
347
1C2
348
0
  0
LAYER
  5
20A
330
2
100
AcDbSymbolTableRecord
100
AcDbLayerTableRecord
  2
INFTOTAL
 70
     0
 62
     9
  6
Continuous
370
    18
390
F
347
1C2
348
0
  0
ENDTAB
  0
TABLE
  2
STYLE
  5
3
330
0
100
AcDbSymbolTable
 70
     2
  0
STYLE
  5
11
330
3
100
AcDbSymbolTableRecord
100
AcDbTextStyleTableRecord
  2
Standard
 70
     0
 40
0.0
 41
1.0
 50
0.0
 71
     0
 42
0.2
  3
txt
  4

  0
STYLE
  5
1C3
330
3
100
AcDbSymbolTableRecord
100
AcDbTextStyleTableRecord
  2
BMG_Text
 70
     0
 40
3.5
 41
1.0
 50
0.0
 71
     0
 42
0.2
  3
monos.ttf
  4

1001
ACAD
1000
Monospac821 BT
1071
       49
  0
ENDTAB
  0
TABLE
  2
VIEW
  5
6
330
0
100
AcDbSymbolTable
 70
     0
  0
ENDTAB
  0
TABLE
  2
UCS
  5
7
330
0
100
AcDbSymbolTable
 70
     0
  0
ENDTAB
  0
TABLE
  2
APPID
  5
9
330
0
100
AcDbSymbolTable
 70
     1
  0
APPID
  5
12
330
9
100
AcDbSymbolTableRecord
100
AcDbRegAppTableRecord
  2
ACAD
 70
     0
  0
ENDTAB
  0
TABLE
  2
DIMSTYLE
  5
A
330
0
100
AcDbSymbolTable
 70
     1
100
AcDbDimStyleTable
  0
DIMSTYLE
105
28
330
A
100
AcDbSymbolTableRecord
100
AcDbDimStyleTableRecord
  2
Standard
 70
     0
178
     0
340
11
  0
ENDTAB
  0
TABLE
  2
BLOCK_RECORD
  5
1
330
0
100
AcDbSymbolTable
 70
     0
  0
BLOCK_RECORD
  5
1D
330
1
100
AcDbSymbolTableRecord
100
AcDbBlockTableRecord
  2
*Model_Space
340
1E
 70
     0
280
     1
281
     0
  0
BLOCK_RECORD
  5
1B
330
1
100
AcDbSymbolTableRecord
100
AcDbBlockTableRecord
  2
*Paper_Space
340
1C
 70
     0
280
     1
281
     0
  0
ENDTAB
  0
ENDSEC
  0
SECTION
  2
BLOCKS
  0
BLOCK
  5
1AC
330
1D
100
AcDbEntity
  8
0
100
AcDbBlockBegin
  2
*Model_Space
 70
     0
 10
0.0
 20
0.0
 30
0.0
  3
*Model_Space
  1

  0
ENDBLK
  5
1AD
330
1D
100
AcDbEntity
  8
0
100
AcDbBlockEnd
  0
BLOCK
  5
1AA
330
1B
100
AcDbEntity
 67
     1
  8
0
100
AcDbBlockBegin
  2
*Paper_Space
 70
     0
 10
0.0
 20
0.0
 30
0.0
  3
*Paper_Space
  1

  0
ENDBLK
  5
1AB
330
1B
100
AcDbEntity
 67
     1
  8
0
100
AcDbBlockEnd
  0
ENDSEC
  0
SECTION
  2
ENTITIES
  0
LINE
  5
29
330
1D
100
AcDbEntity
  8
1
100
AcDbLine
 10
227.99998474
 20
31.75001526
 30
0.0
 11
227.99998474
 21
0.0
 31
0.0
  0
LINE
  5
2A
330
1D
100
AcDbEntity
  8
1
100
AcDbLine
 10
35.0
 20
0.0
 30
0.0
 11
35.0
 21
34.17500305
 31
0.0
  0
ARC
  5
2B
330
1D
100
AcDbEntity
  8
1
100
AcDbCircle
 10
37.94438171
 20
34.74996948
 30
0.0
 40
3.00000024
100
AcDbArc
 50
191.05029297
 51
270.0
  0
LINE
  5
2C
330
1D
100
AcDbEntity
  8
1
100
AcDbLine
 10
34.25
 20
34.92500305
 30
0.0
 11
35.0
 21
34.17500305
 31
0.0
  0
ARC
  5
2D
330
1D
100
AcDbEntity
  8
1
100
AcDbCircle
 10
19.84999084
 20
35.72494507
 30
0.0
 40
0.79998791
100
AcDbArc
 50
180.0
 51
270.0
  0
LINE
  5
2E
330
1D
100
AcDbEntity
  8
1
100
AcDbLine
 10
19.84999084
 20
34.92500305
 30
0.0
 11
34.25
 21
34.92500305
 31
0.0
  0
LINE
  5
2F
330
1D
100
AcDbEntity
  8
1
100
AcDbLine
 10
3.69995117
 20
48.72502136
 30
0.0
 11
7.86682129
 21
48.72502136
 31
0.0
  0
LINE
  5
30
330
1D
100
AcDbEntity
  8
1
100
AcDbLine
 10
0.0
 20
34.92500305
 30
0.0
 11
2.40002441
 21
34.92500305
 31
0.0
  0
LINE
  5
31
330
1D
100
AcDbEntity
  8
1
100
AcDbLine
 10
3.19995117
 20
48.22502136
 30
0.0
 11
3.69995117
 21
48.72502136
 31
0.0
  0
LINE
  5
32
330
1D
100
AcDbEntity
  8
1
100
AcDbLine
 10
18.55004883
 20
48.72502136
 30
0.0
 11
19.05004883
 21
48.22502136
 31
0.0
  0
ARC
  5
33
330
1D
100
AcDbEntity
  8
1
100
AcDbCircle
 10
2.40003967
 20
35.72496033
 30
0.0
 40
0.80000317
100
AcDbArc
 50
270.0
 51
0.0
  0
LINE
  5
34
330
1D
100
AcDbEntity
  8
1
100
AcDbLine
 10
9.67504883
 20
45.50001526
 30
0.0
 11
12.52502441
 21
45.50001526
 31
0.0
  0
LINE
  5
35
330
1D
100
AcDbEntity
  8
1
100
AcDbLine
 10
13.02502441
 20
46.45918274
 30
0.0
 11
14.33325195
 21
48.72502136
 31
0.0
  0
LINE
  5
36
330
1D
100
AcDbEntity
  8
1
100
AcDbLine
 10
9.17504883
 20
46.45924377
 30
0.0
 11
7.86688232
 21
48.72505188
 31
0.0
  0
LINE
  5
37
330
1D
100
AcDbEntity
  8
1
100
AcDbLine
 10
14.33325195
 20
48.72502136
 30
0.0
 11
18.55004883
 21
48.72502136
 31
0.0
  0
ARC
  5
38
330
1D
100
AcDbEntity
  8
1
100
AcDbCircle
 10
9.67506409
 20
45.99996948
 30
0.0
 40
0.50000006
100
AcDbArc
 50
180.0
 51
270.0
  0
ARC
  5
39
330
1D
100
AcDbEntity
  8
1
100
AcDbCircle
 10
12.52503967
 20
45.99996948
 30
0.0
 40
0.50000006
100
AcDbArc
 50
270.0
 51
0.0
  0
LINE
  5
3A
330
1D
100
AcDbEntity
  8
1
100
AcDbLine
 10
3.19995117
 20
38.58003235
 30
0.0
 11
7.86682129
 21
38.58003235
 31
0.0
  0
LINE
  5
3B
330
1D
100
AcDbEntity
  8
1
100
AcDbLine
 10
9.17504883
 20
34.21000671
 30
0.0
 11
13.02502441
 21
34.21000671
 31
0.0
  0
LINE
  5
3C
330
1D
100
AcDbEntity
  8
1
100
AcDbLine
 10
14.33325195
 20
38.58003235
 30
0.0
 11
19.05004883
 21
38.58003235
 31
0.0
  0
LINE
  5
3D
330
1D
100
AcDbEntity
  8
1
100
AcDbLine
 10
13.02502441
 20
34.21000671
 30
0.0
 11
13.02502441
 21
46.45918274
 31
0.0
  0
LINE
  5
3E
330
1D
100
AcDbEntity
  8
1
100
AcDbLine
 10
9.17504883
 20
34.21000671
 30
0.0
 11
9.17504883
 21
46.45924377
 31
0.0
  0
LINE
  5
3F
330
1D
100
AcDbEntity
  8
1
100
AcDbLine
 10
14.33325195
 20
38.58003235
 30
0.0
 11
14.33325195
 21
48.72505188
 31
0.0
  0
LINE
  5
40
330
1D
100
AcDbEntity
  8
1
100
AcDbLine
 10
7.86688232
 20
38.58003235
 30
0.0
 11
7.86688232
 21
48.72505188
 31
0.0
  0
LINE
  5
41
330
1D
100
AcDbEntity
  8
1
100
AcDbLine
 10
14.33325195
 20
38.58003235
 30
0.0
 11
13.02502441
 21
34.21003723
 31
0.0
  0
LINE
  5
42
330
1D
100
AcDbEntity
  8
1
100
AcDbLine
 10
7.86688232
 20
38.58003235
 30
0.0
 11
9.17504883
 21
34.21003723
 31
0.0
  0
LINE
  5
43
330
1D
100
AcDbEntity
  8
SK1
100
AcDbLine
 10
0.0
 20
0.0
 30
0.0
 11
0.0
 21
34.92500305
 31
0.0
  0
LINE
  5
44
330
1D
100
AcDbEntity
  8
1
100
AcDbLine
 10
3.19995117
 20
13.85002136
 30
0.0
 11
3.19995117
 21
48.22505188
 31
0.0
  0
LINE
  5
45
330
1D
100
AcDbEntity
  8
1
100
AcDbLine
 10
19.05004883
 20
13.85002136
 30
0.0
 11
19.05004883
 21
48.22505188
 31
0.0
  0
LINE
  5
46
330
1D
100
AcDbEntity
  8
1
100
AcDbLine
 10
34.25
 20
34.92500305
 30
0.0
 11
34.25
 21
0.0
 31
0.0
  0
LINE
  5
47
330
1D
100
AcDbEntity
  8
1
100
AcDbLine
 10
13.02502441
 20
-45.50001526
 30
0.0
 11
13.02502441
 21
30.00001526
 31
0.0
  0
LINE
  5
48
330
1D
100
AcDbEntity
  8
1
100
AcDbLine
 10
9.17504883
 20
-45.50001526
 30
0.0
 11
9.17504883
 21
30.00001526
 31
0.0
  0
LINE
  5
49
330
1D
100
AcDbEntity
  8
1
100
AcDbLine
 10
3.19995117
 20
30.00001526
 30
0.0
 11
19.04992676
 21
30.00001526
 31
0.0
  0
LINE
  5
4A
330
1D
100
AcDbEntity
  8
1
100
AcDbLine
 10
7.86688232
 20
-48.72502136
 30
0.0
 11
7.86688232
 21
30.00001526
 31
0.0
  0
LINE
  5
4B
330
1D
100
AcDbEntity
  8
1
100
AcDbLine
 10
14.33325195
 20
-48.72502136
 30
0.0
 11
14.33325195
 21
30.00001526
 31
0.0
  0
LINE
  5
4C
330
1D
100
AcDbEntity
  8
1
100
AcDbLine
 10
19.05004883
 20
0.0
 30
0.0
 11
19.05004883
 21
13.85002136
 31
0.0
  0
LINE
  5
4D
330
1D
100
AcDbEntity
  8
1
100
AcDbLine
 10
3.19995117
 20
0.0
 30
0.0
 11
3.19995117
 21
13.85002136
 31
0.0
  0
LINE
  5
4E
330
1D
100
AcDbEntity
  8
1
100
AcDbLine
 10
37.94438171
 20
31.75001526
 30
0.0
 11
227.99998474
 21
31.75001526
 31
0.0
  0
LINE
  5
4F
330
1D
100
AcDbEntity
  8
1
100
AcDbLine
 10
228.99998474
 20
0.0
 30
0.0
 11
228.99998474
 21
30.75001526
 31
0.0
  0
LINE
  5
50
330
1D
100
AcDbEntity
  8
1
100
AcDbLine
 10
227.99998474
 20
31.75001526
 30
0.0
 11
228.99998474
 21
30.75001526
 31
0.0
  0
LINE
  5
51
330
1D
100
AcDbEntity
  8
SK1
100
AcDbLine
 10
0.0
 20
34.92500305
 30
0.0
 11
-99.46073914
 21
20.42021179
 31
0.0
  0
LINE
  5
52
330
1D
100
AcDbEntity
  8
1
100
AcDbLine
 10
227.99998474
 20
-31.75001526
 30
0.0
 11
227.99998474
 21
0.0
 31
0.0
  0
LINE
  5
53
330
1D
100
AcDbEntity
  8
1
100
AcDbLine
 10
35.0
 20
0.0
 30
0.0
 11
35.0
 21
-34.17500305
 31
0.0
  0
LINE
  5
54
330
1D
100
AcDbEntity
  8
SK1
100
AcDbLine
 10
0.0
 20
0.0
 30
0.0
 11
0.0
 21
-34.92500305
 31
0.0
  0
LINE
  5
55
330
1D
100
AcDbEntity
  8
1
100
AcDbLine
 10
34.25
 20
-34.92500305
 30
0.0
 11
34.25
 21
0.0
 31
0.0
  0
LINE
  5
56
330
1D
100
AcDbEntity
  8
1
100
AcDbLine
 10
19.05004883
 20
0.0
 30
0.0
 11
19.05004883
 21
-13.85002136
 31
0.0
  0
LINE
  5
57
330
1D
100
AcDbEntity
  8
1
100
AcDbLine
 10
3.19995117
 20
0.0
 30
0.0
 11
3.19995117
 21
-13.85002136
 31
0.0
  0
LINE
  5
58
330
1D
100
AcDbEntity
  8
1
100
AcDbLine
 10
228.99998474
 20
0.0
 30
0.0
 11
228.99998474
 21
-30.75001526
 31
0.0
  0
ARC
  5
59
330
1D
100
AcDbEntity
  8
1
100
AcDbCircle
 10
37.94438171
 20
-34.75001526
 30
0.0
 40
3.00000024
100
AcDbArc
 50
90.0
 51
168.94970703
  0
LINE
  5
5A
330
1D
100
AcDbEntity
  8
1
100
AcDbLine
 10
34.25
 20
-34.92500305
 30
0.0
 11
35.0
 21
-34.17500305
 31
0.0
  0
ARC
  5
5B
330
1D
100
AcDbEntity
  8
1
100
AcDbCircle
 10
19.84999084
 20
-35.72499084
 30
0.0
 40
0.79998791
100
AcDbArc
 50
90.0
 51
180.0
  0
LINE
  5
5C
330
1D
100
AcDbEntity
  8
1
100
AcDbLine
 10
19.84999084
 20
-34.92500305
 30
0.0
 11
34.25
 21
-34.92500305
 31
0.0
  0
LINE
  5
5D
330
1D
100
AcDbEntity
  8
1
100
AcDbLine
 10
3.69995117
 20
-48.72502136
 30
0.0
 11
7.86682129
 21
-48.72502136
 31
0.0
  0
LINE
  5
5E
330
1D
100
AcDbEntity
  8
1
100
AcDbLine
 10
0.0
 20
-34.92500305
 30
0.0
 11
2.40002441
 21
-34.92500305
 31
0.0
  0
ARC
  5
5F
330
1D
100
AcDbEntity
  8
SK1
100
AcDbCircle
 10
-99.09996033
 20
-17.94639587
 30
0.0
 40
2.50000024
100
AcDbArc
 50
180.0
 51
261.70288086
  0
LINE
  5
60
330
1D
100
AcDbEntity
  8
1
100
AcDbLine
 10
3.19995117
 20
-48.22502136
 30
0.0
 11
3.69995117
 21
-48.72502136
 31
0.0
  0
LINE
  5
61
330
1D
100
AcDbEntity
  8
1
100
AcDbLine
 10
18.55004883
 20
-48.72502136
 30
0.0
 11
19.05004883
 21
-48.22502136
 31
0.0
  0
ARC
  5
62
330
1D
100
AcDbEntity
  8
1
100
AcDbCircle
 10
2.40003967
 20
-35.72502136
 30
0.0
 40
0.80000317
100
AcDbArc
 50
0.0
 51
90.0
  0
LINE
  5
63
330
1D
100
AcDbEntity
  8
1
100
AcDbLine
 10
9.67504883
 20
-45.50001526
 30
0.0
 11
12.52502441
 21
-45.50001526
 31
0.0
  0
LINE
  5
64
330
1D
100
AcDbEntity
  8
1
100
AcDbLine
 10
13.02502441
 20
-46.45918274
 30
0.0
 11
14.33325195
 21
-48.72502136
 31
0.0
  0
LINE
  5
65
330
1D
100
AcDbEntity
  8
1
100
AcDbLine
 10
9.17504883
 20
-46.45924377
 30
0.0
 11
7.86688232
 21
-48.72505188
 31
0.0
  0
LINE
  5
66
330
1D
100
AcDbEntity
  8
1
100
AcDbLine
 10
14.33325195
 20
-48.72502136
 30
0.0
 11
18.55004883
 21
-48.72502136
 31
0.0
  0
ARC
  5
67
330
1D
100
AcDbEntity
  8
1
100
AcDbCircle
 10
9.67506409
 20
-46.00001526
 30
0.0
 40
0.50000006
100
AcDbArc
 50
90.0
 51
180.0
  0
ARC
  5
68
330
1D
100
AcDbEntity
  8
1
100
AcDbCircle
 10
12.52503967
 20
-46.00001526
 30
0.0
 40
0.50000006
100
AcDbArc
 50
0.0
 51
90.0
  0
LINE
  5
69
330
1D
100
AcDbEntity
  8
1
100
AcDbLine
 10
3.19995117
 20
-38.58003235
 30
0.0
 11
7.86682129
 21
-38.58003235
 31
0.0
  0
LINE
  5
6A
330
1D
100
AcDbEntity
  8
1
100
AcDbLine
 10
14.33325195
 20
-38.58003235
 30
0.0
 11
19.05004883
 21
-38.58003235
 31
0.0
  0
LINE
  5
6B
330
1D
100
AcDbEntity
  8
SK1
100
AcDbLine
 10
-101.59996033
 20
0.0
 30
0.0
 11
-101.59996033
 21
-17.94639587
 31
0.0
  0
LINE
  5
6C
330
1D
100
AcDbEntity
  8
SK1
100
AcDbLine
 10
0.0
 20
-34.92500305
 30
0.0
 11
-99.46073914
 21
-20.42021179
 31
0.0
  0
LINE
  5
6D
330
1D
100
AcDbEntity
  8
1
100
AcDbLine
 10
3.19995117
 20
-13.85002136
 30
0.0
 11
3.19995117
 21
-48.22505188
 31
0.0
  0
LINE
  5
6E
330
1D
100
AcDbEntity
  8
1
100
AcDbLine
 10
19.05004883
 20
-13.85002136
 30
0.0
 11
19.05004883
 21
-48.22505188
 31
0.0
  0
ARC
  5
6F
330
1D
100
AcDbEntity
  8
SK1
100
AcDbCircle
 10
-99.09996033
 20
17.94633484
 30
0.0
 40
2.50000024
100
AcDbArc
 50
98.29711914000002
 51
180.00001526
  0
LINE
  5
70
330
1D
100
AcDbEntity
  8
SK1
100
AcDbLine
 10
-101.59996033
 20
0.0
 30
0.0
 11
-101.59996033
 21
17.94639587
 31
0.0
  0
LINE
  5
71
330
1D
100
AcDbEntity
  8
1
100
AcDbLine
 10
37.94438171
 20
-31.75001526
 30
0.0
 11
227.99998474
 21
-31.75001526
 31
0.0
  0
LINE
  5
72
330
1D
100
AcDbEntity
  8
1
100
AcDbLine
 10
227.99998474
 20
-31.75001526
 30
0.0
 11
228.99998474
 21
-30.75001526
 31
0.0
  0
CIRCLE
  5
73
330
1D
100
AcDbEntity
  8
1
100
AcDbCircle
 10
212.94998169
 20
0.0
 30
0.0
 40
6.0
  0
LINE
  5
74
330
1D
100
AcDbEntity
  8
SK4
100
AcDbLine
 10
212.94998169
 20
-7.0
 30
0.0
 11
212.94998169
 21
7.0
 31
0.0
  0
LINE
  5
75
330
1D
100
AcDbEntity
  8
1
100
AcDbLine
 10
209.94998169
 20
-1.73204041
 30
0.0
 11
209.94998169
 21
1.7320404
 31
0.0
  0
LINE
  5
76
330
1D
100
AcDbEntity
  8
1
100
AcDbLine
 10
209.94998169
 20
1.7320404
 30
0.0
 11
212.94998169
 21
3.46409607
 31
0.0
  0
LINE
  5
77
330
1D
100
AcDbEntity
  8
1
100
AcDbLine
 10
212.94998169
 20
3.46409607
 30
0.0
 11
215.94998169
 21
1.7320404
 31
0.0
  0
LINE
  5
78
330
1D
100
AcDbEntity
  8
1
100
AcDbLine
 10
215.94998169
 20
-1.73204041
 30
0.0
 11
215.94998169
 21
1.7320404
 31
0.0
  0
LINE
  5
79
330
1D
100
AcDbEntity
  8
1
100
AcDbLine
 10
215.94998169
 20
-1.73204041
 30
0.0
 11
212.94998169
 21
-3.46409607
 31
0.0
  0
LINE
  5
7A
330
1D
100
AcDbEntity
  8
1
100
AcDbLine
 10
209.94998169
 20
-1.73204041
 30
0.0
 11
212.94998169
 21
-3.46409607
 31
0.0
  0
LINE
  5
7B
330
1D
100
AcDbEntity
  8
2
100
AcDbLine
 10
0.0
 20
60.137212752
 30
0.0
 11
0.0
 21
34.92500305
 31
0.0
  0
LINE
  5
7C
330
1D
100
AcDbEntity
  8
2
100
AcDbLine
 10
0.0
 20
58.137212752
 30
0.0
 11
3.5
 21
58.587212752
 31
0.0
  0
LINE
  5
7D
330
1D
100
AcDbEntity
  8
2
100
AcDbLine
 10
3.5
 20
58.587212752
 30
0.0
 11
3.5
 21
57.687212752
 31
0.0
  0
LINE
  5
7E
330
1D
100
AcDbEntity
  8
2
100
AcDbLine
 10
3.5
 20
57.687212752
 30
0.0
 11
0.0
 21
58.137212752
 31
0.0
  0
LINE
  5
7F
330
1D
100
AcDbEntity
  8
2
100
AcDbLine
 10
3.4
 20
58.137212752
 30
0.0
 11
0.1
 21
58.137212752
 31
0.0
  0
LINE
  5
80
330
1D
100
AcDbEntity
  8
2
100
AcDbLine
 10
3.4
 20
57.937212752
 30
0.0
 11
1.655555556
 21
57.937212752
 31
0.0
  0
LINE
  5
81
330
1D
100
AcDbEntity
  8
2
100
AcDbLine
 10
3.4
 20
58.337212752
 30
0.0
 11
1.655555556
 21
58.337212752
 31
0.0
  0
LINE
  5
82
330
1D
100
AcDbEntity
  8
2
100
AcDbLine
 10
3.4
 20
57.737212752
 30
0.0
 11
3.211111111
 21
57.737212752
 31
0.0
  0
LINE
  5
83
330
1D
100
AcDbEntity
  8
2
100
AcDbLine
 10
3.4
 20
58.537212752
 30
0.0
 11
3.211111111
 21
58.537212752
 31
0.0
  0
LINE
  5
84
330
1D
100
AcDbEntity
  8
2
100
AcDbLine
 10
228.99998474
 20
60.137212755
 30
0.0
 11
228.99998474
 21
31.00001526
 31
0.0
  0
LINE
  5
85
330
1D
100
AcDbEntity
  8
2
100
AcDbLine
 10
228.99998474
 20
58.137212755
 30
0.0
 11
225.49998474
 21
57.687212754
 31
0.0
  0
LINE
  5
86
330
1D
100
AcDbEntity
  8
2
100
AcDbLine
 10
225.49998474
 20
57.687212754
 30
0.0
 11
225.49998474
 21
58.587212754
 31
0.0
  0
LINE
  5
87
330
1D
100
AcDbEntity
  8
2
100
AcDbLine
 10
225.49998474
 20
58.587212754
 30
0.0
 11
228.99998474
 21
58.137212755
 31
0.0
  0
LINE
  5
88
330
1D
100
AcDbEntity
  8
2
100
AcDbLine
 10
225.59998474
 20
58.137212754
 30
0.0
 11
228.89998474
 21
58.137212755
 31
0.0
  0
LINE
  5
89
330
1D
100
AcDbEntity
  8
2
100
AcDbLine
 10
225.59998474
 20
58.337212754
 30
0.0
 11
227.344429184
 21
58.337212754
 31
0.0
  0
LINE
  5
8A
330
1D
100
AcDbEntity
  8
2
100
AcDbLine
 10
225.59998474
 20
57.937212754
 30
0.0
 11
227.344429184
 21
57.937212754
 31
0.0
  0
LINE
  5
8B
330
1D
100
AcDbEntity
  8
2
100
AcDbLine
 10
225.59998474
 20
58.537212754
 30
0.0
 11
225.788873629
 21
58.537212754
 31
0.0
  0
LINE
  5
8C
330
1D
100
AcDbEntity
  8
2
100
AcDbLine
 10
225.59998474
 20
57.737212754
 30
0.0
 11
225.788873629
 21
57.737212754
 31
0.0
  0
LINE
  5
8D
330
1D
100
AcDbEntity
  8
2
100
AcDbLine
 10
3.5
 20
58.137212752
 30
0.0
 11
225.49998474
 21
58.137212754
 31
0.0
  0
TEXT
  5
8E
330
1D
100
AcDbEntity
  8
2
100
AcDbText
 10
111.768896061
 20
59.637212753
 30
0.0
 40
3.5
  1
229
  7
BMG_Text
100
AcDbText
  0
LINE
  5
8F
330
1D
100
AcDbEntity
  8
2
100
AcDbLine
 10
241.325736045
 20
-18.00325
 30
0.0
 11
228.99998474
 21
-18.00325
 31
0.0
  0
LINE
  5
90
330
1D
100
AcDbEntity
  8
2
100
AcDbLine
 10
239.325736045
 20
-18.00325
 30
0.0
 11
238.875736045
 21
-14.50325
 31
0.0
  0
LINE
  5
91
330
1D
100
AcDbEntity
  8
2
100
AcDbLine
 10
238.875736045
 20
-14.50325
 30
0.0
 11
239.775736045
 21
-14.50325
 31
0.0
  0
LINE
  5
92
330
1D
100
AcDbEntity
  8
2
100
AcDbLine
 10
239.775736045
 20
-14.50325
 30
0.0
 11
239.325736045
 21
-18.00325
 31
0.0
  0
LINE
  5
93
330
1D
100
AcDbEntity
  8
2
100
AcDbLine
 10
239.325736045
 20
-14.60325
 30
0.0
 11
239.325736045
 21
-17.90325
 31
0.0
  0
LINE
  5
94
330
1D
100
AcDbEntity
  8
2
100
AcDbLine
 10
239.525736045
 20
-14.60325
 30
0.0
 11
239.525736045
 21
-16.347694444
 31
0.0
  0
LINE
  5
95
330
1D
100
AcDbEntity
  8
2
100
AcDbLine
 10
239.125736045
 20
-14.60325
 30
0.0
 11
239.125736045
 21
-16.347694444
 31
0.0
  0
LINE
  5
96
330
1D
100
AcDbEntity
  8
2
100
AcDbLine
 10
239.725736045
 20
-14.60325
 30
0.0
 11
239.725736045
 21
-14.792138889
 31
0.0
  0
LINE
  5
97
330
1D
100
AcDbEntity
  8
2
100
AcDbLine
 10
238.925736045
 20
-14.60325
 30
0.0
 11
238.925736045
 21
-14.792138889
 31
0.0
  0
LINE
  5
98
330
1D
100
AcDbEntity
  8
2
100
AcDbLine
 10
241.325736045
 20
18.00325
 30
0.0
 11
228.99998474
 21
18.00325
 31
0.0
  0
LINE
  5
99
330
1D
100
AcDbEntity
  8
2
100
AcDbLine
 10
239.325736045
 20
18.00325
 30
0.0
 11
239.775736045
 21
14.50325
 31
0.0
  0
LINE
  5
9A
330
1D
100
AcDbEntity
  8
2
100
AcDbLine
 10
239.775736045
 20
14.50325
 30
0.0
 11
238.875736045
 21
14.50325
 31
0.0
  0
LINE
  5
9B
330
1D
100
AcDbEntity
  8
2
100
AcDbLine
 10
238.875736045
 20
14.50325
 30
0.0
 11
239.325736045
 21
18.00325
 31
0.0
  0
LINE
  5
9C
330
1D
100
AcDbEntity
  8
2
100
AcDbLine
 10
239.325736045
 20
14.60325
 30
0.0
 11
239.325736045
 21
17.90325
 31
0.0
  0
LINE
  5
9D
330
1D
100
AcDbEntity
  8
2
100
AcDbLine
 10
239.125736045
 20
14.60325
 30
0.0
 11
239.125736045
 21
16.347694444
 31
0.0
  0
LINE
  5
9E
330
1D
100
AcDbEntity
  8
2
100
AcDbLine
 10
239.525736045
 20
14.60325
 30
0.0
 11
239.525736045
 21
16.347694444
 31
0.0
  0
LINE
  5
9F
330
1D
100
AcDbEntity
  8
2
100
AcDbLine
 10
238.925736045
 20
14.60325
 30
0.0
 11
238.925736045
 21
14.792138889
 31
0.0
  0
LINE
  5
A0
330
1D
100
AcDbEntity
  8
2
100
AcDbLine
 10
239.725736045
 20
14.60325
 30
0.0
 11
239.725736045
 21
14.792138889
 31
0.0
  0
LINE
  5
A1
330
1D
100
AcDbEntity
  8
2
100
AcDbLine
 10
239.325736045
 20
-14.50325
 30
0.0
 11
239.325736045
 21
14.50325
 31
0.0
  0
TEXT
  5
A2
330
1D
100
AcDbEntity
  8
2
100
AcDbText
 10
237.825736045
 20
0.331405848
 30
0.0
 40
3.5
  1
36
 50
90.0
  7
BMG_Text
100
AcDbText
  0
CIRCLE
  5
A3
330
1D
100
AcDbEntity
  8
2
100
AcDbCircle
 10
236.575736045
 20
-1.918594152
 30
0.0
 40
1.25
  0
LINE
  5
A4
330
1D
100
AcDbEntity
  8
2
100
AcDbLine
 10
237.825736045
 20
-3.168594152
 30
0.0
 11
235.325736045
 21
-0.668594152
 31
0.0
  0
LINE
  5
A5
330
1D
100
AcDbEntity
  8
2
100
AcDbLine
 10
250.070196151
 20
-31.75001526
 30
0.0
 11
227.99998474
 21
-31.75001526
 31
0.0
  0
LINE
  5
A6
330
1D
100
AcDbEntity
  8
2
100
AcDbLine
 10
248.070196151
 20
-31.75001526
 30
0.0
 11
247.620196151
 21
-28.25001526
 31
0.0
  0
LINE
  5
A7
330
1D
100
AcDbEntity
  8
2
100
AcDbLine
 10
247.620196151
 20
-28.25001526
 30
0.0
 11
248.520196151
 21
-28.25001526
 31
0.0
  0
LINE
  5
A8
330
1D
100
AcDbEntity
  8
2
100
AcDbLine
 10
248.520196151
 20
-28.25001526
 30
0.0
 11
248.070196151
 21
-31.75001526
 31
0.0
  0
LINE
  5
A9
330
1D
100
AcDbEntity
  8
2
100
AcDbLine
 10
248.070196151
 20
-28.35001526
 30
0.0
 11
248.070196151
 21
-31.65001526
 31
0.0
  0
LINE
  5
AA
330
1D
100
AcDbEntity
  8
2
100
AcDbLine
 10
248.270196151
 20
-28.35001526
 30
0.0
 11
248.270196151
 21
-30.094459704
 31
0.0
  0
LINE
  5
AB
330
1D
100
AcDbEntity
  8
2
100
AcDbLine
 10
247.870196151
 20
-28.35001526
 30
0.0
 11
247.870196151
 21
-30.094459704
 31
0.0
  0
LINE
  5
AC
330
1D
100
AcDbEntity
  8
2
100
AcDbLine
 10
248.470196151
 20
-28.35001526
 30
0.0
 11
248.470196151
 21
-28.538904149
 31
0.0
  0
LINE
  5
AD
330
1D
100
AcDbEntity
  8
2
100
AcDbLine
 10
247.670196151
 20
-28.35001526
 30
0.0
 11
247.670196151
 21
-28.538904149
 31
0.0
  0
LINE
  5
AE
330
1D
100
AcDbEntity
  8
2
100
AcDbLine
 10
250.070196151
 20
31.75001526
 30
0.0
 11
227.99998474
 21
31.75001526
 31
0.0
  0
LINE
  5
AF
330
1D
100
AcDbEntity
  8
2
100
AcDbLine
 10
248.070196151
 20
31.75001526
 30
0.0
 11
248.520196151
 21
28.25001526
 31
0.0
  0
LINE
  5
B0
330
1D
100
AcDbEntity
  8
2
100
AcDbLine
 10
248.520196151
 20
28.25001526
 30
0.0
 11
247.620196151
 21
28.25001526
 31
0.0
  0
LINE
  5
B1
330
1D
100
AcDbEntity
  8
2
100
AcDbLine
 10
247.620196151
 20
28.25001526
 30
0.0
 11
248.070196151
 21
31.75001526
 31
0.0
  0
LINE
  5
B2
330
1D
100
AcDbEntity
  8
2
100
AcDbLine
 10
248.070196151
 20
28.35001526
 30
0.0
 11
248.070196151
 21
31.65001526
 31
0.0
  0
LINE
  5
B3
330
1D
100
AcDbEntity
  8
2
100
AcDbLine
 10
247.870196151
 20
28.35001526
 30
0.0
 11
247.870196151
 21
30.094459704
 31
0.0
  0
LINE
  5
B4
330
1D
100
AcDbEntity
  8
2
100
AcDbLine
 10
248.270196151
 20
28.35001526
 30
0.0
 11
248.270196151
 21
30.094459704
 31
0.0
  0
LINE
  5
B5
330
1D
100
AcDbEntity
  8
2
100
AcDbLine
 10
247.670196151
 20
28.35001526
 30
0.0
 11
247.670196151
 21
28.538904149
 31
0.0
  0
LINE
  5
B6
330
1D
100
AcDbEntity
  8
2
100
AcDbLine
 10
248.470196151
 20
28.35001526
 30
0.0
 11
248.470196151
 21
28.538904149
 31
0.0
  0
LINE
  5
B7
330
1D
100
AcDbEntity
  8
2
100
AcDbLine
 10
248.070196151
 20
-28.25001526
 30
0.0
 11
248.070196151
 21
28.25001526
 31
0.0
  0
TEXT
  5
B8
330
1D
100
AcDbEntity
  8
2
100
AcDbText
 10
246.570196151
 20
-1.17250071
 30
0.0
 40
3.5
  1
63.5
 50
90.0
  7
BMG_Text
100
AcDbText
  0
CIRCLE
  5
B9
330
1D
100
AcDbEntity
  8
2
100
AcDbCircle
 10
245.320196151
 20
-3.42250071
 30
0.0
 40
1.25
  0
LINE
  5
BA
330
1D
100
AcDbEntity
  8
2
100
AcDbLine
 10
246.570196151
 20
-4.67250071
 30
0.0
 11
244.070196151
 21
-2.17250071
 31
0.0
  0
LINE
  5
BB
330
1D
100
AcDbEntity
  8
SK2
100
AcDbLine
 10
-21.595767975
 20
-34.92500305
 30
0.0
 11
0.0
 21
-34.92500305
 31
0.0
  0
LINE
  5
BC
330
1D
100
AcDbEntity
  8
SK2
100
AcDbLine
 10
-19.595767975
 20
-34.92500305
 30
0.0
 11
-20.045767975
 21
-31.42500305
 31
0.0
  0
LINE
  5
BD
330
1D
100
AcDbEntity
  8
SK2
100
AcDbLine
 10
-20.045767975
 20
-31.42500305
 30
0.0
 11
-19.145767975
 21
-31.42500305
 31
0.0
  0
LINE
  5
BE
330
1D
100
AcDbEntity
  8
SK2
100
AcDbLine
 10
-19.145767975
 20
-31.42500305
 30
0.0
 11
-19.595767975
 21
-34.92500305
 31
0.0
  0
LINE
  5
BF
330
1D
100
AcDbEntity
  8
SK2
100
AcDbLine
 10
-19.595767975
 20
-31.52500305
 30
0.0
 11
-19.595767975
 21
-34.82500305
 31
0.0
  0
LINE
  5
C0
330
1D
100
AcDbEntity
  8
SK2
100
AcDbLine
 10
-19.395767975
 20
-31.52500305
 30
0.0
 11
-19.395767975
 21
-33.269447494
 31
0.0
  0
LINE
  5
C1
330
1D
100
AcDbEntity
  8
SK2
100
AcDbLine
 10
-19.795767975
 20
-31.52500305
 30
0.0
 11
-19.795767975
 21
-33.269447494
 31
0.0
  0
LINE
  5
C2
330
1D
100
AcDbEntity
  8
SK2
100
AcDbLine
 10
-19.195767975
 20
-31.52500305
 30
0.0
 11
-19.195767975
 21
-31.713891939
 31
0.0
  0
LINE
  5
C3
330
1D
100
AcDbEntity
  8
SK2
100
AcDbLine
 10
-19.995767975
 20
-31.52500305
 30
0.0
 11
-19.995767975
 21
-31.713891939
 31
0.0
  0
LINE
  5
C4
330
1D
100
AcDbEntity
  8
SK2
100
AcDbLine
 10
-21.595767975
 20
34.92500305
 30
0.0
 11
0.0
 21
34.92500305
 31
0.0
  0
LINE
  5
C5
330
1D
100
AcDbEntity
  8
SK2
100
AcDbLine
 10
-19.595767975
 20
34.92500305
 30
0.0
 11
-19.145767975
 21
31.42500305
 31
0.0
  0
LINE
  5
C6
330
1D
100
AcDbEntity
  8
SK2
100
AcDbLine
 10
-19.145767975
 20
31.42500305
 30
0.0
 11
-20.045767975
 21
31.42500305
 31
0.0
  0
LINE
  5
C7
330
1D
100
AcDbEntity
  8
SK2
100
AcDbLine
 10
-20.045767975
 20
31.42500305
 30
0.0
 11
-19.595767975
 21
34.92500305
 31
0.0
  0
LINE
  5
C8
330
1D
100
AcDbEntity
  8
SK2
100
AcDbLine
 10
-19.595767975
 20
31.52500305
 30
0.0
 11
-19.595767975
 21
34.82500305
 31
0.0
  0
LINE
  5
C9
330
1D
100
AcDbEntity
  8
SK2
100
AcDbLine
 10
-19.795767975
 20
31.52500305
 30
0.0
 11
-19.795767975
 21
33.269447494
 31
0.0
  0
LINE
  5
CA
330
1D
100
AcDbEntity
  8
SK2
100
AcDbLine
 10
-19.395767975
 20
31.52500305
 30
0.0
 11
-19.395767975
 21
33.269447494
 31
0.0
  0
LINE
  5
CB
330
1D
100
AcDbEntity
  8
SK2
100
AcDbLine
 10
-19.995767975
 20
31.52500305
 30
0.0
 11
-19.995767975
 21
31.713891939
 31
0.0
  0
LINE
  5
CC
330
1D
100
AcDbEntity
  8
SK2
100
AcDbLine
 10
-19.195767975
 20
31.52500305
 30
0.0
 11
-19.195767975
 21
31.713891939
 31
0.0
  0
LINE
  5
CD
330
1D
100
AcDbEntity
  8
SK2
100
AcDbLine
 10
-19.595767975
 20
-31.42500305
 30
0.0
 11
-19.595767975
 21
31.42500305
 31
0.0
  0
TEXT
  5
CE
330
1D
100
AcDbEntity
  8
SK2
100
AcDbText
 10
-21.095767975
 20
-2.430313281
 30
0.0
 40
3.5
  1
69.85
 50
90.0
  7
BMG_Text
100
AcDbText
  0
CIRCLE
  5
CF
330
1D
100
AcDbEntity
  8
SK2
100
AcDbCircle
 10
-22.345767975
 20
-4.680313281
 30
0.0
 40
1.25
  0
LINE
  5
D0
330
1D
100
AcDbEntity
  8
SK2
100
AcDbLine
 10
-21.095767975
 20
-5.930313281
 30
0.0
 11
-23.595767975
 21
-3.430313281
 31
0.0
  0
LINE
  5
D1
330
1D
100
AcDbEntity
  8
2
100
AcDbLine
 10
0.0
 20
-64.059553145
 30
0.0
 11
0.0
 21
-34.92500305
 31
0.0
  0
LINE
  5
D2
330
1D
100
AcDbEntity
  8
2
100
AcDbLine
 10
0.0
 20
-62.059553145
 30
0.0
 11
3.500000004
 21
-61.609553174
 31
0.0
  0
LINE
  5
D3
330
1D
100
AcDbEntity
  8
2
100
AcDbLine
 10
3.500000004
 20
-61.609553174
 30
0.0
 11
3.499999996
 21
-62.509553174
 31
0.0
  0
LINE
  5
D4
330
1D
100
AcDbEntity
  8
2
100
AcDbLine
 10
3.499999996
 20
-62.509553174
 30
0.0
 11
0.0
 21
-62.059553145
 31
0.0
  0
LINE
  5
D5
330
1D
100
AcDbEntity
  8
2
100
AcDbLine
 10
3.4
 20
-62.059553174
 30
0.0
 11
0.1
 21
-62.059553145
 31
0.0
  0
LINE
  5
D6
330
1D
100
AcDbEntity
  8
2
100
AcDbLine
 10
3.399999998
 20
-62.259553174
 30
0.0
 11
1.655555554
 21
-62.259553159
 31
0.0
  0
LINE
  5
D7
330
1D
100
AcDbEntity
  8
2
100
AcDbLine
 10
3.400000002
 20
-61.859553174
 30
0.0
 11
1.655555557
 21
-61.859553159
 31
0.0
  0
LINE
  5
D8
330
1D
100
AcDbEntity
  8
2
100
AcDbLine
 10
3.399999997
 20
-62.459553174
 30
0.0
 11
3.211111108
 21
-62.459553172
 31
0.0
  0
LINE
  5
D9
330
1D
100
AcDbEntity
  8
2
100
AcDbLine
 10
3.400000003
 20
-61.659553174
 30
0.0
 11
3.211111115
 21
-61.659553172
 31
0.0
  0
LINE
  5
DA
330
1D
100
AcDbEntity
  8
2
100
AcDbLine
 10
39.99998474
 20
-64.059553485
 30
0.0
 11
39.99998474
 21
-36.071201663
 31
0.0
  0
LINE
  5
DB
330
1D
100
AcDbEntity
  8
2
100
AcDbLine
 10
39.99998474
 20
-62.059553485
 30
0.0
 11
36.499984736
 21
-62.509553455
 31
0.0
  0
LINE
  5
DC
330
1D
100
AcDbEntity
  8
2
100
AcDbLine
 10
36.499984736
 20
-62.509553455
 30
0.0
 11
36.499984744
 21
-61.609553455
 31
0.0
  0
LINE
  5
DD
330
1D
100
AcDbEntity
  8
2
100
AcDbLine
 10
36.499984744
 20
-61.609553455
 30
0.0
 11
39.99998474
 21
-62.059553485
 31
0.0
  0
LINE
  5
DE
330
1D
100
AcDbEntity
  8
2
100
AcDbLine
 10
36.59998474
 20
-62.059553456
 30
0.0
 11
39.89998474
 21
-62.059553484
 31
0.0
  0
LINE
  5
DF
330
1D
100
AcDbEntity
  8
2
100
AcDbLine
 10
36.599984742
 20
-61.859553456
 30
0.0
 11
38.344429186
 21
-61.859553471
 31
0.0
  0
LINE
  5
E0
330
1D
100
AcDbEntity
  8
2
100
AcDbLine
 10
36.599984738
 20
-62.259553456
 30
0.0
 11
38.344429183
 21
-62.259553471
 31
0.0
  0
LINE
  5
E1
330
1D
100
AcDbEntity
  8
2
100
AcDbLine
 10
36.599984743
 20
-61.659553456
 30
0.0
 11
36.788873632
 21
-61.659553458
 31
0.0
  0
LINE
  5
E2
330
1D
100
AcDbEntity
  8
2
100
AcDbLine
 10
36.599984737
 20
-62.459553456
 30
0.0
 11
36.788873625
 21
-62.459553458
 31
0.0
  0
LINE
  5
E3
330
1D
100
AcDbEntity
  8
2
100
AcDbLine
 10
3.5
 20
-62.059553174
 30
0.0
 11
36.49998474
 21
-62.059553455
 31
0.0
  0
TEXT
  5
E4
330
1D
100
AcDbEntity
  8
2
100
AcDbText
 10
18.335304436
 20
-60.559553301
 30
0.0
 40
3.5
  1
40
 50
359.999999512
  7
BMG_Text
100
AcDbText
  0
LINE
  5
E5
330
1D
100
AcDbEntity
  8
2
100
AcDbLine
 10
39.99998474
 20
-64.059553485
 30
0.0
 11
39.99998474
 21
-36.071201663
 31
0.0
  0
LINE
  5
E6
330
1D
100
AcDbEntity
  8
2
100
AcDbLine
 10
39.99998474
 20
-62.059553485
 30
0.0
 11
43.49998474
 21
-61.609553485
 31
0.0
  0
LINE
  5
E7
330
1D
100
AcDbEntity
  8
2
100
AcDbLine
 10
43.49998474
 20
-61.609553485
 30
0.0
 11
43.49998474
 21
-62.509553485
 31
0.0
  0
LINE
  5
E8
330
1D
100
AcDbEntity
  8
2
100
AcDbLine
 10
43.49998474
 20
-62.509553485
 30
0.0
 11
39.99998474
 21
-62.059553485
 31
0.0
  0
LINE
  5
E9
330
1D
100
AcDbEntity
  8
2
100
AcDbLine
 10
43.39998474
 20
-62.059553485
 30
0.0
 11
40.09998474
 21
-62.059553485
 31
0.0
  0
LINE
  5
EA
330
1D
100
AcDbEntity
  8
2
100
AcDbLine
 10
43.39998474
 20
-62.259553485
 30
0.0
 11
41.655540296
 21
-62.259553485
 31
0.0
  0
LINE
  5
EB
330
1D
100
AcDbEntity
  8
2
100
AcDbLine
 10
43.39998474
 20
-61.859553485
 30
0.0
 11
41.655540296
 21
-61.859553485
 31
0.0
  0
LINE
  5
EC
330
1D
100
AcDbEntity
  8
2
100
AcDbLine
 10
43.39998474
 20
-62.459553485
 30
0.0
 11
43.211095851
 21
-62.459553485
 31
0.0
  0
LINE
  5
ED
330
1D
100
AcDbEntity
  8
2
100
AcDbLine
 10
43.39998474
 20
-61.659553485
 30
0.0
 11
43.211095851
 21
-61.659553485
 31
0.0
  0
LINE
  5
EE
330
1D
100
AcDbEntity
  8
2
100
AcDbLine
 10
43.49998474
 20
-62.059553485
 30
0.0
 11
247.89998474
 21
-62.059553485
 31
0.0
  0
TEXT
  5
EF
330
1D
100
AcDbEntity
  8
2
100
AcDbText
 10
129.953263667
 20
-60.559553485
 30
0.0
 40
3.5
  1
Ausdrehtiefe 260
  7
BMG_Text
100
AcDbText
  0
TEXT
  5
F0
330
1D
100
AcDbEntity
  8
SK6
100
AcDbText
 10
266.1137644918444
 20
-88.12960743038529
 30
0.0
 40
3.5
  1
323.768N
  7
BMG_Text
100
AcDbText
  0
LINE
  5
F1
330
1D
100
AcDbEntity
  8
SK6
100
AcDbLine
 10
-67.82416534
 20
-48.80729675
 30
0.0
 11
-67.82416534
 21
-50.87728882
 31
0.0
  0
ARC
  5
F2
330
1D
100
AcDbEntity
  8
SK6
100
AcDbCircle
 10
-70.70414734
 20
-51.95729828
 30
0.0
 40
1.08000004
100
AcDbArc
 50
90.00000763
 51
206.54360962
  0
LINE
  5
F3
330
1D
100
AcDbEntity
  8
SK6
100
AcDbLine
 10
-70.70414734
 20
-50.87731934
 30
0.0
 11
-67.82414246
 21
-50.87731934
 31
0.0
  0
ARC
  5
F4
330
1D
100
AcDbEntity
  8
SK6
100
AcDbCircle
 10
-71.87416077
 20
-51.5072937
 30
0.0
 40
2.70000005
100
AcDbArc
 50
90.00000763
 51
206.5436554
  0
ARC
  5
F5
330
1D
100
AcDbEntity
  8
SK6
100
AcDbCircle
 10
-71.15414429
 20
-61.40730286
 30
0.0
 40
1.08000004
100
AcDbArc
 50
270.0
 51
26.54360962
  0
LINE
  5
F6
330
1D
100
AcDbEntity
  8
SK6
100
AcDbLine
 10
-71.15414429
 20
-62.48730469
 30
0.0
 11
-74.57414246
 21
-62.48730469
 31
0.0
  0
LINE
  5
F7
330
1D
100
AcDbEntity
  8
SK6
100
AcDbLine
 10
-74.28956604
 20
-52.71386719
 30
0.0
 11
-70.18800354
 21
-60.92465973
 31
0.0
  0
ARC
  5
F8
330
1D
100
AcDbEntity
  8
SK6
100
AcDbCircle
 10
-69.98416138
 20
-61.85730743
 30
0.0
 40
2.70000005
100
AcDbArc
 50
270.0
 51
26.54364014
  0
LINE
  5
F9
330
1D
100
AcDbEntity
  8
SK6
100
AcDbLine
 10
-71.6703186
 20
-52.43992615
 30
0.0
 11
-67.56874847
 21
-60.65072632
 31
0.0
  0
LINE
  5
FA
330
1D
100
AcDbEntity
  8
SK6
100
AcDbLine
 10
-74.57416534
 20
-62.48730469
 30
0.0
 11
-74.57416534
 21
-64.55731201
 31
0.0
  0
LINE
  5
FB
330
1D
100
AcDbEntity
  8
SK6
100
AcDbLine
 10
-74.57416534
 20
-64.55731201
 30
0.0
 11
-69.98416138
 21
-64.55731201
 31
0.0
  0
LINE
  5
FC
330
1D
100
AcDbEntity
  8
SK6
100
AcDbLine
 10
-65.12416077
 20
-64.55731201
 30
0.0
 11
-65.12416077
 21
-48.80731201
 31
0.0
  0
LINE
  5
FD
330
1D
100
AcDbEntity
  8
SK6
100
AcDbLine
 10
-56.84415436
 20
-64.55731201
 30
0.0
 11
-56.84415436
 21
-48.80731201
 31
0.0
  0
LINE
  5
FE
330
1D
100
AcDbEntity
  8
SK6
100
AcDbLine
 10
-56.84415436
 20
-64.55731201
 30
0.0
 11
-54.14416122
 21
-64.55731201
 31
0.0
  0
LINE
  5
FF
330
1D
100
AcDbEntity
  8
SK6
100
AcDbLine
 10
-54.14416122
 20
-64.55731201
 30
0.0
 11
-54.14416122
 21
-57.71731567
 31
0.0
  0
ARC
  5
100
330
1D
100
AcDbEntity
  8
SK6
100
AcDbCircle
 10
-52.79414749
 20
-58.79730225
 30
0.0
 40
1.08000004
100
AcDbArc
 50
0.0
 51
90.00000763
  0
LINE
  5
101
330
1D
100
AcDbEntity
  8
SK6
100
AcDbLine
 10
-52.79414749
 20
-57.71730042
 30
0.0
 11
-54.14414978
 21
-57.71730042
 31
0.0
  0
LINE
  5
102
330
1D
100
AcDbEntity
  8
SK6
100
AcDbLine
 10
-51.71416855
 20
-62.03730774
 30
0.0
 11
-51.71416855
 21
-63.02729797
 31
0.0
  0
ARC
  5
103
330
1D
100
AcDbEntity
  8
SK6
100
AcDbCircle
 10
-46.5841713
 20
-63.0273056
 30
0.0
 40
2.51999998
100
AcDbArc
 50
180.0
 51
217.38319397
  0
ARC
  5
104
330
1D
100
AcDbEntity
  8
SK6
100
AcDbCircle
 10
-49.19417953
 20
-63.0273056
 30
0.0
 40
2.51999998
100
AcDbArc
 50
180.0
 51
217.38319397
  0
LINE
  5
105
330
1D
100
AcDbEntity
  8
SK6
100
AcDbLine
 10
-48.67656326
 20
-64.55731201
 30
0.0
 11
-51.19656372
 21
-64.55731201
 31
0.0
  0
LINE
  5
106
330
1D
100
AcDbEntity
  8
SK6
100
AcDbLine
 10
-51.71416855
 20
-58.7973175
 30
0.0
 11
-51.71416855
 21
-63.0273056
 31
0.0
  0
ARC
  5
107
330
1D
100
AcDbEntity
  8
SK6
100
AcDbCircle
 10
-51.62414932
 20
-58.97731018
 30
0.0
 40
2.51999998
100
AcDbArc
 50
358.70883179
 51
93.06652832
  0
ARC
  5
108
330
1D
100
AcDbEntity
  8
SK6
100
AcDbCircle
 10
-51.89416122
 20
-53.93730927
 30
0.0
 40
2.51999998
100
AcDbArc
 50
273.06652832
 51
0.0
  0
ARC
  5
109
330
1D
100
AcDbEntity
  8
SK6
100
AcDbCircle
 10
-51.89416122
 20
-51.32731628
 30
0.0
 40
2.51999998
100
AcDbArc
 50
0.0
 51
90.00000763
  0
LINE
  5
10A
330
1D
100
AcDbEntity
  8
SK6
100
AcDbLine
 10
-49.37414932
 20
-51.32731628
 30
0.0
 11
-49.37414932
 21
-53.93731689
 31
0.0
  0
ARC
  5
10B
330
1D
100
AcDbEntity
  8
SK6
100
AcDbCircle
 10
-52.52415848
 20
-51.77731323
 30
0.0
 40
0.90000004
100
AcDbArc
 50
0.0
 51
90.00000763
  0
LINE
  5
10C
330
1D
100
AcDbEntity
  8
SK6
100
AcDbLine
 10
-52.52415848
 20
-50.87731934
 30
0.0
 11
-54.14416122
 21
-50.87731934
 31
0.0
  0
ARC
  5
10D
330
1D
100
AcDbEntity
  8
SK6
100
AcDbCircle
 10
-52.52415848
 20
-54.65730286
 30
0.0
 40
0.90000004
100
AcDbArc
 50
270.0
 51
0.0
  0
LINE
  5
10E
330
1D
100
AcDbEntity
  8
SK6
100
AcDbLine
 10
-51.62414932
 20
-51.77731323
 30
0.0
 11
-51.62414932
 21
-54.65731049
 31
0.0
  0
LINE
  5
10F
330
1D
100
AcDbEntity
  8
SK6
100
AcDbLine
 10
-54.14416122
 20
-50.87731934
 30
0.0
 11
-54.14416122
 21
-55.55731201
 31
0.0
  0
LINE
  5
110
330
1D
100
AcDbEntity
  8
SK6
100
AcDbLine
 10
-52.52415848
 20
-55.55731201
 30
0.0
 11
-54.14416122
 21
-55.55731201
 31
0.0
  0
LINE
  5
111
330
1D
100
AcDbEntity
  8
SK6
100
AcDbLine
 10
-49.10480118
 20
-59.03409576
 30
0.0
 11
-49.10417175
 21
-63.02770996
 31
0.0
  0
LINE
  5
112
330
1D
100
AcDbEntity
  8
SK6
100
AcDbLine
 10
-48.67656326
 20
-64.55731201
 30
0.0
 11
-48.58656693
 21
-64.55731201
 31
0.0
  0
LINE
  5
113
330
1D
100
AcDbEntity
  8
SK6
100
AcDbLine
 10
-71.87416077
 20
-48.80729675
 30
0.0
 11
-67.82415771
 21
-48.80729675
 31
0.0
  0
LINE
  5
114
330
1D
100
AcDbEntity
  8
SK6
100
AcDbLine
 10
-51.89416122
 20
-48.80729675
 30
0.0
 11
-56.8441658
 21
-48.80729675
 31
0.0
  0
LINE
  5
115
330
1D
100
AcDbEntity
  8
SK6
100
AcDbLine
 10
-98.87416077
 20
-64.55731201
 30
0.0
 11
-101.66416168
 21
-64.55731201
 31
0.0
  0
LINE
  5
116
330
1D
100
AcDbEntity
  8
SK6
100
AcDbLine
 10
-98.87416077
 20
-61.13731384
 30
0.0
 11
-98.87416077
 21
-64.55731201
 31
0.0
  0
LINE
  5
117
330
1D
100
AcDbEntity
  8
SK6
100
AcDbLine
 10
-97.79415894
 20
-59.06730652
 30
0.0
 11
-98.87416077
 21
-61.13731384
 31
0.0
  0
LINE
  5
118
330
1D
100
AcDbEntity
  8
SK6
100
AcDbLine
 10
-95.36416626
 20
-64.55731201
 30
0.0
 11
-97.79415894
 21
-59.06730652
 31
0.0
  0
LINE
  5
119
330
1D
100
AcDbEntity
  8
SK6
100
AcDbLine
 10
-92.57416534
 20
-64.55731201
 30
0.0
 11
-95.36415863
 21
-64.55731201
 31
0.0
  0
LINE
  5
11A
330
1D
100
AcDbEntity
  8
SK6
100
AcDbLine
 10
-96.17417145
 20
-55.55731201
 30
0.0
 11
-92.57416534
 21
-64.55731201
 31
0.0
  0
LINE
  5
11B
330
1D
100
AcDbEntity
  8
SK6
100
AcDbLine
 10
-93.11416626
 20
-48.80731201
 30
0.0
 11
-96.17415619
 21
-55.55731201
 31
0.0
  0
LINE
  5
11C
330
1D
100
AcDbEntity
  8
SK6
100
AcDbLine
 10
-98.87416077
 20
-55.91732025
 30
0.0
 11
-95.90416718
 21
-48.80732727
 31
0.0
  0
LINE
  5
11D
330
1D
100
AcDbEntity
  8
SK6
100
AcDbLine
 10
-98.87416077
 20
-48.80731201
 30
0.0
 11
-98.87416077
 21
-55.91732025
 31
0.0
  0
LINE
  5
11E
330
1D
100
AcDbEntity
  8
SK6
100
AcDbLine
 10
-101.66416168
 20
-64.55731201
 30
0.0
 11
-101.66416168
 21
-48.80731201
 31
0.0
  0
LINE
  5
11F
330
1D
100
AcDbEntity
  8
SK6
100
AcDbLine
 10
-95.90416718
 20
-48.80731201
 30
0.0
 11
-93.11416626
 21
-48.80731201
 31
0.0
  0
LINE
  5
120
330
1D
100
AcDbEntity
  8
SK6
100
AcDbLine
 10
-101.66416168
 20
-48.80731201
 30
0.0
 11
-98.87416077
 21
-48.80731201
 31
0.0
  0
LINE
  5
121
330
1D
100
AcDbEntity
  8
SK6
100
AcDbLine
 10
-79.614151
 20
-48.80731201
 30
0.0
 11
-79.614151
 21
-64.55731201
 31
0.0
  0
LINE
  5
122
330
1D
100
AcDbEntity
  8
SK6
100
AcDbLine
 10
-76.73414612
 20
-64.55731201
 30
0.0
 11
-76.73414612
 21
-48.80731201
 31
0.0
  0
LINE
  5
123
330
1D
100
AcDbEntity
  8
SK6
100
AcDbLine
 10
-79.614151
 20
-64.55731201
 30
0.0
 11
-76.73414612
 21
-64.55731201
 31
0.0
  0
LINE
  5
124
330
1D
100
AcDbEntity
  8
SK6
100
AcDbLine
 10
-76.73414612
 20
-48.80731201
 30
0.0
 11
-79.61415863
 21
-48.80731201
 31
0.0
  0
LINE
  5
125
330
1D
100
AcDbEntity
  8
SK6
100
AcDbLine
 10
-59.27415848
 20
-64.55731201
 30
0.0
 11
-59.27415848
 21
-62.48730469
 31
0.0
  0
LINE
  5
126
330
1D
100
AcDbEntity
  8
SK6
100
AcDbLine
 10
-65.12416077
 20
-64.55731201
 30
0.0
 11
-59.27415848
 21
-64.55731201
 31
0.0
  0
LINE
  5
127
330
1D
100
AcDbEntity
  8
SK6
100
AcDbLine
 10
-59.27416992
 20
-50.87730408
 30
0.0
 11
-59.27416992
 21
-48.80731201
 31
0.0
  0
LINE
  5
128
330
1D
100
AcDbEntity
  8
SK6
100
AcDbLine
 10
-62.2441864
 20
-50.87730408
 30
0.0
 11
-59.27418137
 21
-50.87730408
 31
0.0
  0
LINE
  5
129
330
1D
100
AcDbEntity
  8
SK6
100
AcDbLine
 10
-62.2441864
 20
-55.55731201
 30
0.0
 11
-62.2441864
 21
-50.87731934
 31
0.0
  0
LINE
  5
12A
330
1D
100
AcDbEntity
  8
SK6
100
AcDbLine
 10
-59.27416992
 20
-55.55731201
 30
0.0
 11
-62.24417496
 21
-55.55731201
 31
0.0
  0
LINE
  5
12B
330
1D
100
AcDbEntity
  8
SK6
100
AcDbLine
 10
-59.27416992
 20
-57.71729279
 30
0.0
 11
-59.27416992
 21
-55.55728912
 31
0.0
  0
LINE
  5
12C
330
1D
100
AcDbEntity
  8
SK6
100
AcDbLine
 10
-62.2441864
 20
-57.71729279
 30
0.0
 11
-59.27418137
 21
-57.71729279
 31
0.0
  0
LINE
  5
12D
330
1D
100
AcDbEntity
  8
SK6
100
AcDbLine
 10
-62.2441864
 20
-62.48730469
 30
0.0
 11
-62.2441864
 21
-57.71729279
 31
0.0
  0
LINE
  5
12E
330
1D
100
AcDbEntity
  8
SK6
100
AcDbLine
 10
-59.27416992
 20
-62.48730469
 30
0.0
 11
-62.24417496
 21
-62.48730469
 31
0.0
  0
LINE
  5
12F
330
1D
100
AcDbEntity
  8
SK6
100
AcDbLine
 10
-59.27416992
 20
-48.80731201
 30
0.0
 11
-65.12417603
 21
-48.80731201
 31
0.0
  0
LINE
  5
130
330
1D
100
AcDbEntity
  8
SK6
100
AcDbLine
 10
-85.19416046
 20
-64.55731201
 30
0.0
 11
-91.49416351
 21
-64.55731201
 31
0.0
  0
LINE
  5
131
330
1D
100
AcDbEntity
  8
SK6
100
AcDbLine
 10
-85.64414978
 20
-62.03730011
 30
0.0
 11
-85.19416046
 21
-64.55729675
 31
0.0
  0
LINE
  5
132
330
1D
100
AcDbEntity
  8
SK6
100
AcDbLine
 10
-88.52416992
 20
-62.03730011
 30
0.0
 11
-85.64417267
 21
-62.03730011
 31
0.0
  0
LINE
  5
133
330
1D
100
AcDbEntity
  8
SK6
100
AcDbLine
 10
-86.99416351
 20
-52.67731476
 30
0.0
 11
-88.52416229
 21
-62.037323
 31
0.0
  0
LINE
  5
134
330
1D
100
AcDbEntity
  8
SK6
100
AcDbLine
 10
-83.93416595
 20
-64.55731201
 30
0.0
 11
-86.99416351
 21
-52.67731476
 31
0.0
  0
LINE
  5
135
330
1D
100
AcDbEntity
  8
SK6
100
AcDbLine
 10
-80.9641571
 20
-64.55731201
 30
0.0
 11
-83.9341507
 21
-64.55731201
 31
0.0
  0
LINE
  5
136
330
1D
100
AcDbEntity
  8
SK6
100
AcDbLine
 10
-85.37416077
 20
-48.35730743
 30
0.0
 11
-80.96417236
 21
-64.55731201
 31
0.0
  0
LINE
  5
137
330
1D
100
AcDbEntity
  8
SK6
100
AcDbLine
 10
-88.43416595
 20
-48.35730743
 30
0.0
 11
-85.3741684
 21
-48.35730743
 31
0.0
  0
LINE
  5
138
330
1D
100
AcDbEntity
  8
SK6
100
AcDbLine
 10
-91.49416351
 20
-64.55731201
 30
0.0
 11
-88.43416595
 21
-48.35730743
 31
0.0
  0
LINE
  5
139
330
1D
100
AcDbEntity
  8
SK4
100
AcDbLine
 10
44.105647144
 20
-7.676115884
 30
0.0
 11
1.192351273
 21
-43.684646622
 31
0.0
  0
LINE
  5
13A
330
1D
100
AcDbEntity
  8
SK3
100
AcDbLine
 10
-89.611271887
 20
-12.0
 30
0.0
 11
-54.59996033
 21
-12.0
 31
0.0
  0
LINE
  5
13B
330
1D
100
AcDbEntity
  8
SK3
100
AcDbLine
 10
-54.59996033
 20
-12.0
 30
0.0
 11
-49.001876834
 21
-10.5
 31
0.0
  0
LINE
  5
13C
330
1D
100
AcDbEntity
  8
3
100
AcDbLine
 10
184.000045774
 20
-14.0
 30
0.0
 11
168.000045774
 21
-14.0
 31
0.0
  0
LINE
  5
13D
330
1D
100
AcDbEntity
  8
SK3
100
AcDbLine
 10
-89.611271887
 20
12.0
 30
0.0
 11
-54.59996033
 21
12.0
 31
0.0
  0
LINE
  5
13E
330
1D
100
AcDbEntity
  8
SK3
100
AcDbLine
 10
-54.59996033
 20
12.0
 30
0.0
 11
-49.001876834
 21
10.5
 31
0.0
  0
LINE
  5
13F
330
1D
100
AcDbEntity
  8
3
100
AcDbLine
 10
184.000045774
 20
14.0
 30
0.0
 11
168.000045774
 21
14.0
 31
0.0
  0
LINE
  5
140
330
1D
100
AcDbEntity
  8
3
100
AcDbLine
 10
168.000045774
 20
14.0
 30
0.0
 11
168.000045774
 21
-14.0
 31
0.0
  0
LINE
  5
141
330
1D
100
AcDbEntity
  8
SK3
100
AcDbLine
 10
-89.899948123
 20
-12.5
 30
0.0
 11
-89.899948123
 21
12.5
 31
0.0
  0
LINE
  5
142
330
1D
100
AcDbEntity
  8
SK3
100
AcDbLine
 10
-88.74524318
 20
10.499992371
 30
0.0
 11
-88.74524318
 21
-10.499992371
 31
0.0
  0
LINE
  5
143
330
1D
100
AcDbEntity
  8
SK3
100
AcDbLine
 10
-100.300918582
 20
-12.5
 30
0.0
 11
-100.3009491
 21
12.5
 31
0.0
  0
LINE
  5
144
330
1D
100
AcDbEntity
  8
SK3
100
AcDbLine
 10
-54.59996033
 20
-12.0
 30
0.0
 11
-54.59996033
 21
12.0
 31
0.0
  0
LINE
  5
145
330
1D
100
AcDbEntity
  8
3
100
AcDbLine
 10
184.000045774
 20
-13.05
 30
0.0
 11
184.000015248
 21
13.05
 31
0.0
  0
LINE
  5
146
330
1D
100
AcDbEntity
  8
3
100
AcDbLine
 10
154.000045774
 20
13.05
 30
0.0
 11
154.000045774
 21
-13.05
 31
0.0
  0
LINE
  5
147
330
1D
100
AcDbEntity
  8
3
100
AcDbLine
 10
187.000045774
 20
-16.5
 30
0.0
 11
187.000045774
 21
16.5
 31
0.0
  0
LINE
  5
148
330
1D
100
AcDbEntity
  8
3
100
AcDbLine
 10
190.26700134
 20
-18.25
 30
0.0
 11
190.26700134
 21
18.25
 31
0.0
  0
LINE
  5
149
330
1D
100
AcDbEntity
  8
3
100
AcDbLine
 10
153.411320845
 20
10.5
 30
0.0
 11
153.411320845
 21
-10.5
 31
0.0
  0
LINE
  5
14A
330
1D
100
AcDbEntity
  8
SK4
100
AcDbLine
 10
44.105647144
 20
7.676115884
 30
0.0
 11
1.192351273
 21
43.684646622
 31
0.0
  0
LINE
  5
14B
330
1D
100
AcDbEntity
  8
3
100
AcDbLine
 10
191.444408963
 20
18.00325
 30
0.0
 11
191.444408963
 21
-18.00325
 31
0.0
  0
LINE
  5
14C
330
1D
100
AcDbEntity
  8
SK4
100
AcDbLine
 10
-103.59996033
 20
0.0
 30
0.0
 11
-26.104341981
 21
0.0
 31
0.0
  0
LINE
  5
14D
330
1D
100
AcDbEntity
  8
SK4
100
AcDbLine
 10
-17.359881714
 20
0.0
 30
0.0
 11
230.99998474
 21
0.0
 31
0.0
  0
LINE
  5
14E
330
1D
100
AcDbEntity
  8
3
100
AcDbLine
 10
228.99998474
 20
-18.00325
 30
0.0
 11
191.444408963
 21
-18.00325
 31
0.0
  0
LINE
  5
14F
330
1D
100
AcDbEntity
  8
3
100
AcDbLine
 10
191.444408963
 20
-18.00325
 30
0.0
 11
190.267016599
 21
-18.25
 31
0.0
  0
LINE
  5
150
330
1D
100
AcDbEntity
  8
3
100
AcDbLine
 10
190.267016599
 20
-18.25
 30
0.0
 11
187.000045774
 21
-18.25
 31
0.0
  0
LINE
  5
151
330
1D
100
AcDbEntity
  8
3
100
AcDbLine
 10
187.000045774
 20
-18.25
 30
0.0
 11
187.000045774
 21
-16.5
 31
0.0
  0
LINE
  5
152
330
1D
100
AcDbEntity
  8
3
100
AcDbLine
 10
187.000045774
 20
-16.5
 30
0.0
 11
184.400009152
 21
-16.5
 31
0.0
  0
ARC
  5
153
330
1D
100
AcDbEntity
  8
3
100
AcDbCircle
 10
184.400009152
 20
-16.099975586
 30
0.0
 40
0.400024414
100
AcDbArc
 50
180.0
 51
270.0
  0
LINE
  5
154
330
1D
100
AcDbEntity
  8
3
100
AcDbLine
 10
184.000015248
 20
-16.099975586
 30
0.0
 11
184.000015248
 21
-13.05
 31
0.0
  0
LINE
  5
155
330
1D
100
AcDbEntity
  8
3
100
AcDbLine
 10
184.000015248
 20
-13.05
 30
0.0
 11
154.000045774
 21
-13.05
 31
0.0
  0
LINE
  5
156
330
1D
100
AcDbEntity
  8
3
100
AcDbLine
 10
154.000045774
 20
-13.05
 30
0.0
 11
153.411320845
 21
-10.5
 31
0.0
  0
LINE
  5
157
330
1D
100
AcDbEntity
  8
3
100
AcDbLine
 10
153.411320845
 20
-10.5
 30
0.0
 11
0.0
 21
-10.49999516686665
 31
0.0
  0
LINE
  5
158
330
1D
100
AcDbEntity
  8
SK3
100
AcDbLine
 10
-88.74524318
 20
-10.499992371
 30
0.0
 11
-89.899948123
 21
-12.5
 31
0.0
  0
LINE
  5
159
330
1D
100
AcDbEntity
  8
SK3
100
AcDbLine
 10
-89.899948123
 20
-12.5
 30
0.0
 11
-100.300918582
 21
-12.5
 31
0.0
  0
LINE
  5
15A
330
1D
100
AcDbEntity
  8
SK3
100
AcDbLine
 10
-100.300918582
 20
-12.5
 30
0.0
 11
-101.59996033
 21
-13.25
 31
0.0
  0
LINE
  5
15B
330
1D
100
AcDbEntity
  8
3
100
AcDbLine
 10
228.99998474
 20
18.00325
 30
0.0
 11
191.444408963
 21
18.00325
 31
0.0
  0
LINE
  5
15C
330
1D
100
AcDbEntity
  8
3
100
AcDbLine
 10
191.444408963
 20
18.00325
 30
0.0
 11
190.267016599
 21
18.25
 31
0.0
  0
LINE
  5
15D
330
1D
100
AcDbEntity
  8
3
100
AcDbLine
 10
190.267016599
 20
18.25
 30
0.0
 11
187.000045774
 21
18.25
 31
0.0
  0
LINE
  5
15E
330
1D
100
AcDbEntity
  8
3
100
AcDbLine
 10
187.000045774
 20
18.25
 30
0.0
 11
187.000045774
 21
16.5
 31
0.0
  0
LINE
  5
15F
330
1D
100
AcDbEntity
  8
3
100
AcDbLine
 10
187.000045774
 20
16.5
 30
0.0
 11
184.400009152
 21
16.5
 31
0.0
  0
ARC
  5
160
330
1D
100
AcDbEntity
  8
3
100
AcDbCircle
 10
184.400009152
 20
16.099975586
 30
0.0
 40
0.400024414
100
AcDbArc
 50
90.0
 51
180.0
  0
LINE
  5
161
330
1D
100
AcDbEntity
  8
3
100
AcDbLine
 10
184.000015248
 20
16.099975586
 30
0.0
 11
184.000015248
 21
13.05
 31
0.0
  0
LINE
  5
162
330
1D
100
AcDbEntity
  8
3
100
AcDbLine
 10
184.000015248
 20
13.05
 30
0.0
 11
154.000045774
 21
13.05
 31
0.0
  0
LINE
  5
163
330
1D
100
AcDbEntity
  8
3
100
AcDbLine
 10
154.000045774
 20
13.05
 30
0.0
 11
153.411320845
 21
10.5
 31
0.0
  0
LINE
  5
164
330
1D
100
AcDbEntity
  8
3
100
AcDbLine
 10
153.411320845
 20
10.5
 30
0.0
 11
0.0
 21
10.49999516686665
 31
0.0
  0
LINE
  5
165
330
1D
100
AcDbEntity
  8
SK3
100
AcDbLine
 10
-88.74524318
 20
10.499992371
 30
0.0
 11
-89.899948123
 21
12.5
 31
0.0
  0
LINE
  5
166
330
1D
100
AcDbEntity
  8
SK3
100
AcDbLine
 10
-89.899948123
 20
12.5
 30
0.0
 11
-100.300918582
 21
12.5
 31
0.0
  0
LINE
  5
167
330
1D
100
AcDbEntity
  8
SK3
100
AcDbLine
 10
-100.300918582
 20
12.5
 30
0.0
 11
-101.59996033
 21
13.25
 31
0.0
  0
LINE
  5
168
330
1D
100
AcDbEntity
  8
3
100
AcDbLine
 10
4.287493899
 20
-38.346158278
 30
0.0
 11
37.473254087
 21
-10.499999145
 31
0.0
  0
LINE
  5
169
330
1D
100
AcDbEntity
  8
3
100
AcDbLine
 10
37.473254087
 20
-10.499999145
 30
0.0
 11
44.007293742
 21
-10.499999495
 31
0.0
  0
LINE
  5
16A
330
1D
100
AcDbEntity
  8
3
100
AcDbLine
 10
44.007293742
 20
-10.499999495
 30
0.0
 11
6.98720186
 21
-41.56354494
 31
0.0
  0
LINE
  5
16B
330
1D
100
AcDbEntity
  8
3
100
AcDbLine
 10
6.98720186
 20
-41.56354494
 30
0.0
 11
7.308595665
 21
-41.946567161
 31
0.0
  0
LINE
  5
16C
330
1D
100
AcDbEntity
  8
3
100
AcDbLine
 10
7.308595665
 20
-41.946567161
 30
0.0
 11
3.200014223
 21
-45.394076333
 31
0.0
  0
LINE
  5
16D
330
1D
100
AcDbEntity
  8
3
100
AcDbLine
 10
3.200055651
 20
-38.605923667
 30
0.0
 11
3.966100094
 21
-37.963136057
 31
0.0
  0
LINE
  5
16E
330
1D
100
AcDbEntity
  8
3
100
AcDbLine
 10
3.966100094
 20
-37.963136057
 30
0.0
 11
4.287493899
 21
-38.346158278
 31
0.0
  0
LINE
  5
16F
330
1D
100
AcDbEntity
  8
3
100
AcDbLine
 10
4.287493899
 20
38.346158278
 30
0.0
 11
37.473254087
 21
10.499999145
 31
0.0
  0
LINE
  5
170
330
1D
100
AcDbEntity
  8
3
100
AcDbLine
 10
37.473254087
 20
10.499999145
 30
0.0
 11
44.007293742
 21
10.499999495
 31
0.0
  0
LINE
  5
171
330
1D
100
AcDbEntity
  8
3
100
AcDbLine
 10
44.007293742
 20
10.499999495
 30
0.0
 11
6.98720186
 21
41.56354494
 31
0.0
  0
LINE
  5
172
330
1D
100
AcDbEntity
  8
3
100
AcDbLine
 10
6.98720186
 20
41.56354494
 30
0.0
 11
7.308595665
 21
41.946567161
 31
0.0
  0
LINE
  5
173
330
1D
100
AcDbEntity
  8
3
100
AcDbLine
 10
7.308595665
 20
41.946567161
 30
0.0
 11
3.200014223
 21
45.394076333
 31
0.0
  0
LINE
  5
174
330
1D
100
AcDbEntity
  8
3
100
AcDbLine
 10
3.200055651
 20
38.605923667
 30
0.0
 11
3.966100094
 21
37.963136057
 31
0.0
  0
LINE
  5
175
330
1D
100
AcDbEntity
  8
3
100
AcDbLine
 10
3.966100094
 20
37.963136057
 30
0.0
 11
4.287493899
 21
38.346158278
 31
0.0
  0
LINE
  5
176
330
1D
100
AcDbEntity
  8
3
100
AcDbLine
 10
7.244316904
 20
-41.869962717
 30
0.0
 11
12.989650227
 21
-37.049055644
 31
0.0
  0
LINE
  5
177
330
1D
100
AcDbEntity
  8
3
100
AcDbLine
 10
12.989650227
 20
-37.049055644
 30
0.0
 11
13.263266342
 21
-36.297301547
 31
0.0
  0
LINE
  5
178
330
1D
100
AcDbEntity
  8
3
100
AcDbLine
 10
10.563558381
 20
-33.079914886
 30
0.0
 11
9.775712179
 21
-33.218833429
 31
0.0
  0
LINE
  5
179
330
1D
100
AcDbEntity
  8
3
100
AcDbLine
 10
9.775712179
 20
-33.218833429
 30
0.0
 11
4.030378855
 21
-38.039740501
 31
0.0
  0
LINE
  5
17A
330
1D
100
AcDbEntity
  8
3
100
AcDbLine
 10
9.775712179
 20
-33.218833429
 30
0.0
 11
12.989650227
 21
-37.049055644
 31
0.0
  0
LINE
  5
17B
330
1D
100
AcDbEntity
  8
3
100
AcDbLine
 10
4.287493899
 20
-38.346158278
 30
0.0
 11
7.147898762
 21
-41.75505605
 31
0.0
  0
LINE
  5
17C
330
1D
100
AcDbEntity
  8
3
100
AcDbLine
 10
7.244316904
 20
41.869962717
 30
0.0
 11
12.989650227
 21
37.049055644
 31
0.0
  0
LINE
  5
17D
330
1D
100
AcDbEntity
  8
3
100
AcDbLine
 10
12.989650227
 20
37.049055644
 30
0.0
 11
13.263266342
 21
36.297301547
 31
0.0
  0
LINE
  5
17E
330
1D
100
AcDbEntity
  8
3
100
AcDbLine
 10
10.563558381
 20
33.079914886
 30
0.0
 11
9.775712179
 21
33.218833429
 31
0.0
  0
LINE
  5
17F
330
1D
100
AcDbEntity
  8
3
100
AcDbLine
 10
9.775712179
 20
33.218833429
 30
0.0
 11
4.030378855
 21
38.039740501
 31
0.0
  0
LINE
  5
180
330
1D
100
AcDbEntity
  8
3
100
AcDbLine
 10
9.775712179
 20
33.218833429
 30
0.0
 11
12.989650227
 21
37.049055644
 31
0.0
  0
LINE
  5
181
330
1D
100
AcDbEntity
  8
3
100
AcDbLine
 10
4.287493899
 20
38.346158278
 30
0.0
 11
7.147898762
 21
41.75505605
 31
0.0
  0
LINE
  5
222
330
1D
100
AcDbEntity
  8
NOCUT
100
AcDbLine
 10
0.0
 20
34.92500305
 30
0.0
 11
2.40002441
 21
34.92500305
 31
0.0
  0
ARC
  5
223
330
1D
100
AcDbEntity
  8
NOCUT
100
AcDbCircle
 10
2.400118000906995
 20
35.72492788427597
 30
0.0
 40
0.7999248397510199
100
AcDbArc
 50
269.9932964152163
 51
0.0023239721513257
  0
LINE
  5
224
330
1D
100
AcDbEntity
  8
NOCUT
100
AcDbLine
 10
3.20004284
 20
35.72496033
 30
0.0
 11
3.200042840000001
 21
48.2297327202856
 31
0.0
  0
LINE
  5
225
330
1D
100
AcDbEntity
  8
NOCUT
100
AcDbLine
 10
3.200042840000001
 20
48.2297327202856
 30
0.0
 11
3.69995117
 21
48.72502136
 31
0.0
  0
LINE
  5
226
330
1D
100
AcDbEntity
  8
NOCUT
100
AcDbLine
 10
3.69995117
 20
48.72502136
 30
0.0
 11
7.86682129
 21
48.72502136
 31
0.0
  0
LINE
  5
227
330
1D
100
AcDbEntity
  8
NOCUT
100
AcDbLine
 10
7.86682129
 20
48.72502136
 30
0.0
 11
9.17504883
 21
46.45924377
 31
0.0
  0
LINE
  5
228
330
1D
100
AcDbEntity
  8
NOCUT
100
AcDbLine
 10
9.17504883
 20
46.45924377
 30
0.0
 11
9.17504883
 21
45.86364055773117
 31
0.0
  0
LINE
  5
229
330
1D
100
AcDbEntity
  8
NOCUT
100
AcDbLine
 10
9.67506409
 20
45.49996942
 30
0.0
 11
12.52503967
 21
45.49996942
 31
0.0
  0
LINE
  5
22A
330
1D
100
AcDbEntity
  8
NOCUT
100
AcDbLine
 10
13.02503973
 20
45.99996948
 30
0.0
 11
13.02503973
 21
46.45912314118545
 31
0.0
  0
LINE
  5
22B
330
1D
100
AcDbEntity
  8
NOCUT
100
AcDbLine
 10
13.02503973
 20
46.45912314118545
 30
0.0
 11
14.33325195
 21
48.72502136
 31
0.0
  0
LINE
  5
22C
330
1D
100
AcDbEntity
  8
NOCUT
100
AcDbLine
 10
14.33325195
 20
48.72502136
 30
0.0
 11
18.55004883
 21
48.72502136
 31
0.0
  0
LINE
  5
22D
330
1D
100
AcDbEntity
  8
NOCUT
100
AcDbLine
 10
18.55004883
 20
48.72502136
 30
0.0
 11
19.05004883
 21
48.22502136
 31
0.0
  0
LINE
  5
22E
330
1D
100
AcDbEntity
  8
NOCUT
100
AcDbLine
 10
19.05004883
 20
48.22502136
 30
0.0
 11
19.05004883
 21
35.79950641007605
 31
0.0
  0
LINE
  5
22F
330
1D
100
AcDbEntity
  8
NOCUT
100
AcDbLine
 10
19.84999084
 20
34.92495716
 30
0.0
 11
34.28386088810208
 21
34.92495716
 31
0.0
  0
LINE
  5
230
330
1D
100
AcDbEntity
  8
NOCUT
100
AcDbLine
 10
34.28386088810208
 20
34.92495716
 30
0.0
 11
35.00000352231665
 21
34.17495771673377
 31
0.0
  0
LINE
  5
231
330
1D
100
AcDbEntity
  8
NOCUT
100
AcDbLine
 10
37.94438171
 20
31.75001526
 30
0.0
 11
227.99998474
 21
31.75001526
 31
0.0
  0
LINE
  5
232
330
1D
100
AcDbEntity
  8
NOCUT
100
AcDbLine
 10
227.99998474
 20
31.75001526
 30
0.0
 11
228.99998474
 21
30.75001526
 31
0.0
  0
LINE
  5
233
330
1D
100
AcDbEntity
  8
NOCUT
100
AcDbLine
 10
228.99998474
 20
30.75001526
 30
0.0
 11
228.99998474
 21
0.0
 31
0.0
  0
LINE
  5
234
330
1D
100
AcDbEntity
  8
NOCUT
100
AcDbLine
 10
228.99998474
 20
0.0
 30
0.0
 11
0.0
 21
0.0
 31
0.0
  0
ARC
  5
236
330
1D
100
AcDbEntity
  8
NOCUT
100
AcDbCircle
 10
9.699571448020993
 20
46.0593079958313
 30
0.0
 40
0.5598300841757868
100
AcDbArc
 50
200.457481314641
 51
267.4894306913038
  0
ARC
  5
237
330
1D
100
AcDbEntity
  8
NOCUT
100
AcDbCircle
 10
12.52503967000001
 20
45.99996947999999
 30
0.0
 40
0.5000000599999908
100
AcDbArc
 50
269.999999999999
 51
0.0000000000008142
  0
ARC
  5
238
330
1D
100
AcDbEntity
  8
NOCUT
100
AcDbCircle
 10
19.84991250629407
 20
35.72491262311661
 30
0.0
 40
0.7999095769521459
100
AcDbArc
 50
179.9976759004635
 51
270.0056108726284
  0
ARC
  5
239
330
1D
100
AcDbEntity
  8
NOCUT
100
AcDbCircle
 10
37.94438170999999
 20
34.74996947999998
 30
0.0
 40
3.000000239999985
100
AcDbArc
 50
191.0502929699998
 51
270.0000000000002
  0
LWPOLYLINE
  5
264
330
1D
100
AcDbEntity
  8
INFTOTAL
100
AcDbPolyline
 90
        4
 70
     1
 43
0.0
 10
-156.4452647181417
 20
120.0615209149031
 10
-156.4452647181417
 20
-94.5708548181461
 10
296.0229868272048
 20
-94.5708548181461
 10
296.0229868272048
 20
120.0615209149031
  0
LINE
  5
27C
330
1D
100
AcDbEntity
  8
SK3
100
AcDbLine
 10
0.0
 20
10.49999516686665
 30
0.0
 11
-88.74524318
 21
10.499992371
 31
0.0
  0
LINE
  5
27D
330
1D
100
AcDbEntity
  8
SK3
100
AcDbLine
 10
-88.74524318
 20
-10.499992371
 30
0.0
 11
0.0
 21
-10.49999516686665
 31
0.0
  0
LINE
  5
281
330
1D
100
AcDbEntity
  8
1
100
AcDbLine
 10
0.0
 20
-34.92500305
 30
0.0
 11
0.0
 21
34.92500305
 31
0.0
  0
LINE
  5
289
330
1D
100
AcDbEntity
  8
NOCUT
100
AcDbLine
 10
0.0
 20
34.92500305
 30
0.0
 11
0.0
 21
0.0
 31
0.0
  0
LINE
  5
294
330
1D
100
AcDbEntity
  8
4
100
AcDbLine
 10
230.99998474
 20
0.0
 30
0.0
 11
0.0
 21
0.0
 31
0.0
  0
LINE
  5
295
330
1D
100
AcDbEntity
  8
4
100
AcDbLine
 10
44.105647144
 20
-7.676115884
 30
0.0
 11
1.192351273
 21
-43.684646622
 31
0.0
  0
LINE
  5
296
330
1D
100
AcDbEntity
  8
4
100
AcDbLine
 10
44.105647144
 20
7.676115884
 30
0.0
 11
1.192351273
 21
43.684646622
 31
0.0
  0
LINE
  5
297
330
1D
100
AcDbEntity
  8
4
100
AcDbLine
 10
230.99998474
 20
0.0
 30
0.0
 11
0.0
 21
0.0
 31
0.0
  0
LINE
  5
298
330
1D
100
AcDbEntity
  8
4
100
AcDbLine
 10
212.94998169
 20
7.0
 30
0.0
 11
212.94998169
 21
-7.0
 31
0.0
  0
ENDSEC
  0
SECTION
  2
OBJECTS
  0
DICTIONARY
  5
C
330
0
100
AcDbDictionary
281
     1
  3
ACAD_DETAILVIEWSTYLE
350
23D
  3
ACAD_GROUP
350
D
  3
ACAD_LAYOUT
350
1A
  3
ACAD_MATERIAL
350
1BF
  3
ACAD_MLEADERSTYLE
350
1CC
  3
ACAD_MLINESTYLE
350
17
  3
ACAD_PLOTSETTINGS
350
19
  3
ACAD_PLOTSTYLENAME
350
E
  3
ACAD_SCALELIST
350
188
  3
ACAD_SECTIONVIEWSTYLE
350
23E
  3
ACAD_TABLESTYLE
350
215
  3
ACAD_VISUALSTYLE
350
1AE
  3
ACDB_RECOMPOSE_DATA
350
2D2
  3
AcDbVariableDictionary
350
1CA
  3
APPDATA
350
218
  0
SUN
  5
266
330
182
100
AcDbSun
 90
        1
290
     0
 63
     7
421
 16777215
 40
1.0
291
     1
 91
  2455826
 92
 54000000
292
     0
 70
     2
 71
   256
280
     1
  0
DICTIONARY
  5
219
330
2
100
AcDbDictionary
280
     1
281
     1
  3
ACAD_LAYERSTATES
360
21A
  0
DICTIONARY
  5
23D
102
{ACAD_REACTORS
330
C
102
}
330
C
100
AcDbDictionary
281
     1
  0
DICTIONARY
  5
D
102
{ACAD_REACTORS
330
C
102
}
330
C
100
AcDbDictionary
281
     1
  0
DICTIONARY
  5
1A
102
{ACAD_REACTORS
330
C
102
}
330
C
100
AcDbDictionary
281
     1
  3
Layout1
350
1C
  3
Model
350
1E
  0
DICTIONARY
  5
1BF
102
{ACAD_REACTORS
330
C
102
}
330
C
100
AcDbDictionary
281
     1
  3
ByBlock
350
1C1
  3
ByLayer
350
1C0
  3
Global
350
1C2
  0
DICTIONARY
  5
1CC
102
{ACAD_REACTORS
330
C
102
}
330
C
100
AcDbDictionary
281
     1
  3
Standard
350
217
  0
DICTIONARY
  5
17
102
{ACAD_REACTORS
330
C
102
}
330
C
100
AcDbDictionary
281
     1
  3
Standard
350
18
  0
DICTIONARY
  5
19
102
{ACAD_REACTORS
330
C
102
}
330
C
100
AcDbDictionary
281
     1
  0
ACDBDICTIONARYWDFLT
  5
E
102
{ACAD_REACTORS
330
C
102
}
330
C
100
AcDbDictionary
281
     1
  3
Normal
350
F
100
AcDbDictionaryWithDefault
340
F
  0
DICTIONARY
  5
188
102
{ACAD_REACTORS
330
C
102
}
330
C
100
AcDbDictionary
281
     1
  3
A0
350
189
  3
A1
350
18A
  3
A2
350
18B
  3
A3
350
18C
  3
A4
350
18D
  3
A5
350
18E
  3
A6
350
18F
  3
A7
350
190
  3
A8
350
191
  3
A9
350
192
  3
B0
350
193
  3
B1
350
194
  3
B2
350
195
  3
B3
350
196
  3
B4
350
197
  3
B5
350
198
  3
B6
350
199
  3
B7
350
19A
  3
B8
350
19B
  3
B9
350
19C
  3
C0
350
19D
  3
C1
350
19E
  3
C2
350
19F
  3
C3
350
1A0
  3
C4
350
1A1
  3
C5
350
1A2
  3
C6
350
1A3
  3
C7
350
1A4
  3
C8
350
1A5
  3
C9
350
1A6
  3
D0
350
1A7
  3
D1
350
1A8
  3
D2
350
1A9
  0
DICTIONARY
  5
23E
102
{ACAD_REACTORS
330
C
102
}
330
C
100
AcDbDictionary
281
     1
  0
DICTIONARY
  5
215
102
{ACAD_REACTORS
330
C
102
}
330
C
100
AcDbDictionary
281
     1
  3
Standard
350
216
  0
DICTIONARY
  5
1AE
102
{ACAD_REACTORS
330
C
102
}
330
C
100
AcDbDictionary
281
     1
  3
2dWireframe
350
1B3
  3
3D Hidden
350
1B5
  3
3dWireframe
350
1B4
  3
Basic
350
1B6
  3
Brighten
350
1BA
  3
ColorChange
350
1BE
  3
Conceptual
350
1B8
  3
Dim
350
1B9
  3
EdgeColorOff
350
20F
  3
Facepattern
350
1BD
  3
Flat
350
1AF
  3
FlatWithEdges
350
1B0
  3
Gouraud
350
1B1
  3
GouraudWithEdges
350
1B2
  3
Hidden
350
20C
  3
JitterOff
350
20D
  3
Linepattern
350
1BC
  3
OverhangOff
350
20E
  3
Realistic
350
1B7
  3
Shaded
350
214
  3
Shaded with edges
350
213
  3
Shades of Gray
350
210
  3
Sketchy
350
211
  3
Thicken
350
1BB
  3
Wireframe
350
20B
  3
X-Ray
350
212
  0
XRECORD
  5
2D2
102
{ACAD_REACTORS
330
C
102
}
330
C
100
AcDbXrecord
280
     1
 90
        1
330
216
  0
DICTIONARY
  5
1CA
102
{ACAD_REACTORS
330
C
102
}
330
C
100
AcDbDictionary
281
     1
  3
CANNOSCALE
350
23A
  3
CMLEADERSTYLE
350
23C
  3
CTABLESTYLE
350
23B
  3
DIMASSOC
350
1CE
  3
HIDETEXT
350
1CF
  3
MSLTSCALE
350
1CD
  0
DICTIONARY
  5
218
102
{ACAD_REACTORS
330
C
102
}
330
C
100
AcDbDictionary
281
     1
  0
DICTIONARY
  5
21A
102
{ACAD_REACTORS
330
219
102
}
330
219
100
AcDbDictionary
281
     1
  0
LAYOUT
  5
1C
102
{ACAD_REACTORS
330
1A
102
}
330
1A
100
AcDbPlotSettings
  1

  2
none_device
  4

  6

 40
0.0
 41
0.0
 42
0.0
 43
0.0
 44
0.0
 45
0.0
 46
0.0
 47
0.0
 48
0.0
 49
0.0
140
0.0
141
0.0
142
1.0
143
1.0
 70
   688
 72
     0
 73
     0
 74
     5
  7

 75
    16
 76
     0
 77
     2
 78
   300
147
1.0
148
0.0
149
0.0
100
AcDbLayout
  1
Layout1
 70
     1
 71
     1
 10
0.0
 20
0.0
 11
12.0
 21
9.0
 12
0.0
 22
0.0
 32
0.0
 14
1.000000000000000E+20
 24
1.000000000000000E+20
 34
1.000000000000000E+20
 15
-1.000000000000000E+20
 25
-1.000000000000000E+20
 35
-1.000000000000000E+20
146
0.0
 13
0.0
 23
0.0
 33
0.0
 16
1.0
 26
0.0
 36
0.0
 17
0.0
 27
1.0
 37
0.0
 76
     0
330
1B
  0
LAYOUT
  5
1E
102
{ACAD_REACTORS
330
1A
102
}
330
1A
100
AcDbPlotSettings
  1

  2
none_device
  4

  6

 40
0.0
 41
0.0
 42
0.0
 43
0.0
 44
0.0
 45
0.0
 46
0.0
 47
0.0
 48
0.0
 49
0.0
140
0.0
141
0.0
142
1.0
143
1.0
 70
  1712
 72
     0
 73
     0
 74
     0
  7

 75
     0
 76
     0
 77
     2
 78
   300
147
1.0
148
0.0
149
0.0
100
AcDbLayout
  1
Model
 70
     1
 71
     0
 10
0.0
 20
0.0
 11
12.0
 21
9.0
 12
0.0
 22
0.0
 32
0.0
 14
-156.4452647181417
 24
-94.5708548181461
 34
0.0
 15
296.0229868272048
 25
120.0615209149031
 35
0.0
146
0.0
 13
0.0
 23
0.0
 33
0.0
 16
1.0
 26
0.0
 36
0.0
 17
0.0
 27
1.0
 37
0.0
 76
     0
330
1D
331
182
  0
MATERIAL
  5
1C1
102
{ACAD_REACTORS
330
1BF
102
}
330
1BF
100
AcDbMaterial
  1
ByBlock
 72
     1
 94
      127
  0
MATERIAL
  5
1C0
102
{ACAD_REACTORS
330
1BF
102
}
330
1BF
100
AcDbMaterial
  1
ByLayer
 72
     1
 94
      127
  0
MATERIAL
  5
1C2
102
{ACAD_REACTORS
330
1BF
102
}
330
1BF
100
AcDbMaterial
  1
Global
 72
     1
 94
      127
  0
MLEADERSTYLE
  5
217
102
{ACAD_REACTORS
330
1CC
102
}
330
1CC
100
AcDbMLeaderStyle
179
     2
170
     2
171
     1
172
     0
 90
        2
 40
0.0
 41
0.0
173
     1
 91
-1056964608
340
14
 92
       -2
290
     1
 42
0.09
291
     1
 43
0.36
  3
Standard
341
0
 44
0.18
300

342
11
174
     1
178
     1
175
     1
176
     0
 93
-1056964608
 45
0.18
292
     0
297
     0
 46
0.18
343
0
 94
-1056964608
 47
1.0
 49
1.0
140
1.0
293
     1
141
0.0
294
     1
177
     0
142
1.0
295
     0
296
     0
143
0.125
271
     0
272
     9
273
     9
298
     0
  0
MLINESTYLE
  5
18
102
{ACAD_REACTORS
330
17
102
}
330
17
100
AcDbMlineStyle
  2
Standard
 70
     0
  3

 62
   256
 51
90.0
 52
90.0
 71
     2
 49
0.5
 62
   256
  6
BYLAYER
 49
-0.5
 62
   256
  6
BYLAYER
  0
ACDBPLACEHOLDER
  5
F
102
{ACAD_REACTORS
330
E
102
}
330
E
  0
SCALE
  5
189
102
{ACAD_REACTORS
330
188
102
}
330
188
100
AcDbScale
 70
     0
300
1:1
140
1.0
141
1.0
290
     1
  0
SCALE
  5
18A
102
{ACAD_REACTORS
330
188
102
}
330
188
100
AcDbScale
 70
     0
300
1:2
140
1.0
141
2.0
290
     0
  0
SCALE
  5
18B
102
{ACAD_REACTORS
330
188
102
}
330
188
100
AcDbScale
 70
     0
300
1:4
140
1.0
141
4.0
290
     0
  0
SCALE
  5
18C
102
{ACAD_REACTORS
330
188
102
}
330
188
100
AcDbScale
 70
     0
300
1:5
140
1.0
141
5.0
290
     0
  0
SCALE
  5
18D
102
{ACAD_REACTORS
330
188
102
}
330
188
100
AcDbScale
 70
     0
300
1:8
140
1.0
141
8.0
290
     0
  0
SCALE
  5
18E
102
{ACAD_REACTORS
330
188
102
}
330
188
100
AcDbScale
 70
     0
300
1:10
140
1.0
141
10.0
290
     0
  0
SCALE
  5
18F
102
{ACAD_REACTORS
330
188
102
}
330
188
100
AcDbScale
 70
     0
300
1:16
140
1.0
141
16.0
290
     0
  0
SCALE
  5
190
102
{ACAD_REACTORS
330
188
102
}
330
188
100
AcDbScale
 70
     0
300
1:20
140
1.0
141
20.0
290
     0
  0
SCALE
  5
191
102
{ACAD_REACTORS
330
188
102
}
330
188
100
AcDbScale
 70
     0
300
1:30
140
1.0
141
30.0
290
     0
  0
SCALE
  5
192
102
{ACAD_REACTORS
330
188
102
}
330
188
100
AcDbScale
 70
     0
300
1:40
140
1.0
141
40.0
290
     0
  0
SCALE
  5
193
102
{ACAD_REACTORS
330
188
102
}
330
188
100
AcDbScale
 70
     0
300
1:50
140
1.0
141
50.0
290
     0
  0
SCALE
  5
194
102
{ACAD_REACTORS
330
188
102
}
330
188
100
AcDbScale
 70
     0
300
1:100
140
1.0
141
100.0
290
     0
  0
SCALE
  5
195
102
{ACAD_REACTORS
330
188
102
}
330
188
100
AcDbScale
 70
     0
300
2:1
140
2.0
141
1.0
290
     0
  0
SCALE
  5
196
102
{ACAD_REACTORS
330
188
102
}
330
188
100
AcDbScale
 70
     0
300
4:1
140
4.0
141
1.0
290
     0
  0
SCALE
  5
197
102
{ACAD_REACTORS
330
188
102
}
330
188
100
AcDbScale
 70
     0
300
8:1
140
8.0
141
1.0
290
     0
  0
SCALE
  5
198
102
{ACAD_REACTORS
330
188
102
}
330
188
100
AcDbScale
 70
     0
300
10:1
140
10.0
141
1.0
290
     0
  0
SCALE
  5
199
102
{ACAD_REACTORS
330
188
102
}
330
188
100
AcDbScale
 70
     0
300
100:1
140
100.0
141
1.0
290
     0
  0
SCALE
  5
19A
102
{ACAD_REACTORS
330
188
102
}
330
188
100
AcDbScale
 70
     0
300
1/128" = 1'-0"
140
0.0078125
141
12.0
290
     0
  0
SCALE
  5
19B
102
{ACAD_REACTORS
330
188
102
}
330
188
100
AcDbScale
 70
     0
300
1/64" = 1'-0"
140
0.015625
141
12.0
290
     0
  0
SCALE
  5
19C
102
{ACAD_REACTORS
330
188
102
}
330
188
100
AcDbScale
 70
     0
300
1/32" = 1'-0"
140
0.03125
141
12.0
290
     0
  0
SCALE
  5
19D
102
{ACAD_REACTORS
330
188
102
}
330
188
100
AcDbScale
 70
     0
300
1/16" = 1'-0"
140
0.0625
141
12.0
290
     0
  0
SCALE
  5
19E
102
{ACAD_REACTORS
330
188
102
}
330
188
100
AcDbScale
 70
     0
300
3/32" = 1'-0"
140
0.09375
141
12.0
290
     0
  0
SCALE
  5
19F
102
{ACAD_REACTORS
330
188
102
}
330
188
100
AcDbScale
 70
     0
300
1/8" = 1'-0"
140
0.125
141
12.0
290
     0
  0
SCALE
  5
1A0
102
{ACAD_REACTORS
330
188
102
}
330
188
100
AcDbScale
 70
     0
300
3/16" = 1'-0"
140
0.1875
141
12.0
290
     0
  0
SCALE
  5
1A1
102
{ACAD_REACTORS
330
188
102
}
330
188
100
AcDbScale
 70
     0
300
1/4" = 1'-0"
140
0.25
141
12.0
290
     0
  0
SCALE
  5
1A2
102
{ACAD_REACTORS
330
188
102
}
330
188
100
AcDbScale
 70
     0
300
3/8" = 1'-0"
140
0.375
141
12.0
290
     0
  0
SCALE
  5
1A3
102
{ACAD_REACTORS
330
188
102
}
330
188
100
AcDbScale
 70
     0
300
1/2" = 1'-0"
140
0.5
141
12.0
290
     0
  0
SCALE
  5
1A4
102
{ACAD_REACTORS
330
188
102
}
330
188
100
AcDbScale
 70
     0
300
3/4" = 1'-0"
140
0.75
141
12.0
290
     0
  0
SCALE
  5
1A5
102
{ACAD_REACTORS
330
188
102
}
330
188
100
AcDbScale
 70
     0
300
1" = 1'-0"
140
1.0
141
12.0
290
     0
  0
SCALE
  5
1A6
102
{ACAD_REACTORS
330
188
102
}
330
188
100
AcDbScale
 70
     0
300
1-1/2" = 1'-0"
140
1.5
141
12.0
290
     0
  0
SCALE
  5
1A7
102
{ACAD_REACTORS
330
188
102
}
330
188
100
AcDbScale
 70
     0
300
3" = 1'-0"
140
3.0
141
12.0
290
     0
  0
SCALE
  5
1A8
102
{ACAD_REACTORS
330
188
102
}
330
188
100
AcDbScale
 70
     0
300
6" = 1'-0"
140
6.0
141
12.0
290
     0
  0
SCALE
  5
1A9
102
{ACAD_REACTORS
330
188
102
}
330
188
100
AcDbScale
 70
     0
300
1'-0" = 1'-0"
140
12.0
141
12.0
290
     0
  0
TABLESTYLE
  5
216
102
{ACAD_REACTORS
330
215
102
}
102
{ACAD_XDICTIONARY
360
2D0
102
}
330
215
100
AcDbTableStyle
  3
Standard
 70
     0
 71
     0
 40
0.06
 41
0.06
280
     0
281
     0
  7
Standard
140
0.18
170
     2
 62
     0
 63
   257
283
     0
 90
        4
 91
        0
  1

274
    -2
284
     1
 64
     0
275
    -2
285
     1
 65
     0
276
    -2
286
     1
 66
     0
277
    -2
287
     1
 67
     0
278
    -2
288
     1
 68
     0
279
    -2
289
     1
 69
     0
  7
Standard
140
0.25
170
     5
 62
     0
 63
   257
283
     0
 90
        4
 91
        0
  1

274
    -2
284
     1
 64
     0
275
    -2
285
     1
 65
     0
276
    -2
286
     1
 66
     0
277
    -2
287
     1
 67
     0
278
    -2
288
     1
 68
     0
279
    -2
289
     1
 69
     0
  7
Standard
140
0.18
170
     5
 62
     0
 63
   257
283
     0
 90
        4
 91
        0
  1

274
    -2
284
     1
 64
     0
275
    -2
285
     1
 65
     0
276
    -2
286
     1
 66
     0
277
    -2
287
     1
 67
     0
278
    -2
288
     1
 68
     0
279
    -2
289
     1
 69
     0
  0
VISUALSTYLE
  5
1B3
102
{ACAD_REACTORS
330
1AE
102
}
330
1AE
100
AcDbVisualStyle
  2
2dWireframe
 70
     4
177
     3
291
     0
 70
    58
 90
        0
176
     1
 90
        2
176
     1
 90
        0
176
     1
 90
        0
176
     1
 40
-0.6
176
     1
 40
-30.0
176
     1
 62
     7
176
     1
 90
        1
176
     1
 90
        4
176
     1
 62
     7
176
     1
 62
   257
176
     1
 90
        1
176
     1
 90
        1
176
     1
 40
1.0
176
     1
 90
        0
176
     1
 62
   257
176
     1
 40
1.0
176
     1
 90
        1
176
     1
 90
        6
176
     1
 90
        2
176
     1
 62
     7
176
     1
 90
        5
176
     1
 90
        0
176
     1
 90
        0
176
     1
290
     0
176
     1
 90
        1
176
     1
 40
0.0
176
     1
 90
        0
176
     1
290
     1
176
     1
290
     1
176
     1
290
     0
176
     1
290
     0
176
     1
290
     0
176
     1
290
     0
176
     1
290
     0
176
     1
290
     0
176
     1
290
     0
176
     1
 90
       50
176
     1
 40
0.0
176
     1
 40
1.0
176
     1
 90
        0
176
     1
 62
    18
420
        0
176
     1
 90
       50
176
     1
 90
        3
176
     1
 62
     5
420
      255
176
     1
290
     0
176
     1
 90
       50
176
     1
 90
       50
176
     1
 90
       50
176
     1
290
     0
176
     1
 90
       50
176
     1
 62
   256
176
     0
 40
1.0
176
     0
 90
        2
176
     1
  1
strokes_ogs.tif
176
     1
290
     0
176
     1
 40
1.0
176
     1
 40
1.0
176
     1
  0
VISUALSTYLE
  5
1B5
102
{ACAD_REACTORS
330
1AE
102
}
330
1AE
100
AcDbVisualStyle
  2
3D Hidden
 70
     6
177
     3
291
     0
 70
    58
 90
        1
176
     1
 90
        2
176
     1
 90
        2
176
     1
 90
        0
176
     1
 40
-0.6
176
     1
 40
-30.0
176
     1
 62
     7
176
     1
 90
        2
176
     1
 90
        2
176
     1
 62
     7
176
     1
 62
   257
176
     1
 90
        2
176
     1
 90
        1
176
     1
 40
40.0
176
     1
 90
        0
176
     1
 62
   257
176
     1
 40
1.0
176
     1
 90
        1
176
     1
 90
        6
176
     1
 90
        2
176
     1
 62
     7
176
     1
 90
        3
176
     1
 90
        0
176
     1
 90
        0
176
     1
290
     0
176
     1
 90
        1
176
     1
 40
0.0
176
     1
 90
        0
176
     1
290
     0
176
     1
290
     1
176
     1
290
     1
176
     1
290
     0
176
     1
290
     0
176
     1
290
     0
176
     1
290
     0
176
     1
290
     0
176
     1
290
     0
176
     1
 90
       50
176
     1
 40
0.0
176
     1
 40
1.0
176
     1
 90
        0
176
     1
 62
    18
420
        0
176
     1
 90
       50
176
     1
 90
        3
176
     1
 62
     5
420
      255
176
     1
290
     0
176
     1
 90
       50
176
     1
 90
       50
176
     1
 90
       50
176
     1
290
     0
176
     1
 90
       50
176
     1
 62
   256
176
     0
 40
1.0
176
     0
 90
        2
176
     1
  1
strokes_ogs.tif
176
     1
290
     0
176
     1
 40
1.0
176
     1
 40
1.0
176
     1
  0
VISUALSTYLE
  5
1B4
102
{ACAD_REACTORS
330
1AE
102
}
330
1AE
100
AcDbVisualStyle
  2
3dWireframe
 70
     5
177
     3
291
     0
 70
    58
 90
        0
176
     1
 90
        2
176
     1
 90
        0
176
     1
 90
        0
176
     1
 40
-0.6
176
     1
 40
-30.0
176
     1
 62
     7
176
     1
 90
        1
176
     1
 90
        4
176
     1
 62
     7
176
     1
 62
   257
176
     1
 90
        1
176
     1
 90
        1
176
     1
 40
1.0
176
     1
 90
        0
176
     1
 62
   257
176
     1
 40
1.0
176
     1
 90
        1
176
     1
 90
        6
176
     1
 90
        2
176
     1
 62
     7
176
     1
 90
        5
176
     1
 90
        0
176
     1
 90
        0
176
     1
290
     0
176
     1
 90
        1
176
     1
 40
0.0
176
     1
 90
        0
176
     1
290
     0
176
     1
290
     1
176
     1
290
     1
176
     1
290
     0
176
     1
290
     0
176
     1
290
     0
176
     1
290
     0
176
     1
290
     0
176
     1
290
     0
176
     1
 90
       50
176
     1
 40
0.0
176
     1
 40
1.0
176
     1
 90
        0
176
     1
 62
    18
420
        0
176
     1
 90
       50
176
     1
 90
        3
176
     1
 62
     5
420
      255
176
     1
290
     0
176
     1
 90
       50
176
     1
 90
       50
176
     1
 90
       50
176
     1
290
     0
176
     1
 90
       50
176
     1
 62
   256
176
     0
 40
1.0
176
     0
 90
        2
176
     1
  1
strokes_ogs.tif
176
     1
290
     0
176
     1
 40
1.0
176
     1
 40
1.0
176
     1
  0
VISUALSTYLE
  5
1B6
102
{ACAD_REACTORS
330
1AE
102
}
330
1AE
100
AcDbVisualStyle
  2
Basic
 70
     7
177
     3
291
     1
 70
    58
 90
        1
176
     1
 90
        0
176
     1
 90
        1
176
     1
 90
        0
176
     1
 40
-0.6
176
     1
 40
-30.0
176
     1
 62
     7
176
     1
 90
        0
176
     1
 90
        4
176
     1
 62
     7
176
     1
 62
   257
176
     1
 90
        1
176
     1
 90
        1
176
     1
 40
1.0
176
     1
 90
        8
176
     1
 62
     7
176
     1
 40
1.0
176
     1
 90
        1
176
     1
 90
        6
176
     1
 90
        2
176
     1
 62
     7
176
     1
 90
        5
176
     1
 90
        0
176
     1
 90
        0
176
     1
290
     0
176
     1
 90
        1
176
     1
 40
0.0
176
     1
 90
        0
176
     1
290
     0
176
     1
290
     1
176
     1
290
     1
176
     1
290
     0
176
     1
290
     0
176
     1
290
     0
176
     1
290
     0
176
     1
290
     0
176
     1
290
     0
176
     1
 90
       50
176
     1
 40
0.0
176
     1
 40
1.0
176
     1
 90
        0
176
     1
 62
    18
420
        0
176
     1
 90
       50
176
     1
 90
        3
176
     1
 62
     5
420
      255
176
     1
290
     0
176
     1
 90
       50
176
     1
 90
       50
176
     1
 90
       50
176
     1
290
     0
176
     1
 90
       50
176
     1
 62
   256
176
     0
 40
1.0
176
     0
 90
        2
176
     1
  1
strokes_ogs.tif
176
     1
290
     0
176
     1
 40
1.0
176
     1
 40
1.0
176
     1
  0
VISUALSTYLE
  5
1BA
102
{ACAD_REACTORS
330
1AE
102
}
330
1AE
100
AcDbVisualStyle
  2
Brighten
 70
    12
177
     3
291
     1
 70
    58
 90
        2
176
     1
 90
        2
176
     1
 90
        0
176
     1
 90
        0
176
     1
 40
-0.6
176
     1
 40
-30.0
176
     1
 62
     7
176
     1
 90
        1
176
     1
 90
        4
176
     1
 62
     7
176
     1
 62
   257
176
     1
 90
        1
176
     1
 90
        1
176
     1
 40
1.0
176
     1
 90
        8
176
     1
 62
     7
176
     1
 40
1.0
176
     1
 90
        1
176
     1
 90
        6
176
     1
 90
        2
176
     1
 62
     7
176
     1
 90
        5
176
     1
 90
        0
176
     1
 90
        0
176
     1
290
     0
176
     1
 90
        1
176
     1
 40
50.0
176
     1
 90
        0
176
     1
290
     0
176
     1
290
     1
176
     1
290
     1
176
     1
290
     0
176
     1
290
     0
176
     1
290
     0
176
     1
290
     0
176
     1
290
     0
176
     1
290
     0
176
     1
 90
       50
176
     1
 40
0.0
176
     1
 40
1.0
176
     1
 90
        0
176
     1
 62
    18
420
        0
176
     1
 90
       50
176
     1
 90
        3
176
     1
 62
     5
420
      255
176
     1
290
     0
176
     1
 90
       50
176
     1
 90
       50
176
     1
 90
       50
176
     1
290
     0
176
     1
 90
       50
176
     1
 62
   256
176
     0
 40
1.0
176
     0
 90
        2
176
     1
  1
strokes_ogs.tif
176
     1
290
     0
176
     1
 40
1.0
176
     1
 40
1.0
176
     1
  0
VISUALSTYLE
  5
1BE
102
{ACAD_REACTORS
330
1AE
102
}
330
1AE
100
AcDbVisualStyle
  2
ColorChange
 70
    16
177
     3
291
     1
 70
    58
 90
        2
176
     1
 90
        2
176
     1
 90
        3
176
     1
 90
        0
176
     1
 40
-0.6
176
     1
 40
-30.0
176
     1
 62
     8
176
     1
 90
        1
176
     1
 90
        4
176
     1
 62
     7
176
     1
 62
   257
176
     1
 90
        1
176
     1
 90
        1
176
     1
 40
1.0
176
     1
 90
        8
176
     1
 62
     8
176
     1
 40
1.0
176
     1
 90
        1
176
     1
 90
        6
176
     1
 90
        2
176
     1
 62
     7
176
     1
 90
        5
176
     1
 90
        0
176
     1
 90
        0
176
     1
290
     0
176
     1
 90
        1
176
     1
 40
0.0
176
     1
 90
        0
176
     1
290
     0
176
     1
290
     1
176
     1
290
     1
176
     1
290
     0
176
     1
290
     0
176
     1
290
     0
176
     1
290
     0
176
     1
290
     0
176
     1
290
     0
176
     1
 90
       50
176
     1
 40
0.0
176
     1
 40
1.0
176
     1
 90
        0
176
     1
 62
    18
420
        0
176
     1
 90
       50
176
     1
 90
        3
176
     1
 62
     5
420
      255
176
     1
290
     0
176
     1
 90
       50
176
     1
 90
       50
176
     1
 90
       50
176
     1
290
     0
176
     1
 90
       50
176
     1
 62
   256
176
     0
 40
1.0
176
     0
 90
        2
176
     1
  1
strokes_ogs.tif
176
     1
290
     0
176
     1
 40
1.0
176
     1
 40
1.0
176
     1
  0
VISUALSTYLE
  5
1B8
102
{ACAD_REACTORS
330
1AE
102
}
330
1AE
100
AcDbVisualStyle
  2
Conceptual
 70
     9
177
     3
291
     0
 70
    58
 90
        3
176
     1
 90
        2
176
     1
 90
        0
176
     1
 90
        0
176
     1
 40
-0.6
176
     1
 40
-30.0
176
     1
 62
     7
176
     1
 90
        2
176
     1
 90
        2
176
     1
 62
     7
176
     1
 62
   257
176
     1
 90
        1
176
     1
 90
        1
176
     1
 40
40.0
176
     1
 90
        8
176
     1
 62
     7
176
     1
 40
1.0
176
     1
 90
        1
176
     1
 90
        6
176
     1
 90
        2
176
     1
 62
     7
176
     1
 90
        3
176
     1
 90
        0
176
     1
 90
        0
176
     1
290
     0
176
     1
 90
        1
176
     1
 40
0.0
176
     1
 90
        0
176
     1
290
     0
176
     1
290
     1
176
     1
290
     1
176
     1
290
     0
176
     1
290
     0
176
     1
290
     0
176
     1
290
     0
176
     1
290
     0
176
     1
290
     0
176
     1
 90
       50
176
     1
 40
0.0
176
     1
 40
1.0
176
     1
 90
        0
176
     1
 62
    18
420
        0
176
     1
 90
       50
176
     1
 90
        3
176
     1
 62
     5
420
      255
176
     1
290
     0
176
     1
 90
       50
176
     1
 90
       50
176
     1
 90
       50
176
     1
290
     0
176
     1
 90
       50
176
     1
 62
   256
176
     0
 40
1.0
176
     0
 90
        2
176
     1
  1
strokes_ogs.tif
176
     1
290
     0
176
     1
 40
1.0
176
     1
 40
1.0
176
     1
  0
VISUALSTYLE
  5
1B9
102
{ACAD_REACTORS
330
1AE
102
}
330
1AE
100
AcDbVisualStyle
  2
Dim
 70
    11
177
     3
291
     1
 70
    58
 90
        2
176
     1
 90
        2
176
     1
 90
        0
176
     1
 90
        0
176
     1
 40
-0.6
176
     1
 40
-30.0
176
     1
 62
     7
176
     1
 90
        1
176
     1
 90
        4
176
     1
 62
     7
176
     1
 62
   257
176
     1
 90
        1
176
     1
 90
        1
176
     1
 40
1.0
176
     1
 90
        8
176
     1
 62
     7
176
     1
 40
1.0
176
     1
 90
        1
176
     1
 90
        6
176
     1
 90
        2
176
     1
 62
     7
176
     1
 90
        5
176
     1
 90
        0
176
     1
 90
        0
176
     1
290
     0
176
     1
 90
        1
176
     1
 40
-50.0
176
     1
 90
        0
176
     1
290
     0
176
     1
290
     1
176
     1
290
     1
176
     1
290
     0
176
     1
290
     0
176
     1
290
     0
176
     1
290
     0
176
     1
290
     0
176
     1
290
     0
176
     1
 90
       50
176
     1
 40
0.0
176
     1
 40
1.0
176
     1
 90
        0
176
     1
 62
    18
420
        0
176
     1
 90
       50
176
     1
 90
        3
176
     1
 62
     5
420
      255
176
     1
290
     0
176
     1
 90
       50
176
     1
 90
       50
176
     1
 90
       50
176
     1
290
     0
176
     1
 90
       50
176
     1
 62
   256
176
     0
 40
1.0
176
     0
 90
        2
176
     1
  1
strokes_ogs.tif
176
     1
290
     0
176
     1
 40
1.0
176
     1
 40
1.0
176
     1
  0
VISUALSTYLE
  5
20F
102
{ACAD_REACTORS
330
1AE
102
}
330
1AE
100
AcDbVisualStyle
  2
EdgeColorOff
 70
    22
177
     3
291
     1
 70
    58
 90
        2
176
     0
 90
        2
176
     0
 90
        0
176
     0
 90
        0
176
     0
 40
0.6
176
     0
 40
30.0
176
     0
 62
     7
420
 16777215
176
     0
 90
        1
176
     0
 90
        4
176
     0
 62
     7
176
     0
 62
   257
176
     0
 90
        1
176
     0
 90
        1
176
     0
 40
1.0
176
     0
 90
        8
176
     2
 62
     7
176
     0
 40
1.0
176
     0
 90
        1
176
     0
 90
        6
176
     0
 90
        2
176
     0
 62
     7
176
     0
 90
        5
176
     0
 90
        0
176
     0
 90
        0
176
     0
290
     0
176
     0
 90
        1
176
     0
 40
0.0
176
     0
 90
        0
176
     0
290
     0
176
     0
290
     1
176
     0
290
     1
176
     0
290
     0
176
     0
290
     0
176
     0
290
     0
176
     0
290
     0
176
     0
290
     0
176
     0
290
     0
176
     0
 90
       50
176
     0
 40
0.0
176
     0
 40
1.0
176
     0
 90
        0
176
     0
 62
    18
420
        0
176
     0
 90
       50
176
     0
 90
        3
176
     0
 62
     5
420
      255
176
     0
290
     0
176
     0
 90
       50
176
     0
 90
       50
176
     0
 90
       50
176
     0
290
     0
176
     0
 90
       50
176
     0
 62
   256
176
     0
 40
1.0
176
     0
 90
        2
176
     0
  1
strokes_ogs.tif
176
     0
290
     0
176
     0
 40
1.0
176
     0
 40
1.0
176
     0
  0
VISUALSTYLE
  5
1BD
102
{ACAD_REACTORS
330
1AE
102
}
330
1AE
100
AcDbVisualStyle
  2
Facepattern
 70
    15
177
     3
291
     1
 70
    58
 90
        2
176
     1
 90
        2
176
     1
 90
        0
176
     1
 90
        0
176
     1
 40
-0.6
176
     1
 40
-30.0
176
     1
 62
     7
176
     1
 90
        1
176
     1
 90
        4
176
     1
 62
     7
176
     1
 62
   257
176
     1
 90
        1
176
     1
 90
        1
176
     1
 40
1.0
176
     1
 90
        8
176
     1
 62
     7
176
     1
 40
1.0
176
     1
 90
        1
176
     1
 90
        6
176
     1
 90
        2
176
     1
 62
     7
176
     1
 90
        5
176
     1
 90
        0
176
     1
 90
        0
176
     1
290
     0
176
     1
 90
        1
176
     1
 40
0.0
176
     1
 90
        0
176
     1
290
     0
176
     1
290
     1
176
     1
290
     1
176
     1
290
     0
176
     1
290
     0
176
     1
290
     0
176
     1
290
     0
176
     1
290
     0
176
     1
290
     0
176
     1
 90
       50
176
     1
 40
0.0
176
     1
 40
1.0
176
     1
 90
        0
176
     1
 62
    18
420
        0
176
     1
 90
       50
176
     1
 90
        3
176
     1
 62
     5
420
      255
176
     1
290
     0
176
     1
 90
       50
176
     1
 90
       50
176
     1
 90
       50
176
     1
290
     0
176
     1
 90
       50
176
     1
 62
   256
176
     0
 40
1.0
176
     0
 90
        2
176
     1
  1
strokes_ogs.tif
176
     1
290
     0
176
     1
 40
1.0
176
     1
 40
1.0
176
     1
  0
VISUALSTYLE
  5
1AF
102
{ACAD_REACTORS
330
1AE
102
}
330
1AE
100
AcDbVisualStyle
  2
Flat
 70
     0
177
     3
291
     1
 70
    58
 90
        2
176
     1
 90
        1
176
     1
 90
        1
176
     1
 90
        2
176
     1
 40
-0.6
176
     1
 40
30.0
176
     1
 62
     7
176
     1
 90
        0
176
     1
 90
        4
176
     1
 62
     7
176
     1
 62
   257
176
     1
 90
        1
176
     1
 90
        1
176
     1
 40
1.0
176
     1
 90
        8
176
     1
 62
     7
176
     1
 40
1.0
176
     1
 90
        1
176
     1
 90
        6
176
     1
 90
        2
176
     1
 62
     7
176
     1
 90
        5
176
     1
 90
        0
176
     1
 90
        0
176
     1
290
     0
176
     1
 90
       13
176
     1
 40
0.0
176
     1
 90
        0
176
     1
290
     0
176
     1
290
     1
176
     1
290
     1
176
     1
290
     0
176
     1
290
     0
176
     1
290
     0
176
     1
290
     0
176
     1
290
     0
176
     1
290
     0
176
     1
 90
       50
176
     1
 40
0.0
176
     1
 40
1.0
176
     1
 90
        0
176
     1
 62
    18
420
        0
176
     1
 90
       50
176
     1
 90
        3
176
     1
 62
     5
420
      255
176
     1
290
     0
176
     1
 90
       50
176
     1
 90
       50
176
     1
 90
       50
176
     1
290
     0
176
     1
 90
       50
176
     1
 62
   256
176
     0
 40
1.0
176
     0
 90
        2
176
     1
  1
strokes_ogs.tif
176
     1
290
     0
176
     1
 40
1.0
176
     1
 40
1.0
176
     1
  0
VISUALSTYLE
  5
1B0
102
{ACAD_REACTORS
330
1AE
102
}
330
1AE
100
AcDbVisualStyle
  2
FlatWithEdges
 70
     1
177
     3
291
     1
 70
    58
 90
        2
176
     1
 90
        1
176
     1
 90
        1
176
     1
 90
        2
176
     1
 40
-0.6
176
     1
 40
30.0
176
     1
 62
     7
176
     1
 90
        1
176
     1
 90
        4
176
     1
 62
     7
176
     1
 62
   257
176
     1
 90
        1
176
     1
 90
        1
176
     1
 40
1.0
176
     1
 90
        0
176
     1
 62
   257
176
     1
 40
1.0
176
     1
 90
        1
176
     1
 90
        6
176
     1
 90
        2
176
     1
 62
     7
176
     1
 90
        5
176
     1
 90
        0
176
     1
 90
        0
176
     1
290
     0
176
     1
 90
       13
176
     1
 40
0.0
176
     1
 90
        0
176
     1
290
     0
176
     1
290
     1
176
     1
290
     1
176
     1
290
     0
176
     1
290
     0
176
     1
290
     0
176
     1
290
     0
176
     1
290
     0
176
     1
290
     0
176
     1
 90
       50
176
     1
 40
0.0
176
     1
 40
1.0
176
     1
 90
        0
176
     1
 62
    18
420
        0
176
     1
 90
       50
176
     1
 90
        3
176
     1
 62
     5
420
      255
176
     1
290
     0
176
     1
 90
       50
176
     1
 90
       50
176
     1
 90
       50
176
     1
290
     0
176
     1
 90
       50
176
     1
 62
   256
176
     0
 40
1.0
176
     0
 90
        2
176
     1
  1
strokes_ogs.tif
176
     1
290
     0
176
     1
 40
1.0
176
     1
 40
1.0
176
     1
  0
VISUALSTYLE
  5
1B1
102
{ACAD_REACTORS
330
1AE
102
}
330
1AE
100
AcDbVisualStyle
  2
Gouraud
 70
     2
177
     3
291
     1
 70
    58
 90
        2
176
     1
 90
        2
176
     1
 90
        1
176
     1
 90
        2
176
     1
 40
-0.6
176
     1
 40
30.0
176
     1
 62
     7
176
     1
 90
        0
176
     1
 90
        4
176
     1
 62
     7
176
     1
 62
   257
176
     1
 90
        1
176
     1
 90
        1
176
     1
 40
1.0
176
     1
 90
        0
176
     1
 62
     7
176
     1
 40
1.0
176
     1
 90
        1
176
     1
 90
        6
176
     1
 90
        2
176
     1
 62
     7
176
     1
 90
        5
176
     1
 90
        0
176
     1
 90
        0
176
     1
290
     0
176
     1
 90
       13
176
     1
 40
0.0
176
     1
 90
        0
176
     1
290
     0
176
     1
290
     1
176
     1
290
     1
176
     1
290
     0
176
     1
290
     0
176
     1
290
     0
176
     1
290
     0
176
     1
290
     0
176
     1
290
     0
176
     1
 90
       50
176
     1
 40
0.0
176
     1
 40
1.0
176
     1
 90
        0
176
     1
 62
    18
420
        0
176
     1
 90
       50
176
     1
 90
        3
176
     1
 62
     5
420
      255
176
     1
290
     0
176
     1
 90
       50
176
     1
 90
       50
176
     1
 90
       50
176
     1
290
     0
176
     1
 90
       50
176
     1
 62
   256
176
     0
 40
1.0
176
     0
 90
        2
176
     1
  1
strokes_ogs.tif
176
     1
290
     0
176
     1
 40
1.0
176
     1
 40
1.0
176
     1
  0
VISUALSTYLE
  5
1B2
102
{ACAD_REACTORS
330
1AE
102
}
330
1AE
100
AcDbVisualStyle
  2
GouraudWithEdges
 70
     3
177
     3
291
     1
 70
    58
 90
        2
176
     1
 90
        2
176
     1
 90
        1
176
     1
 90
        2
176
     1
 40
-0.6
176
     1
 40
30.0
176
     1
 62
     7
176
     1
 90
        1
176
     1
 90
        4
176
     1
 62
     7
176
     1
 62
   257
176
     1
 90
        1
176
     1
 90
        1
176
     1
 40
1.0
176
     1
 90
        0
176
     1
 62
   257
176
     1
 40
1.0
176
     1
 90
        1
176
     1
 90
        6
176
     1
 90
        2
176
     1
 62
     7
176
     1
 90
        5
176
     1
 90
        0
176
     1
 90
        0
176
     1
290
     0
176
     1
 90
       13
176
     1
 40
0.0
176
     1
 90
        0
176
     1
290
     0
176
     1
290
     1
176
     1
290
     1
176
     1
290
     0
176
     1
290
     0
176
     1
290
     0
176
     1
290
     0
176
     1
290
     0
176
     1
290
     0
176
     1
 90
       50
176
     1
 40
0.0
176
     1
 40
1.0
176
     1
 90
        0
176
     1
 62
    18
420
        0
176
     1
 90
       50
176
     1
 90
        3
176
     1
 62
     5
420
      255
176
     1
290
     0
176
     1
 90
       50
176
     1
 90
       50
176
     1
 90
       50
176
     1
290
     0
176
     1
 90
       50
176
     1
 62
   256
176
     0
 40
1.0
176
     0
 90
        2
176
     1
  1
strokes_ogs.tif
176
     1
290
     0
176
     1
 40
1.0
176
     1
 40
1.0
176
     1
  0
VISUALSTYLE
  5
20C
102
{ACAD_REACTORS
330
1AE
102
}
330
1AE
100
AcDbVisualStyle
  2
Hidden
 70
     6
177
     3
291
     0
 70
    58
 90
        1
176
     1
 90
        2
176
     1
 90
        2
176
     1
 90
        0
176
     1
 40
0.6
176
     1
 40
30.0
176
     1
 62
     7
420
 16777215
176
     1
 90
        2
176
     1
 90
        2
176
     1
 62
     7
176
     1
 62
   257
176
     1
 90
        2
176
     1
 90
        1
176
     1
 40
40.0
176
     1
 90
        0
176
     1
 62
   257
176
     1
 40
1.0
176
     1
 90
        1
176
     1
 90
        6
176
     1
 90
        2
176
     1
 62
     7
176
     1
 90
        3
176
     1
 90
        0
176
     1
 90
        0
176
     1
290
     0
176
     1
 90
        1
176
     1
 40
0.0
176
     1
 90
        0
176
     1
290
     0
176
     1
290
     1
176
     1
290
     1
176
     1
290
     0
176
     1
290
     0
176
     1
290
     0
176
     1
290
     0
176
     1
290
     0
176
     1
290
     0
176
     1
 90
       50
176
     1
 40
0.0
176
     1
 40
1.0
176
     1
 90
        0
176
     1
 62
    18
420
        0
176
     1
 90
       50
176
     1
 90
        3
176
     1
 62
     5
420
      255
176
     1
290
     0
176
     1
 90
       50
176
     1
 90
       50
176
     1
 90
       50
176
     1
290
     0
176
     1
 90
       50
176
     1
 62
   256
176
     0
 40
1.0
176
     0
 90
        2
176
     1
  1
strokes_ogs.tif
176
     1
290
     0
176
     1
 40
1.0
176
     1
 40
1.0
176
     1
  0
VISUALSTYLE
  5
20D
102
{ACAD_REACTORS
330
1AE
102
}
330
1AE
100
AcDbVisualStyle
  2
JitterOff
 70
    20
177
     3
291
     1
 70
    58
 90
        2
176
     0
 90
        2
176
     0
 90
        0
176
     0
 90
        0
176
     0
 40
0.6
176
     0
 40
30.0
176
     0
 62
     7
420
 16777215
176
     0
 90
        1
176
     0
 90
        4
176
     0
 62
     7
176
     0
 62
   257
176
     0
 90
        1
176
     0
 90
        1
176
     0
 40
1.0
176
     0
 90
       10
176
     2
 62
     7
176
     0
 40
1.0
176
     0
 90
        1
176
     0
 90
        6
176
     0
 90
        2
176
     0
 62
     7
176
     0
 90
        5
176
     0
 90
        0
176
     0
 90
        0
176
     0
290
     0
176
     0
 90
        1
176
     0
 40
0.0
176
     0
 90
        0
176
     0
290
     0
176
     0
290
     1
176
     0
290
     1
176
     0
290
     0
176
     0
290
     0
176
     0
290
     0
176
     0
290
     0
176
     0
290
     0
176
     0
290
     0
176
     0
 90
       50
176
     0
 40
0.0
176
     0
 40
1.0
176
     0
 90
        0
176
     0
 62
    18
420
        0
176
     0
 90
       50
176
     0
 90
        3
176
     0
 62
     5
420
      255
176
     0
290
     0
176
     0
 90
       50
176
     0
 90
       50
176
     0
 90
       50
176
     0
290
     0
176
     0
 90
       50
176
     0
 62
   256
176
     0
 40
1.0
176
     0
 90
        2
176
     0
  1
strokes_ogs.tif
176
     0
290
     0
176
     0
 40
1.0
176
     0
 40
1.0
176
     0
  0
VISUALSTYLE
  5
1BC
102
{ACAD_REACTORS
330
1AE
102
}
330
1AE
100
AcDbVisualStyle
  2
Linepattern
 70
    14
177
     3
291
     1
 70
    58
 90
        2
176
     1
 90
        2
176
     1
 90
        0
176
     1
 90
        0
176
     1
 40
-0.6
176
     1
 40
-30.0
176
     1
 62
     7
176
     1
 90
        1
176
     1
 90
        4
176
     1
 62
     7
176
     1
 62
   257
176
     1
 90
        7
176
     1
 90
        7
176
     1
 40
1.0
176
     1
 90
        8
176
     1
 62
     7
176
     1
 40
1.0
176
     1
 90
        1
176
     1
 90
        6
176
     1
 90
        2
176
     1
 62
     7
176
     1
 90
        5
176
     1
 90
        0
176
     1
 90
        0
176
     1
290
     0
176
     1
 90
        1
176
     1
 40
0.0
176
     1
 90
        0
176
     1
290
     0
176
     1
290
     1
176
     1
290
     1
176
     1
290
     0
176
     1
290
     0
176
     1
290
     0
176
     1
290
     0
176
     1
290
     0
176
     1
290
     0
176
     1
 90
       50
176
     1
 40
0.0
176
     1
 40
1.0
176
     1
 90
        0
176
     1
 62
    18
420
        0
176
     1
 90
       50
176
     1
 90
        3
176
     1
 62
     5
420
      255
176
     1
290
     0
176
     1
 90
       50
176
     1
 90
       50
176
     1
 90
       50
176
     1
290
     0
176
     1
 90
       50
176
     1
 62
   256
176
     0
 40
1.0
176
     0
 90
        2
176
     1
  1
strokes_ogs.tif
176
     1
290
     0
176
     1
 40
1.0
176
     1
 40
1.0
176
     1
  0
VISUALSTYLE
  5
20E
102
{ACAD_REACTORS
330
1AE
102
}
330
1AE
100
AcDbVisualStyle
  2
OverhangOff
 70
    21
177
     3
291
     1
 70
    58
 90
        2
176
     0
 90
        2
176
     0
 90
        0
176
     0
 90
        0
176
     0
 40
0.6
176
     0
 40
30.0
176
     0
 62
     7
420
 16777215
176
     0
 90
        1
176
     0
 90
        4
176
     0
 62
     7
176
     0
 62
   257
176
     0
 90
        1
176
     0
 90
        1
176
     0
 40
1.0
176
     0
 90
        9
176
     2
 62
     7
176
     0
 40
1.0
176
     0
 90
        1
176
     0
 90
        6
176
     0
 90
        2
176
     0
 62
     7
176
     0
 90
        5
176
     0
 90
        0
176
     0
 90
        0
176
     0
290
     0
176
     0
 90
        1
176
     0
 40
0.0
176
     0
 90
        0
176
     0
290
     0
176
     0
290
     1
176
     0
290
     1
176
     0
290
     0
176
     0
290
     0
176
     0
290
     0
176
     0
290
     0
176
     0
290
     0
176
     0
290
     0
176
     0
 90
       50
176
     0
 40
0.0
176
     0
 40
1.0
176
     0
 90
        0
176
     0
 62
    18
420
        0
176
     0
 90
       50
176
     0
 90
        3
176
     0
 62
     5
420
      255
176
     0
290
     0
176
     0
 90
       50
176
     0
 90
       50
176
     0
 90
       50
176
     0
290
     0
176
     0
 90
       50
176
     0
 62
   256
176
     0
 40
1.0
176
     0
 90
        2
176
     0
  1
strokes_ogs.tif
176
     0
290
     0
176
     0
 40
1.0
176
     0
 40
1.0
176
     0
  0
VISUALSTYLE
  5
1B7
102
{ACAD_REACTORS
330
1AE
102
}
330
1AE
100
AcDbVisualStyle
  2
Realistic
 70
     8
177
     3
291
     0
 70
    58
 90
        2
176
     1
 90
        2
176
     1
 90
        0
176
     1
 90
        0
176
     1
 40
-0.6
176
     1
 40
-30.0
176
     1
 62
     7
176
     1
 90
        1
176
     1
 90
        0
176
     1
 62
     7
176
     1
 62
   257
176
     1
 90
        1
176
     1
 90
        1
176
     1
 40
1.0
176
     1
 90
        8
176
     1
 62
     8
176
     1
 40
1.0
176
     1
 90
        1
176
     1
 90
        6
176
     1
 90
        2
176
     1
 62
     7
176
     1
 90
        5
176
     1
 90
        0
176
     1
 90
        0
176
     1
290
     0
176
     1
 90
       13
176
     1
 40
0.0
176
     1
 90
        0
176
     1
290
     0
176
     1
290
     1
176
     1
290
     1
176
     1
290
     0
176
     1
290
     0
176
     1
290
     0
176
     1
290
     0
176
     1
290
     0
176
     1
290
     0
176
     1
 90
       50
176
     1
 40
0.0
176
     1
 40
1.0
176
     1
 90
        0
176
     1
 62
    18
420
        0
176
     1
 90
       50
176
     1
 90
        3
176
     1
 62
     5
420
      255
176
     1
290
     0
176
     1
 90
       50
176
     1
 90
       50
176
     1
 90
       50
176
     1
290
     0
176
     1
 90
       50
176
     1
 62
   256
176
     0
 40
1.0
176
     0
 90
        2
176
     1
  1
strokes_ogs.tif
176
     1
290
     0
176
     1
 40
1.0
176
     1
 40
1.0
176
     1
  0
VISUALSTYLE
  5
214
102
{ACAD_REACTORS
330
1AE
102
}
330
1AE
100
AcDbVisualStyle
  2
Shaded
 70
    27
177
     3
291
     0
 70
    58
 90
        2
176
     1
 90
        2
176
     1
 90
        1
176
     1
 90
        2
176
     1
 40
0.6
176
     1
 40
30.0
176
     1
 62
     7
420
 16777215
176
     1
 90
        0
176
     1
 90
        4
176
     1
 62
     7
176
     1
 62
   257
176
     1
 90
        1
176
     1
 90
        1
176
     1
 40
1.0
176
     1
 90
        8
176
     1
 62
   257
176
     1
 40
1.0
176
     1
 90
        1
176
     1
 90
        6
176
     1
 90
        2
176
     1
 62
     8
420
  7895160
176
     1
 90
        3
176
     1
 90
        0
176
     1
 90
        0
176
     1
290
     0
176
     1
 90
        5
176
     1
 40
0.0
176
     1
 90
        0
176
     1
290
     0
176
     1
290
     1
176
     1
290
     1
176
     1
290
     0
176
     1
290
     0
176
     1
290
     0
176
     1
290
     0
176
     1
290
     0
176
     1
290
     0
176
     1
 90
       50
176
     1
 40
0.0
176
     1
 40
1.0
176
     1
 90
        0
176
     1
 62
    18
420
        0
176
     1
 90
       50
176
     1
 90
        3
176
     1
 62
     5
420
      255
176
     1
290
     0
176
     1
 90
       50
176
     1
 90
       50
176
     1
 90
       50
176
     1
290
     0
176
     1
 90
       50
176
     1
 62
   256
176
     0
 40
1.0
176
     0
 90
        2
176
     1
  1
strokes_ogs.tif
176
     1
290
     0
176
     1
 40
1.0
176
     1
 40
1.0
176
     1
  0
VISUALSTYLE
  5
213
102
{ACAD_REACTORS
330
1AE
102
}
330
1AE
100
AcDbVisualStyle
  2
Shaded with edges
 70
    26
177
     3
291
     0
 70
    58
 90
        2
176
     1
 90
        2
176
     1
 90
        1
176
     1
 90
        2
176
     1
 40
0.6
176
     1
 40
30.0
176
     1
 62
     7
420
 16777215
176
     1
 90
        1
176
     1
 90
       10
176
     1
 62
     7
176
     1
 62
   257
176
     1
 90
        2
176
     1
 90
        1
176
     1
 40
1.0
176
     1
 90
        8
176
     1
 62
   257
176
     1
 40
1.0
176
     1
 90
        1
176
     1
 90
        6
176
     1
 90
        2
176
     1
 62
     7
176
     1
 90
        3
176
     1
 90
        0
176
     1
 90
        0
176
     1
290
     0
176
     1
 90
        5
176
     1
 40
0.0
176
     1
 90
        0
176
     1
290
     0
176
     1
290
     1
176
     1
290
     1
176
     1
290
     0
176
     1
290
     0
176
     1
290
     0
176
     1
290
     0
176
     1
290
     0
176
     1
290
     0
176
     1
 90
       50
176
     1
 40
0.0
176
     1
 40
1.0
176
     1
 90
        0
176
     1
 62
    18
420
        0
176
     1
 90
       50
176
     1
 90
        3
176
     1
 62
     5
420
      255
176
     1
290
     0
176
     1
 90
       50
176
     1
 90
       50
176
     1
 90
       50
176
     1
290
     0
176
     1
 90
       50
176
     1
 62
   256
176
     0
 40
1.0
176
     0
 90
        2
176
     1
  1
strokes_ogs.tif
176
     1
290
     0
176
     1
 40
1.0
176
     1
 40
1.0
176
     1
  0
VISUALSTYLE
  5
210
102
{ACAD_REACTORS
330
1AE
102
}
330
1AE
100
AcDbVisualStyle
  2
Shades of Gray
 70
    23
177
     3
291
     0
 70
    58
 90
        2
176
     1
 90
        2
176
     1
 90
        3
176
     1
 90
        0
176
     1
 40
0.6
176
     1
 40
30.0
176
     1
 62
     7
420
 16777215
176
     1
 90
        2
176
     1
 90
        2
176
     1
 62
     7
176
     1
 62
     7
176
     1
 90
        1
176
     1
 90
        1
176
     1
 40
40.0
176
     1
 90
        8
176
     1
 62
     7
176
     1
 40
1.0
176
     1
 90
        1
176
     1
 90
        6
176
     1
 90
        2
176
     1
 62
     7
176
     1
 90
        3
176
     1
 90
        0
176
     1
 90
        0
176
     1
290
     0
176
     1
 90
        1
176
     1
 40
0.0
176
     1
 90
        0
176
     1
290
     0
176
     1
290
     1
176
     1
290
     1
176
     1
290
     0
176
     1
290
     0
176
     1
290
     0
176
     1
290
     0
176
     1
290
     0
176
     1
290
     0
176
     1
 90
       50
176
     1
 40
0.0
176
     1
 40
1.0
176
     1
 90
        0
176
     1
 62
    18
420
        0
176
     1
 90
       50
176
     1
 90
        3
176
     1
 62
     5
420
      255
176
     1
290
     0
176
     1
 90
       50
176
     1
 90
       50
176
     1
 90
       50
176
     1
290
     0
176
     1
 90
       50
176
     1
 62
   256
176
     0
 40
1.0
176
     0
 90
        2
176
     1
  1
strokes_ogs.tif
176
     1
290
     0
176
     1
 40
1.0
176
     1
 40
1.0
176
     1
  0
VISUALSTYLE
  5
211
102
{ACAD_REACTORS
330
1AE
102
}
330
1AE
100
AcDbVisualStyle
  2
Sketchy
 70
    24
177
     3
291
     0
 70
    58
 90
        1
176
     1
 90
        2
176
     1
 90
        2
176
     1
 90
        0
176
     1
 40
0.6
176
     1
 40
30.0
176
     1
 62
     7
420
 16777215
176
     1
 90
        2
176
     1
 90
        2
176
     1
 62
     7
176
     1
 62
     7
176
     1
 90
        1
176
     1
 90
        1
176
     1
 40
40.0
176
     1
 90
       11
176
     1
 62
     7
176
     1
 40
1.0
176
     1
 90
        1
176
     1
 90
        6
176
     1
 90
        2
176
     1
 62
     7
176
     1
 90
        6
176
     1
 90
        0
176
     1
 90
        0
176
     1
290
     0
176
     1
 90
        1
176
     1
 40
0.0
176
     1
 90
        0
176
     1
290
     0
176
     1
290
     1
176
     1
290
     1
176
     1
290
     0
176
     1
290
     0
176
     1
290
     0
176
     1
290
     0
176
     1
290
     0
176
     1
290
     0
176
     1
 90
       50
176
     1
 40
0.0
176
     1
 40
1.0
176
     1
 90
        0
176
     1
 62
    18
420
        0
176
     1
 90
       50
176
     1
 90
        3
176
     1
 62
     5
420
      255
176
     1
290
     0
176
     1
 90
       50
176
     1
 90
       50
176
     1
 90
       50
176
     1
290
     0
176
     1
 90
       50
176
     1
 62
   256
176
     0
 40
1.0
176
     0
 90
        2
176
     1
  1
strokes_ogs.tif
176
     1
290
     0
176
     1
 40
1.0
176
     1
 40
1.0
176
     1
  0
VISUALSTYLE
  5
1BB
102
{ACAD_REACTORS
330
1AE
102
}
330
1AE
100
AcDbVisualStyle
  2
Thicken
 70
    13
177
     3
291
     1
 70
    58
 90
        2
176
     1
 90
        2
176
     1
 90
        0
176
     1
 90
        0
176
     1
 40
-0.6
176
     1
 40
-30.0
176
     1
 62
     7
176
     1
 90
        1
176
     1
 90
        4
176
     1
 62
     7
176
     1
 62
   257
176
     1
 90
        1
176
     1
 90
        1
176
     1
 40
1.0
176
     1
 90
       12
176
     1
 62
     7
176
     1
 40
1.0
176
     1
 90
        1
176
     1
 90
        6
176
     1
 90
        2
176
     1
 62
     7
176
     1
 90
        5
176
     1
 90
        0
176
     1
 90
        0
176
     1
290
     0
176
     1
 90
        1
176
     1
 40
0.0
176
     1
 90
        0
176
     1
290
     0
176
     1
290
     1
176
     1
290
     1
176
     1
290
     0
176
     1
290
     0
176
     1
290
     0
176
     1
290
     0
176
     1
290
     0
176
     1
290
     0
176
     1
 90
       50
176
     1
 40
0.0
176
     1
 40
1.0
176
     1
 90
        0
176
     1
 62
    18
420
        0
176
     1
 90
       50
176
     1
 90
        3
176
     1
 62
     5
420
      255
176
     1
290
     0
176
     1
 90
       50
176
     1
 90
       50
176
     1
 90
       50
176
     1
290
     0
176
     1
 90
       50
176
     1
 62
   256
176
     0
 40
1.0
176
     0
 90
        2
176
     1
  1
strokes_ogs.tif
176
     1
290
     0
176
     1
 40
1.0
176
     1
 40
1.0
176
     1
  0
VISUALSTYLE
  5
20B
102
{ACAD_REACTORS
330
1AE
102
}
330
1AE
100
AcDbVisualStyle
  2
Wireframe
 70
     5
177
     3
291
     0
 70
    58
 90
        0
176
     1
 90
        2
176
     1
 90
        0
176
     1
 90
        0
176
     1
 40
0.6
176
     1
 40
30.0
176
     1
 62
     7
420
 16777215
176
     1
 90
        1
176
     1
 90
        4
176
     1
 62
     7
176
     1
 62
   257
176
     1
 90
        1
176
     1
 90
        1
176
     1
 40
1.0
176
     1
 90
        0
176
     1
 62
   257
176
     1
 40
1.0
176
     1
 90
        1
176
     1
 90
        6
176
     1
 90
        2
176
     1
 62
     7
176
     1
 90
        3
176
     1
 90
        0
176
     1
 90
        0
176
     1
290
     0
176
     1
 90
        1
176
     1
 40
0.0
176
     1
 90
        0
176
     1
290
     0
176
     1
290
     1
176
     1
290
     1
176
     1
290
     0
176
     1
290
     0
176
     1
290
     0
176
     1
290
     0
176
     1
290
     0
176
     1
290
     0
176
     1
 90
       50
176
     1
 40
0.0
176
     1
 40
1.0
176
     1
 90
        0
176
     1
 62
    18
420
        0
176
     1
 90
       50
176
     1
 90
        3
176
     1
 62
     5
420
      255
176
     1
290
     0
176
     1
 90
       50
176
     1
 90
       50
176
     1
 90
       50
176
     1
290
     0
176
     1
 90
       50
176
     1
 62
   256
176
     0
 40
1.0
176
     0
 90
        2
176
     1
  1
strokes_ogs.tif
176
     1
290
     0
176
     1
 40
1.0
176
     1
 40
1.0
176
     1
  0
VISUALSTYLE
  5
212
102
{ACAD_REACTORS
330
1AE
102
}
330
1AE
100
AcDbVisualStyle
  2
X-Ray
 70
    25
177
     3
291
     0
 70
    58
 90
        2
176
     1
 90
        2
176
     1
 90
        1
176
     1
 90
        1
176
     1
 40
0.5
176
     1
 40
30.0
176
     1
 62
     7
420
 16777215
176
     1
 90
        1
176
     1
 90
        0
176
     1
 62
     7
176
     1
 62
   257
176
     1
 90
        1
176
     1
 90
        1
176
     1
 40
1.0
176
     1
 90
        8
176
     1
 62
     7
176
     1
 40
1.0
176
     1
 90
        1
176
     1
 90
        6
176
     1
 90
        2
176
     1
 62
     7
176
     1
 90
        3
176
     1
 90
        0
176
     1
 90
        0
176
     1
290
     0
176
     1
 90
       13
176
     1
 40
0.0
176
     1
 90
        0
176
     1
290
     0
176
     1
290
     1
176
     1
290
     1
176
     1
290
     0
176
     1
290
     0
176
     1
290
     0
176
     1
290
     0
176
     1
290
     0
176
     1
290
     0
176
     1
 90
       50
176
     1
 40
0.0
176
     1
 40
1.0
176
     1
 90
        0
176
     1
 62
    18
420
        0
176
     1
 90
       50
176
     1
 90
        3
176
     1
 62
     5
420
      255
176
     1
290
     0
176
     1
 90
       50
176
     1
 90
       50
176
     1
 90
       50
176
     1
290
     0
176
     1
 90
       50
176
     1
 62
   256
176
     0
 40
1.0
176
     0
 90
        2
176
     1
  1
strokes_ogs.tif
176
     1
290
     0
176
     1
 40
1.0
176
     1
 40
1.0
176
     1
  0
DICTIONARYVAR
  5
23A
102
{ACAD_REACTORS
330
1CA
102
}
330
1CA
100
DictionaryVariables
280
     0
  1
1:1
  0
DICTIONARYVAR
  5
23C
102
{ACAD_REACTORS
330
1CA
102
}
330
1CA
100
DictionaryVariables
280
     0
  1
Standard
  0
DICTIONARYVAR
  5
23B
102
{ACAD_REACTORS
330
1CA
102
}
330
1CA
100
DictionaryVariables
280
     0
  1
Standard
  0
DICTIONARYVAR
  5
1CE
102
{ACAD_REACTORS
330
1CA
102
}
330
1CA
100
DictionaryVariables
280
     0
  1
2
  0
DICTIONARYVAR
  5
1CF
102
{ACAD_REACTORS
330
1CA
102
}
330
1CA
100
DictionaryVariables
280
     0
  1
1
  0
DICTIONARYVAR
  5
1CD
102
{ACAD_REACTORS
330
1CA
102
}
330
1CA
100
DictionaryVariables
280
     0
  1
0
  0
DICTIONARY
  5
2D0
330
216
100
AcDbDictionary
280
     1
281
     1
  3
ACAD_ROUNDTRIP_2008_TABLESTYLE_CELLSTYLEMAP
360
2D1
  0
CELLSTYLEMAP
  5
2D1
102
{ACAD_REACTORS
330
2D0
102
}
330
2D0
100
AcDbCellStyleMap
 90
        3
300
CELLSTYLE
  1
TABLEFORMAT_BEGIN
 90
        5
170
     1
 91
        0
 92
    32768
 62
   257
 93
        1
300
CONTENTFORMAT
  1
CONTENTFORMAT_BEGIN
 90
        0
 91
        0
 92
        4
 93
        0
300

 40
0.0
140
1.0
 94
        5
 62
     0
340
11
144
0.25
309
CONTENTFORMAT_END
171
     1
301
MARGIN
  1
CELLMARGIN_BEGIN
 40
0.06
 40
0.06
 40
0.06
 40
0.06
 40
0.06
 40
0.06
309
CELLMARGIN_END
 94
        6
 95
        1
302
GRIDFORMAT
  1
GRIDFORMAT_BEGIN
 90
        0
 91
        1
 62
     0
 92
       -2
340
14
 93
        0
 40
0.045
309
GRIDFORMAT_END
 95
        2
302
GRIDFORMAT
  1
GRIDFORMAT_BEGIN
 90
        0
 91
        1
 62
     0
 92
       -2
340
14
 93
        0
 40
0.045
309
GRIDFORMAT_END
 95
        4
302
GRIDFORMAT
  1
GRIDFORMAT_BEGIN
 90
        0
 91
        1
 62
     0
 92
       -2
340
14
 93
        0
 40
0.045
309
GRIDFORMAT_END
 95
        8
302
GRIDFORMAT
  1
GRIDFORMAT_BEGIN
 90
        0
 91
        1
 62
     0
 92
       -2
340
14
 93
        0
 40
0.045
309
GRIDFORMAT_END
 95
       16
302
GRIDFORMAT
  1
GRIDFORMAT_BEGIN
 90
        0
 91
        1
 62
     0
 92
       -2
340
14
 93
        0
 40
0.045
309
GRIDFORMAT_END
 95
       32
302
GRIDFORMAT
  1
GRIDFORMAT_BEGIN
 90
        0
 91
        1
 62
     0
 92
       -2
340
14
 93
        0
 40
0.045
309
GRIDFORMAT_END
309
TABLEFORMAT_END
  1
CELLSTYLE_BEGIN
 90
        1
 91
        1
300
_TITLE
309
CELLSTYLE_END
300
CELLSTYLE
  1
TABLEFORMAT_BEGIN
 90
        5
170
     1
 91
        0
 92
        0
 62
   257
 93
        1
300
CONTENTFORMAT
  1
CONTENTFORMAT_BEGIN
 90
        0
 91
        0
 92
        4
 93
        0
300

 40
0.0
140
1.0
 94
        5
 62
     0
340
11
144
0.18
309
CONTENTFORMAT_END
171
     1
301
MARGIN
  1
CELLMARGIN_BEGIN
 40
0.06
 40
0.06
 40
0.06
 40
0.06
 40
0.06
 40
0.06
309
CELLMARGIN_END
 94
        6
 95
        1
302
GRIDFORMAT
  1
GRIDFORMAT_BEGIN
 90
        0
 91
        1
 62
     0
 92
       -2
340
14
 93
        0
 40
0.045
309
GRIDFORMAT_END
 95
        2
302
GRIDFORMAT
  1
GRIDFORMAT_BEGIN
 90
        0
 91
        1
 62
     0
 92
       -2
340
14
 93
        0
 40
0.045
309
GRIDFORMAT_END
 95
        4
302
GRIDFORMAT
  1
GRIDFORMAT_BEGIN
 90
        0
 91
        1
 62
     0
 92
       -2
340
14
 93
        0
 40
0.045
309
GRIDFORMAT_END
 95
        8
302
GRIDFORMAT
  1
GRIDFORMAT_BEGIN
 90
        0
 91
        1
 62
     0
 92
       -2
340
14
 93
        0
 40
0.045
309
GRIDFORMAT_END
 95
       16
302
GRIDFORMAT
  1
GRIDFORMAT_BEGIN
 90
        0
 91
        1
 62
     0
 92
       -2
340
14
 93
        0
 40
0.045
309
GRIDFORMAT_END
 95
       32
302
GRIDFORMAT
  1
GRIDFORMAT_BEGIN
 90
        0
 91
        1
 62
     0
 92
       -2
340
14
 93
        0
 40
0.045
309
GRIDFORMAT_END
309
TABLEFORMAT_END
  1
CELLSTYLE_BEGIN
 90
        2
 91
        1
300
_HEADER
309
CELLSTYLE_END
300
CELLSTYLE
  1
TABLEFORMAT_BEGIN
 90
        5
170
     1
 91
        0
 92
        0
 62
   257
 93
        1
300
CONTENTFORMAT
  1
CONTENTFORMAT_BEGIN
 90
        0
 91
        0
 92
        4
 93
        0
300

 40
0.0
140
1.0
 94
        2
 62
     0
340
11
144
0.18
309
CONTENTFORMAT_END
171
     1
301
MARGIN
  1
CELLMARGIN_BEGIN
 40
0.06
 40
0.06
 40
0.06
 40
0.06
 40
0.06
 40
0.06
309
CELLMARGIN_END
 94
        6
 95
        1
302
GRIDFORMAT
  1
GRIDFORMAT_BEGIN
 90
        0
 91
        1
 62
     0
 92
       -2
340
14
 93
        0
 40
0.045
309
GRIDFORMAT_END
 95
        2
302
GRIDFORMAT
  1
GRIDFORMAT_BEGIN
 90
        0
 91
        1
 62
     0
 92
       -2
340
14
 93
        0
 40
0.045
309
GRIDFORMAT_END
 95
        4
302
GRIDFORMAT
  1
GRIDFORMAT_BEGIN
 90
        0
 91
        1
 62
     0
 92
       -2
340
14
 93
        0
 40
0.045
309
GRIDFORMAT_END
 95
        8
302
GRIDFORMAT
  1
GRIDFORMAT_BEGIN
 90
        0
 91
        1
 62
     0
 92
       -2
340
14
 93
        0
 40
0.045
309
GRIDFORMAT_END
 95
       16
302
GRIDFORMAT
  1
GRIDFORMAT_BEGIN
 90
        0
 91
        1
 62
     0
 92
       -2
340
14
 93
        0
 40
0.045
309
GRIDFORMAT_END
 95
       32
302
GRIDFORMAT
  1
GRIDFORMAT_BEGIN
 90
        0
 91
        1
 62
     0
 92
       -2
340
14
 93
        0
 40
0.045
309
GRIDFORMAT_END
309
TABLEFORMAT_END
  1
CELLSTYLE_BEGIN
 90
        3
 91
        2
300
_DATA
309
CELLSTYLE_END
  0
ENDSEC
  0
EOF
