  0
SECTION
  2
HEADER
  9
$ACADVER
  1
AC1027
  9
$ACADMAINTVER
 70
   105
  9
$DWGCODEPAGE
  3
ANSI_1252
  9
$REQUIREDVERSIONS
160
                 0
  9
$LASTSAVEDBY
  1
matthias.ochs
  9
$INSBASE
 10
0.0
 20
0.0
 30
0.0
  9
$EXTMIN
 10
-86.06385041508165
 20
-44.13524424658041
 30
0.0
  9
$EXTMAX
 10
79.30842278972574
 20
55.27820274895326
 30
0.0
  9
$LIMMIN
 10
-66.92292732
 20
-40.706106522
  9
$LIMMAX
 10
61.87856604
 20
38.1968833
  9
$ORTHOMODE
 70
     1
  9
$REGENMODE
 70
     1
  9
$FILLMODE
 70
     1
  9
$QTEXTMODE
 70
     0
  9
$MIRRTEXT
 70
     1
  9
$LTSCALE
 40
1.0
  9
$ATTMODE
 70
     1
  9
$TEXTSIZE
 40
0.2
  9
$TRACEWID
 40
0.05
  9
$TEXTSTYLE
  7
Standard
  9
$CLAYER
  8
SK6
  9
$CELTYPE
  6
ByLayer
  9
$CECOLOR
 62
   256
  9
$CELTSCALE
 40
1.0
  9
$DISPSILH
 70
     0
  9
$DIMSCALE
 40
1.0
  9
$DIMASZ
 40
0.18
  9
$DIMEXO
 40
0.0625
  9
$DIMDLI
 40
0.38
  9
$DIMRND
 40
0.0
  9
$DIMDLE
 40
0.0
  9
$DIMEXE
 40
0.18
  9
$DIMTP
 40
0.0
  9
$DIMTM
 40
0.0
  9
$DIMTXT
 40
0.18
  9
$DIMCEN
 40
0.09
  9
$DIMTSZ
 40
0.0
  9
$DIMTOL
 70
     0
  9
$DIMLIM
 70
     0
  9
$DIMTIH
 70
     1
  9
$DIMTOH
 70
     1
  9
$DIMSE1
 70
     0
  9
$DIMSE2
 70
     0
  9
$DIMTAD
 70
     0
  9
$DIMZIN
 70
     0
  9
$DIMBLK
  1

  9
$DIMASO
 70
     1
  9
$DIMSHO
 70
     1
  9
$DIMPOST
  1

  9
$DIMAPOST
  1

  9
$DIMALT
 70
     0
  9
$DIMALTD
 70
     2
  9
$DIMALTF
 40
25.4
  9
$DIMLFAC
 40
1.0
  9
$DIMTOFL
 70
     0
  9
$DIMTVP
 40
0.0
  9
$DIMTIX
 70
     0
  9
$DIMSOXD
 70
     0
  9
$DIMSAH
 70
     0
  9
$DIMBLK1
  1

  9
$DIMBLK2
  1

  9
$DIMSTYLE
  2
Standard
  9
$DIMCLRD
 70
     0
  9
$DIMCLRE
 70
     0
  9
$DIMCLRT
 70
     0
  9
$DIMTFAC
 40
1.0
  9
$DIMGAP
 40
0.09
  9
$DIMJUST
 70
     0
  9
$DIMSD1
 70
     0
  9
$DIMSD2
 70
     0
  9
$DIMTOLJ
 70
     1
  9
$DIMTZIN
 70
     0
  9
$DIMALTZ
 70
     0
  9
$DIMALTTZ
 70
     0
  9
$DIMUPT
 70
     0
  9
$DIMDEC
 70
     4
  9
$DIMTDEC
 70
     4
  9
$DIMALTU
 70
     2
  9
$DIMALTTD
 70
     2
  9
$DIMTXSTY
  7
Standard
  9
$DIMAUNIT
 70
     0
  9
$DIMADEC
 70
     0
  9
$DIMALTRND
 40
0.0
  9
$DIMAZIN
 70
     0
  9
$DIMDSEP
 70
    46
  9
$DIMATFIT
 70
     3
  9
$DIMFRAC
 70
     0
  9
$DIMLDRBLK
  1

  9
$DIMLUNIT
 70
     2
  9
$DIMLWD
 70
    -2
  9
$DIMLWE
 70
    -2
  9
$DIMTMOVE
 70
     2
  9
$DIMFXL
 40
1.0
  9
$DIMFXLON
 70
     0
  9
$DIMJOGANG
 40
0.7853981633974483
  9
$DIMTFILL
 70
     0
  9
$DIMTFILLCLR
 70
     0
  9
$DIMARCSYM
 70
     0
  9
$DIMLTYPE
  6

  9
$DIMLTEX1
  6

  9
$DIMLTEX2
  6

  9
$DIMTXTDIRECTION
 70
     0
  9
$LUNITS
 70
     2
  9
$LUPREC
 70
     4
  9
$SKETCHINC
 40
0.1
  9
$FILLETRAD
 40
0.5
  9
$AUNITS
 70
     2
  9
$AUPREC
 70
     0
  9
$MENU
  1
.
  9
$ELEVATION
 40
0.0
  9
$PELEVATION
 40
0.0
  9
$THICKNESS
 40
0.0
  9
$LIMCHECK
 70
     0
  9
$CHAMFERA
 40
0.5
  9
$CHAMFERB
 40
0.5
  9
$CHAMFERC
 40
1.0
  9
$CHAMFERD
 40
0.0
  9
$SKPOLY
 70
     0
  9
$TDCREATE
 40
2458327.549343565
  9
$TDUCREATE
 40
2458327.466010232
  9
$TDUPDATE
 40
2458677.636924711
  9
$TDUUPDATE
 40
2458677.553591377
  9
$TDINDWG
 40
0.0037272569
  9
$TDUSRTIMER
 40
0.0003068171
  9
$USRTIMER
 70
     1
  9
$ANGBASE
 50
0.0
  9
$ANGDIR
 70
     0
  9
$PDMODE
 70
     0
  9
$PDSIZE
 40
0.0
  9
$PLINEWID
 40
0.0
  9
$SPLFRAME
 70
     0
  9
$SPLINETYPE
 70
     6
  9
$SPLINESEGS
 70
     8
  9
$HANDSEED
  5
26B
  9
$SURFTAB1
 70
     6
  9
$SURFTAB2
 70
     6
  9
$SURFTYPE
 70
     6
  9
$SURFU
 70
     6
  9
$SURFV
 70
     6
  9
$UCSBASE
  2

  9
$UCSNAME
  2

  9
$UCSORG
 10
0.0
 20
0.0
 30
0.0
  9
$UCSXDIR
 10
1.0
 20
0.0
 30
0.0
  9
$UCSYDIR
 10
0.0
 20
1.0
 30
0.0
  9
$UCSORTHOREF
  2

  9
$UCSORTHOVIEW
 70
     0
  9
$UCSORGTOP
 10
0.0
 20
0.0
 30
0.0
  9
$UCSORGBOTTOM
 10
0.0
 20
0.0
 30
0.0
  9
$UCSORGLEFT
 10
0.0
 20
0.0
 30
0.0
  9
$UCSORGRIGHT
 10
0.0
 20
0.0
 30
0.0
  9
$UCSORGFRONT
 10
0.0
 20
0.0
 30
0.0
  9
$UCSORGBACK
 10
0.0
 20
0.0
 30
0.0
  9
$PUCSBASE
  2

  9
$PUCSNAME
  2

  9
$PUCSORG
 10
0.0
 20
0.0
 30
0.0
  9
$PUCSXDIR
 10
1.0
 20
0.0
 30
0.0
  9
$PUCSYDIR
 10
0.0
 20
1.0
 30
0.0
  9
$PUCSORTHOREF
  2

  9
$PUCSORTHOVIEW
 70
     0
  9
$PUCSORGTOP
 10
0.0
 20
0.0
 30
0.0
  9
$PUCSORGBOTTOM
 10
0.0
 20
0.0
 30
0.0
  9
$PUCSORGLEFT
 10
0.0
 20
0.0
 30
0.0
  9
$PUCSORGRIGHT
 10
0.0
 20
0.0
 30
0.0
  9
$PUCSORGFRONT
 10
0.0
 20
0.0
 30
0.0
  9
$PUCSORGBACK
 10
0.0
 20
0.0
 30
0.0
  9
$USERI1
 70
     0
  9
$USERI2
 70
     0
  9
$USERI3
 70
     0
  9
$USERI4
 70
     0
  9
$USERI5
 70
     0
  9
$USERR1
 40
0.0
  9
$USERR2
 40
0.0
  9
$USERR3
 40
0.0
  9
$USERR4
 40
0.0
  9
$USERR5
 40
0.0
  9
$WORLDVIEW
 70
     1
  9
$SHADEDGE
 70
     3
  9
$SHADEDIF
 70
    70
  9
$TILEMODE
 70
     1
  9
$MAXACTVP
 70
    64
  9
$PINSBASE
 10
0.0
 20
0.0
 30
0.0
  9
$PLIMCHECK
 70
     0
  9
$PEXTMIN
 10
1.000000000000000E+20
 20
1.000000000000000E+20
 30
1.000000000000000E+20
  9
$PEXTMAX
 10
-1.000000000000000E+20
 20
-1.000000000000000E+20
 30
-1.000000000000000E+20
  9
$PLIMMIN
 10
0.0
 20
0.0
  9
$PLIMMAX
 10
0.0
 20
0.0
  9
$UNITMODE
 70
     0
  9
$VISRETAIN
 70
     1
  9
$PLINEGEN
 70
     0
  9
$PSLTSCALE
 70
     1
  9
$TREEDEPTH
 70
  3020
  9
$CMLSTYLE
  2
Standard
  9
$CMLJUST
 70
     0
  9
$CMLSCALE
 40
1.0
  9
$PROXYGRAPHICS
 70
     1
  9
$MEASUREMENT
 70
     0
  9
$CELWEIGHT
370
    -1
  9
$ENDCAPS
280
     0
  9
$JOINSTYLE
280
     0
  9
$LWDISPLAY
290
     0
  9
$INSUNITS
 70
     0
  9
$HYPERLINKBASE
  1

  9
$STYLESHEET
  1

  9
$XEDIT
290
     1
  9
$CEPSNTYPE
380
     0
  9
$PSTYLEMODE
290
     1
  9
$FINGERPRINTGUID
  2
{E9456C92-EBB2-42B3-85B3-995F1424E252}
  9
$VERSIONGUID
  2
{FAEB1C32-E019-11D5-929B-00C0DF256EC4}
  9
$EXTNAMES
290
     1
  9
$PSVPSCALE
 40
0.0
  9
$OLESTARTUP
290
     0
  9
$SORTENTS
280
   127
  9
$INDEXCTL
280
     0
  9
$HIDETEXT
280
     1
  9
$XCLIPFRAME
280
     2
  9
$HALOGAP
280
     0
  9
$OBSCOLOR
 70
   257
  9
$OBSLTYPE
280
     0
  9
$INTERSECTIONDISPLAY
280
     0
  9
$INTERSECTIONCOLOR
 70
   257
  9
$DIMASSOC
280
     2
  9
$PROJECTNAME
  1

  9
$CAMERADISPLAY
290
     0
  9
$LENSLENGTH
 40
50.0
  9
$CAMERAHEIGHT
 40
0.0
  9
$STEPSPERSEC
 40
2.0
  9
$STEPSIZE
 40
6.0
  9
$3DDWFPREC
 40
2.0
  9
$PSOLWIDTH
 40
0.25
  9
$PSOLHEIGHT
 40
4.0
  9
$LOFTANG1
 40
1.570796326794897
  9
$LOFTANG2
 40
1.570796326794897
  9
$LOFTMAG1
 40
0.0
  9
$LOFTMAG2
 40
0.0
  9
$LOFTPARAM
 70
     7
  9
$LOFTNORMALS
280
     1
  9
$LATITUDE
 40
37.795
  9
$LONGITUDE
 40
-122.394
  9
$NORTHDIRECTION
 40
0.0
  9
$TIMEZONE
 70
 -8000
  9
$LIGHTGLYPHDISPLAY
280
     1
  9
$TILEMODELIGHTSYNCH
280
     1
  9
$SOLIDHIST
280
     0
  9
$SHOWHIST
280
     1
  9
$DWFFRAME
280
     2
  9
$DGNFRAME
280
     2
  9
$REALWORLDSCALE
290
     1
  9
$INTERFERECOLOR
 62
   256
  9
$CSHADOW
280
     0
  9
$SHADOWPLANELOCATION
 40
0.0
  0
ENDSEC
  0
SECTION
  2
CLASSES
  0
CLASS
  1
ACDBDICTIONARYWDFLT
  2
AcDbDictionaryWithDefault
  3
ObjectDBX Classes
 90
        0
 91
       17
280
     0
281
     0
  0
CLASS
  1
SCALE
  2
AcDbScale
  3
ObjectDBX Classes
 90
     1153
 91
       17
280
     0
281
     0
  0
CLASS
  1
VISUALSTYLE
  2
AcDbVisualStyle
  3
ObjectDBX Classes
 90
     4095
 91
       17
280
     0
281
     0
  0
CLASS
  1
MATERIAL
  2
AcDbMaterial
  3
ObjectDBX Classes
 90
     1153
 91
       17
280
     0
281
     0
  0
CLASS
  1
DICTIONARYVAR
  2
AcDbDictionaryVar
  3
ObjectDBX Classes
 90
        0
 91
       17
280
     0
281
     0
  0
CLASS
  1
ACDBPLACEHOLDER
  2
AcDbPlaceHolder
  3
ObjectDBX Classes
 90
        0
 91
        1
280
     0
281
     0
  0
CLASS
  1
LAYOUT
  2
AcDbLayout
  3
ObjectDBX Classes
 90
        0
 91
        1
280
     0
281
     0
  0
CLASS
  1
TABLESTYLE
  2
AcDbTableStyle
  3
ObjectDBX Classes
 90
     4095
 91
       16
280
     0
281
     0
  0
CLASS
  1
MLEADERSTYLE
  2
AcDbMLeaderStyle
  3
ACDB_MLEADERSTYLE_CLASS
 90
     4095
 91
       16
280
     0
281
     0
  0
CLASS
  1
SUN
  2
AcDbSun
  3
SCENEOE
 90
     1153
 91
       17
280
     0
281
     0
  0
CLASS
  1
SORTENTSTABLE
  2
AcDbSortentsTable
  3
ObjectDBX Classes
 90
        0
 91
        8
280
     0
281
     0
  0
CLASS
  1
CELLSTYLEMAP
  2
AcDbCellStyleMap
  3
ObjectDBX Classes
 90
     1152
 91
        9
280
     0
281
     0
  0
ENDSEC
  0
SECTION
  2
TABLES
  0
TABLE
  2
VPORT
  5
8
330
0
100
AcDbSymbolTable
 70
     1
  0
VPORT
  5
129
330
8
100
AcDbSymbolTableRecord
100
AcDbViewportTableRecord
  2
*Active
 70
     0
 10
0.0
 20
0.0
 11
1.0
 21
1.0
 12
138.1947109777778
 22
-73.17232649563206
 13
0.0
 23
0.0
 14
0.5
 24
0.5
 15
0.5
 25
0.5
 16
0.0
 26
0.0
 36
1.0
 17
0.0
 27
0.0
 37
0.0
 40
314.2796665094077
 41
1.831002331002331
 42
50.0
 43
0.0
 44
0.0
 50
0.0
 51
0.0
 71
    16
 72
   100
 73
     1
 74
     3
 75
     0
 76
     0
 77
     0
 78
     0
281
     0
 65
     1
110
0.0
120
0.0
130
0.0
111
1.0
121
0.0
131
0.0
112
0.0
122
1.0
132
0.0
 79
     0
146
0.0
348
15A
 60
     3
 61
     5
292
     1
282
     1
141
0.0
142
0.0
 63
   256
361
1FD
  0
ENDTAB
  0
TABLE
  2
LTYPE
  5
5
330
0
100
AcDbSymbolTable
 70
     8
  0
LTYPE
  5
14
330
5
100
AcDbSymbolTableRecord
100
AcDbLinetypeTableRecord
  2
ByBlock
 70
     0
  3

 72
    65
 73
     0
 40
0.0
  0
LTYPE
  5
15
330
5
100
AcDbSymbolTableRecord
100
AcDbLinetypeTableRecord
  2
ByLayer
 70
     0
  3

 72
    65
 73
     0
 40
0.0
  0
LTYPE
  5
16
330
5
100
AcDbSymbolTableRecord
100
AcDbLinetypeTableRecord
  2
Continuous
 70
     0
  3
Solid line
 72
    65
 73
     0
 40
0.0
  0
LTYPE
  5
20
330
5
100
AcDbSymbolTableRecord
100
AcDbLinetypeTableRecord
  2
PUNKT
 70
     0
  3
..............
 72
    65
 73
     2
 40
1.5
 49
0.7
 74
     0
 49
-0.8
 74
     0
  0
LTYPE
  5
21
330
5
100
AcDbSymbolTableRecord
100
AcDbLinetypeTableRecord
  2
GESTRICHELT
 70
     0
  3
-- -- -- -- --
 72
    65
 73
     7
 40
2.8
 49
0.9
 74
     0
 49
0.0
 74
     0
 49
0.9
 74
     0
 49
0.0
 74
     0
 49
0.2
 74
     0
 49
0.0
 74
     0
 49
-0.8
 74
     0
  0
LTYPE
  5
22
330
5
100
AcDbSymbolTableRecord
100
AcDbLinetypeTableRecord
  2
STRICHPUNKT
 70
     0
  3
--.--.--.--.--
 72
    65
 73
     4
 40
8.8
 49
5.5
 74
     0
 49
-1.3
 74
     0
 49
0.7
 74
     0
 49
-1.3
 74
     0
  0
LTYPE
  5
25
330
5
100
AcDbSymbolTableRecord
100
AcDbLinetypeTableRecord
  2
PHANTOM
 70
     0
  3
--..--..--..--
 72
    65
 73
     6
 40
14.2
 49
7.0
 74
     0
 49
-1.8
 74
     0
 49
0.9
 74
     0
 49
-1.8
 74
     0
 49
0.9
 74
     0
 49
-1.8
 74
     0
  0
LTYPE
  5
1A1
330
5
100
AcDbSymbolTableRecord
100
AcDbLinetypeTableRecord
  2
DASH
 70
     0
  3
DASH _ _ _ _ _
 72
    65
 73
     2
 40
0.75
 49
0.4
 74
     0
 49
-0.35
 74
     0
  0
LTYPE
  5
1A2
330
5
100
AcDbSymbolTableRecord
100
AcDbLinetypeTableRecord
  2
LONGDASH_DASH
 70
     0
  3
LONGDASH_DASH __ . __ . __
 72
    65
 73
     4
 40
0.85
 49
0.4
 74
     0
 49
-0.2
 74
     0
 49
0.05
 74
     0
 49
-0.2
 74
     0
  0
LTYPE
  5
1A3
330
5
100
AcDbSymbolTableRecord
100
AcDbLinetypeTableRecord
  2
LONGDASH_DASH_DASH
 70
     0
  3
LONGDASH_DASH_DASH __ . . __ . . __
 72
    65
 73
     6
 40
1.1
 49
0.4
 74
     0
 49
-0.2
 74
     0
 49
0.05
 74
     0
 49
-0.2
 74
     0
 49
0.05
 74
     0
 49
-0.2
 74
     0
  0
ENDTAB
  0
TABLE
  2
LAYER
  5
2
102
{ACAD_XDICTIONARY
360
1C0
102
}
330
0
100
AcDbSymbolTable
 70
    16
  0
LAYER
  5
16B
330
2
100
AcDbSymbolTableRecord
100
AcDbLayerTableRecord
  2
200
 70
     0
 62
     2
  6
Continuous
370
    50
390
F
347
169
348
0
  0
LAYER
  5
1A4
330
2
100
AcDbSymbolTableRecord
100
AcDbLayerTableRecord
  2
0
 70
     0
 62
     1
  6
Continuous
370
    -3
390
F
347
169
348
0
  0
LAYER
  5
1A5
330
2
100
AcDbSymbolTableRecord
100
AcDbLayerTableRecord
  2
1
 70
     0
 62
     4
  6
Continuous
370
    50
390
F
347
169
348
0
  0
LAYER
  5
1A6
330
2
100
AcDbSymbolTableRecord
100
AcDbLayerTableRecord
  2
2
 70
     0
 62
     7
  6
Continuous
370
    25
390
F
347
169
348
0
  0
LAYER
  5
1A7
330
2
100
AcDbSymbolTableRecord
100
AcDbLayerTableRecord
  2
3
 70
     0
 62
     1
  6
DASH
370
    35
390
F
347
169
348
0
  0
LAYER
  5
1A8
330
2
100
AcDbSymbolTableRecord
100
AcDbLayerTableRecord
  2
4
 70
     0
 62
     2
  6
LONGDASH_DASH
370
    25
390
F
347
169
348
0
  0
LAYER
  5
1A9
330
2
100
AcDbSymbolTableRecord
100
AcDbLayerTableRecord
  2
6
 70
     0
 62
     5
  6
Continuous
370
    -3
390
F
347
169
348
0
  0
LAYER
  5
1AA
330
2
100
AcDbSymbolTableRecord
100
AcDbLayerTableRecord
  2
CUT
 70
     0
 62
     1
  6
Continuous
370
    25
390
F
347
169
348
0
  0
LAYER
  5
1AB
330
2
100
AcDbSymbolTableRecord
100
AcDbLayerTableRecord
  2
NOCUT
 70
     0
 62
     7
  6
Continuous
370
    25
390
F
347
169
348
0
  0
LAYER
  5
1AC
330
2
100
AcDbSymbolTableRecord
100
AcDbLayerTableRecord
  2
SK1
 70
     0
 62
     4
  6
Continuous
370
    50
390
F
347
169
348
0
  0
LAYER
  5
1AD
330
2
100
AcDbSymbolTableRecord
100
AcDbLayerTableRecord
  2
SK2
 70
     0
 62
     7
  6
Continuous
370
    25
390
F
347
169
348
0
  0
LAYER
  5
1AE
330
2
100
AcDbSymbolTableRecord
100
AcDbLayerTableRecord
  2
SK3
 70
     0
 62
     1
  6
DASH
370
    35
390
F
347
169
348
0
  0
LAYER
  5
1AF
330
2
100
AcDbSymbolTableRecord
100
AcDbLayerTableRecord
  2
SK4
 70
     0
 62
     2
  6
LONGDASH_DASH
370
    25
390
F
347
169
348
0
  0
LAYER
  5
1B0
330
2
100
AcDbSymbolTableRecord
100
AcDbLayerTableRecord
  2
SK6
 70
     0
 62
     5
  6
Continuous
370
    -3
390
F
347
169
348
0
  0
LAYER
  5
1B1
330
2
100
AcDbSymbolTableRecord
100
AcDbLayerTableRecord
  2
INFTOTAL
 70
     0
 62
     9
  6
Continuous
370
    18
390
F
347
169
348
0
  0
LAYER
  5
203
330
2
100
AcDbSymbolTableRecord
100
AcDbLayerTableRecord
  2
11
 70
     0
 62
     4
  6
Continuous
370
    50
390
F
347
169
348
0
1001
AcAecLayerStandard
1000

1000

  0
ENDTAB
  0
TABLE
  2
STYLE
  5
3
330
0
100
AcDbSymbolTable
 70
     3
  0
STYLE
  5
11
330
3
100
AcDbSymbolTableRecord
100
AcDbTextStyleTableRecord
  2
Standard
 70
     0
 40
0.0
 41
1.0
 50
0.0
 71
     0
 42
0.2
  3
txt
  4

  0
STYLE
  5
16A
330
3
100
AcDbSymbolTableRecord
100
AcDbTextStyleTableRecord
  2
BMG_Text
 70
     0
 40
3.5
 41
1.0
 50
0.0
 71
     0
 42
0.2
  3
monos.ttf
  4

1001
ACAD
1000
Monospac821 BT
1071
       49
  0
STYLE
  5
209
330
3
100
AcDbSymbolTableRecord
100
AcDbTextStyleTableRecord
  2
SLDTEXTSTYLE0
 70
     0
 40
0.0
 41
0.605
 50
0.0
 71
     0
 42
0.2
  3
TXT
  4

  0
ENDTAB
  0
TABLE
  2
VIEW
  5
6
330
0
100
AcDbSymbolTable
 70
     0
  0
ENDTAB
  0
TABLE
  2
UCS
  5
7
330
0
100
AcDbSymbolTable
 70
     0
  0
ENDTAB
  0
TABLE
  2
APPID
  5
9
330
0
100
AcDbSymbolTable
 70
     2
  0
APPID
  5
12
330
9
100
AcDbSymbolTableRecord
100
AcDbRegAppTableRecord
  2
ACAD
 70
     0
  0
APPID
  5
204
330
9
100
AcDbSymbolTableRecord
100
AcDbRegAppTableRecord
  2
AcAecLayerStandard
 70
     0
  0
ENDTAB
  0
TABLE
  2
DIMSTYLE
  5
A
330
0
100
AcDbSymbolTable
 70
     6
100
AcDbDimStyleTable
  0
DIMSTYLE
105
28
330
A
100
AcDbSymbolTableRecord
100
AcDbDimStyleTableRecord
  2
Standard
 70
     0
178
     0
340
11
  0
DIMSTYLE
105
205
330
A
100
AcDbSymbolTableRecord
100
AcDbDimStyleTableRecord
  2
Matthias
 70
     0
 41
3.0
 44
2.0
 73
     0
 77
     1
140
3.0
147
2.0
178
     0
340
11
  0
DIMSTYLE
105
207
102
{ACAD_REACTORS
102
}
330
A
100
AcDbSymbolTableRecord
100
AcDbDimStyleTableRecord
  2
ISO-25
 70
     0
 41
2.5
 42
0.625
 43
3.75
 44
1.25
 73
     0
 74
     0
 77
     1
 78
     8
140
2.5
141
2.5
143
0.0393700787
147
0.625
171
     3
172
     1
178
     0
271
     2
272
     2
274
     3
278
    44
283
     0
284
     8
340
11
  0
DIMSTYLE
105
208
330
A
100
AcDbSymbolTableRecord
100
AcDbDimStyleTableRecord
  2
SLDDIMSTYLE0
 70
     0
 41
3.5
 44
0.0
 45
0.000000001
 73
     0
 74
     0
 77
     1
 78
    12
 79
     3
140
3.5
144
0.5
147
0.875
173
     1
178
     0
271
     2
272
     1
276
     2
284
    12
340
209
  0
DIMSTYLE
105
20A
330
A
100
AcDbSymbolTableRecord
100
AcDbDimStyleTableRecord
  2
SLDDIMSTYLE1
 70
     0
 41
3.5
 44
0.0
 45
0.000000001
 73
     0
 74
     0
 77
     1
 78
    12
 79
     3
140
3.5
144
0.5
147
0.875
173
     1
178
     0
271
     2
272
     3
276
     2
284
    12
340
209
  0
DIMSTYLE
105
20B
330
A
100
AcDbSymbolTableRecord
100
AcDbDimStyleTableRecord
  2
SLDDIMSTYLE2
 70
     0
 41
3.5
 44
0.0
 45
0.000000001
 73
     0
 74
     0
 77
     1
 78
    12
 79
     3
140
3.5
147
0.875
173
     1
178
     0
271
     2
272
     0
276
     2
284
    12
340
209
  0
ENDTAB
  0
TABLE
  2
BLOCK_RECORD
  5
1
330
0
100
AcDbSymbolTable
 70
     1
  0
BLOCK_RECORD
  5
1D
330
1
100
AcDbSymbolTableRecord
100
AcDbBlockTableRecord
  2
*Model_Space
340
1E
 70
     0
280
     1
281
     0
  0
BLOCK_RECORD
  5
1B
330
1
100
AcDbSymbolTableRecord
100
AcDbBlockTableRecord
  2
*Paper_Space
340
1C
 70
     0
280
     1
281
     0
  0
ENDTAB
  0
ENDSEC
  0
SECTION
  2
BLOCKS
  0
BLOCK
  5
153
330
1D
100
AcDbEntity
  8
0
100
AcDbBlockBegin
  2
*Model_Space
 70
     0
 10
0.0
 20
0.0
 30
0.0
  3
*Model_Space
  1

  0
ENDBLK
  5
154
330
1D
100
AcDbEntity
  8
0
100
AcDbBlockEnd
  0
BLOCK
  5
151
330
1B
100
AcDbEntity
 67
     1
  8
0
100
AcDbBlockBegin
  2
*Paper_Space
 70
     0
 10
0.0
 20
0.0
 30
0.0
  3
*Paper_Space
  1

  0
ENDBLK
  5
152
330
1B
100
AcDbEntity
 67
     1
  8
0
100
AcDbBlockEnd
  0
ENDSEC
  0
SECTION
  2
ENTITIES
  0
LINE
  5
29
330
1D
100
AcDbEntity
  8
SK6
100
AcDbLine
 10
-31.820171251
 20
-23.975606201
 30
0.0
 11
-31.820171251
 21
-26.045598271
 31
0.0
  0
ARC
  5
2A
330
1D
100
AcDbEntity
  8
SK6
100
AcDbCircle
 10
-34.700157061
 20
-27.125607731
 30
0.0
 40
1.08000004
100
AcDbArc
 50
90.00000763
 51
206.54360962
  0
LINE
  5
2B
330
1D
100
AcDbEntity
  8
SK6
100
AcDbLine
 10
-34.700157061
 20
-26.045628791
 30
0.0
 11
-31.820159801
 21
-26.045628791
 31
0.0
  0
ARC
  5
2C
330
1D
100
AcDbEntity
  8
SK6
100
AcDbCircle
 10
-35.870166671
 20
-26.675603151
 30
0.0
 40
2.70000005
100
AcDbArc
 50
90.00000763
 51
206.5436554
  0
ARC
  5
2D
330
1D
100
AcDbEntity
  8
SK6
100
AcDbCircle
 10
-35.150150191
 20
-36.575612311
 30
0.0
 40
1.08000004
100
AcDbArc
 50
270.0
 51
26.54360962
  0
LINE
  5
2E
330
1D
100
AcDbEntity
  8
SK6
100
AcDbLine
 10
-35.150150191
 20
-37.655614141
 30
0.0
 11
-38.570148361
 21
-37.655614141
 31
0.0
  0
LINE
  5
2F
330
1D
100
AcDbEntity
  8
SK6
100
AcDbLine
 10
-38.285568131
 20
-27.882176641
 30
0.0
 11
-34.184001811
 21
-36.092969181
 31
0.0
  0
ARC
  5
30
330
1D
100
AcDbEntity
  8
SK6
100
AcDbCircle
 10
-33.980163461
 20
-37.025616891
 30
0.0
 40
2.70000005
100
AcDbArc
 50
270.0
 51
26.54364014
  0
LINE
  5
31
330
1D
100
AcDbEntity
  8
SK6
100
AcDbLine
 10
-35.666324511
 20
-27.608235601
 30
0.0
 11
-31.564754381
 21
-35.819035771
 31
0.0
  0
LINE
  5
32
330
1D
100
AcDbEntity
  8
SK6
100
AcDbLine
 10
-38.570171251
 20
-37.655614141
 30
0.0
 11
-38.570171251
 21
-39.725621461
 31
0.0
  0
LINE
  5
33
330
1D
100
AcDbEntity
  8
SK6
100
AcDbLine
 10
-38.570171251
 20
-39.725621461
 30
0.0
 11
-33.980167281
 21
-39.725621461
 31
0.0
  0
LINE
  5
34
330
1D
100
AcDbEntity
  8
SK6
100
AcDbLine
 10
-29.120166671
 20
-39.725621461
 30
0.0
 11
-29.120166671
 21
-23.975621461
 31
0.0
  0
LINE
  5
35
330
1D
100
AcDbEntity
  8
SK6
100
AcDbLine
 10
-20.840160261
 20
-39.725621461
 30
0.0
 11
-20.840160261
 21
-23.975621461
 31
0.0
  0
LINE
  5
36
330
1D
100
AcDbEntity
  8
SK6
100
AcDbLine
 10
-20.840160261
 20
-39.725621461
 30
0.0
 11
-18.140167131
 21
-39.725621461
 31
0.0
  0
LINE
  5
37
330
1D
100
AcDbEntity
  8
SK6
100
AcDbLine
 10
-18.140167131
 20
-39.725621461
 30
0.0
 11
-18.140167131
 21
-32.885625131
 31
0.0
  0
ARC
  5
38
330
1D
100
AcDbEntity
  8
SK6
100
AcDbCircle
 10
-16.790153391
 20
-33.965611701
 30
0.0
 40
1.08000004
100
AcDbArc
 50
0.0
 51
90.00000763
  0
LINE
  5
39
330
1D
100
AcDbEntity
  8
SK6
100
AcDbLine
 10
-16.790153391
 20
-32.885609871
 30
0.0
 11
-18.140155681
 21
-32.885609871
 31
0.0
  0
ARC
  5
3A
330
1D
100
AcDbEntity
  8
SK6
100
AcDbCircle
 10
-16.520164381
 20
-26.945622681
 30
0.0
 40
0.90000004
100
AcDbArc
 50
0.0
 51
90.00000763
  0
LINE
  5
3B
330
1D
100
AcDbEntity
  8
SK6
100
AcDbLine
 10
-16.520164381
 20
-26.045628791
 30
0.0
 11
-18.140167131
 21
-26.045628791
 31
0.0
  0
ARC
  5
3C
330
1D
100
AcDbEntity
  8
SK6
100
AcDbCircle
 10
-16.520164381
 20
-29.825612311
 30
0.0
 40
0.90000004
100
AcDbArc
 50
270.0
 51
0.0
  0
LINE
  5
3D
330
1D
100
AcDbEntity
  8
SK6
100
AcDbLine
 10
-18.140167131
 20
-26.045628791
 30
0.0
 11
-18.140167131
 21
-30.725621461
 31
0.0
  0
LINE
  5
3E
330
1D
100
AcDbEntity
  8
SK6
100
AcDbLine
 10
-16.520164381
 20
-30.725621461
 30
0.0
 11
-18.140167131
 21
-30.725621461
 31
0.0
  0
LINE
  5
3F
330
1D
100
AcDbEntity
  8
SK6
100
AcDbLine
 10
-35.870166671
 20
-23.975606201
 30
0.0
 11
-31.820163621
 21
-23.975606201
 31
0.0
  0
LINE
  5
40
330
1D
100
AcDbEntity
  8
SK6
100
AcDbLine
 10
-15.890167131
 20
-23.975606201
 30
0.0
 11
-20.840171701
 21
-23.975606201
 31
0.0
  0
LINE
  5
41
330
1D
100
AcDbEntity
  8
SK6
100
AcDbLine
 10
-62.870166671
 20
-39.725621461
 30
0.0
 11
-65.660167581
 21
-39.725621461
 31
0.0
  0
LINE
  5
42
330
1D
100
AcDbEntity
  8
SK6
100
AcDbLine
 10
-62.870166671
 20
-36.305623291
 30
0.0
 11
-62.870166671
 21
-39.725621461
 31
0.0
  0
LINE
  5
43
330
1D
100
AcDbEntity
  8
SK6
100
AcDbLine
 10
-61.790164841
 20
-34.235615971
 30
0.0
 11
-62.870166671
 21
-36.305623291
 31
0.0
  0
LINE
  5
44
330
1D
100
AcDbEntity
  8
SK6
100
AcDbLine
 10
-59.360172161
 20
-39.725621461
 30
0.0
 11
-61.790164841
 21
-34.235615971
 31
0.0
  0
LINE
  5
45
330
1D
100
AcDbEntity
  8
SK6
100
AcDbLine
 10
-56.570171251
 20
-39.725621461
 30
0.0
 11
-59.360164531
 21
-39.725621461
 31
0.0
  0
LINE
  5
46
330
1D
100
AcDbEntity
  8
SK6
100
AcDbLine
 10
-60.170177351
 20
-30.725621461
 30
0.0
 11
-56.570171251
 21
-39.725621461
 31
0.0
  0
LINE
  5
47
330
1D
100
AcDbEntity
  8
SK6
100
AcDbLine
 10
-57.110172161
 20
-23.975621461
 30
0.0
 11
-60.170162091
 21
-30.725621461
 31
0.0
  0
LINE
  5
48
330
1D
100
AcDbEntity
  8
SK6
100
AcDbLine
 10
-62.870166671
 20
-31.085629701
 30
0.0
 11
-59.900173081
 21
-23.975636721
 31
0.0
  0
LINE
  5
49
330
1D
100
AcDbEntity
  8
SK6
100
AcDbLine
 10
-62.870166671
 20
-23.975621461
 30
0.0
 11
-62.870166671
 21
-31.085629701
 31
0.0
  0
LINE
  5
4A
330
1D
100
AcDbEntity
  8
SK6
100
AcDbLine
 10
-65.660167581
 20
-39.725621461
 30
0.0
 11
-65.660167581
 21
-23.975621461
 31
0.0
  0
LINE
  5
4B
330
1D
100
AcDbEntity
  8
SK6
100
AcDbLine
 10
-59.900173081
 20
-23.975621461
 30
0.0
 11
-57.110172161
 21
-23.975621461
 31
0.0
  0
LINE
  5
4C
330
1D
100
AcDbEntity
  8
SK6
100
AcDbLine
 10
-65.660167581
 20
-23.975621461
 30
0.0
 11
-62.870166671
 21
-23.975621461
 31
0.0
  0
LINE
  5
4D
330
1D
100
AcDbEntity
  8
SK6
100
AcDbLine
 10
-43.610160721
 20
-23.975621461
 30
0.0
 11
-43.610160721
 21
-39.725621461
 31
0.0
  0
LINE
  5
4E
330
1D
100
AcDbEntity
  8
SK6
100
AcDbLine
 10
-40.730163461
 20
-39.725621461
 30
0.0
 11
-40.730163461
 21
-23.975621461
 31
0.0
  0
LINE
  5
4F
330
1D
100
AcDbEntity
  8
SK6
100
AcDbLine
 10
-43.610160721
 20
-39.725621461
 30
0.0
 11
-40.730163461
 21
-39.725621461
 31
0.0
  0
LINE
  5
50
330
1D
100
AcDbEntity
  8
SK6
100
AcDbLine
 10
-40.730163461
 20
-23.975621461
 30
0.0
 11
-43.610172161
 21
-23.975621461
 31
0.0
  0
LINE
  5
51
330
1D
100
AcDbEntity
  8
SK6
100
AcDbLine
 10
-23.270164381
 20
-39.725621461
 30
0.0
 11
-23.270164381
 21
-37.655614141
 31
0.0
  0
LINE
  5
52
330
1D
100
AcDbEntity
  8
SK6
100
AcDbLine
 10
-29.120166671
 20
-39.725621461
 30
0.0
 11
-23.270164381
 21
-39.725621461
 31
0.0
  0
LINE
  5
53
330
1D
100
AcDbEntity
  8
SK6
100
AcDbLine
 10
-23.270175821
 20
-26.045613531
 30
0.0
 11
-23.270175821
 21
-23.975621461
 31
0.0
  0
LINE
  5
54
330
1D
100
AcDbEntity
  8
SK6
100
AcDbLine
 10
-26.240192301
 20
-26.045613531
 30
0.0
 11
-23.270187271
 21
-26.045613531
 31
0.0
  0
LINE
  5
55
330
1D
100
AcDbEntity
  8
SK6
100
AcDbLine
 10
-26.240192301
 20
-30.725621461
 30
0.0
 11
-26.240192301
 21
-26.045628791
 31
0.0
  0
LINE
  5
56
330
1D
100
AcDbEntity
  8
SK6
100
AcDbLine
 10
-23.270175821
 20
-30.725621461
 30
0.0
 11
-26.240180861
 21
-30.725621461
 31
0.0
  0
LINE
  5
57
330
1D
100
AcDbEntity
  8
SK6
100
AcDbLine
 10
-23.270175821
 20
-32.885602241
 30
0.0
 11
-23.270175821
 21
-30.725598581
 31
0.0
  0
LINE
  5
58
330
1D
100
AcDbEntity
  8
SK6
100
AcDbLine
 10
-26.240192301
 20
-32.885602241
 30
0.0
 11
-23.270187271
 21
-32.885602241
 31
0.0
  0
LINE
  5
59
330
1D
100
AcDbEntity
  8
SK6
100
AcDbLine
 10
-26.240192301
 20
-37.655614141
 30
0.0
 11
-26.240192301
 21
-32.885602241
 31
0.0
  0
LINE
  5
5A
330
1D
100
AcDbEntity
  8
SK6
100
AcDbLine
 10
-23.270175821
 20
-37.655614141
 30
0.0
 11
-26.240180861
 21
-37.655614141
 31
0.0
  0
LINE
  5
5B
330
1D
100
AcDbEntity
  8
SK6
100
AcDbLine
 10
-23.270175821
 20
-23.975621461
 30
0.0
 11
-29.120178111
 21
-23.975621461
 31
0.0
  0
LINE
  5
5C
330
1D
100
AcDbEntity
  8
SK6
100
AcDbLine
 10
-49.190166361
 20
-39.725621461
 30
0.0
 11
-55.490169421
 21
-39.725621461
 31
0.0
  0
LINE
  5
5D
330
1D
100
AcDbEntity
  8
SK6
100
AcDbLine
 10
-49.640155681
 20
-37.205609561
 30
0.0
 11
-49.190166361
 21
-39.725606201
 31
0.0
  0
LINE
  5
5E
330
1D
100
AcDbEntity
  8
SK6
100
AcDbLine
 10
-52.520175821
 20
-37.205609561
 30
0.0
 11
-49.640178571
 21
-37.205609561
 31
0.0
  0
LINE
  5
5F
330
1D
100
AcDbEntity
  8
SK6
100
AcDbLine
 10
-50.990169421
 20
-27.845624211
 30
0.0
 11
-52.520168191
 21
-37.205632451
 31
0.0
  0
LINE
  5
60
330
1D
100
AcDbEntity
  8
SK6
100
AcDbLine
 10
-47.930171861
 20
-39.725621461
 30
0.0
 11
-50.990169421
 21
-27.845624211
 31
0.0
  0
LINE
  5
61
330
1D
100
AcDbEntity
  8
SK6
100
AcDbLine
 10
-44.960163011
 20
-39.725621461
 30
0.0
 11
-47.930156601
 21
-39.725621461
 31
0.0
  0
LINE
  5
62
330
1D
100
AcDbEntity
  8
SK6
100
AcDbLine
 10
-49.370166671
 20
-23.525616891
 30
0.0
 11
-44.960174451
 21
-39.725621461
 31
0.0
  0
LINE
  5
63
330
1D
100
AcDbEntity
  8
SK6
100
AcDbLine
 10
-52.430171861
 20
-23.525616891
 30
0.0
 11
-49.370174301
 21
-23.525616891
 31
0.0
  0
LINE
  5
64
330
1D
100
AcDbEntity
  8
SK6
100
AcDbLine
 10
-55.490169421
 20
-39.725621461
 30
0.0
 11
-52.430171861
 21
-23.525616891
 31
0.0
  0
LINE
  5
65
330
1D
100
AcDbEntity
  8
3
100
AcDbLine
 10
9.965412186
 20
-5.725990534
 30
0.0
 11
2.0
 21
-16.71411926
 31
0.0
  0
LINE
  5
66
330
1D
100
AcDbEntity
  8
SK4
100
AcDbLine
 10
11.531133045
 20
-5.610680565
 30
0.0
 11
1.874820198
 21
-18.931373345
 31
0.0
  0
LINE
  5
67
330
1D
100
AcDbEntity
  8
3
100
AcDbLine
 10
11.279601882
 20
-8.002233857
 30
0.0
 11
2.0
 21
-20.803261303
 31
0.0
  0
LINE
  5
68
330
1D
100
AcDbEntity
  8
1
100
AcDbLine
 10
21.0
 20
-23.0
 30
0.0
 11
17.601043701
 21
-23.0
 31
0.0
  0
LINE
  5
69
330
1D
100
AcDbEntity
  8
1
100
AcDbLine
 10
17.601043701
 20
-23.0
 30
0.0
 11
15.600006104
 21
-19.534118652
 31
0.0
  0
LINE
  5
6A
330
1D
100
AcDbEntity
  8
1
100
AcDbLine
 10
15.600006104
 20
-19.534118652
 30
0.0
 11
15.600006104
 21
19.534088135
 31
0.0
  0
LINE
  5
6B
330
1D
100
AcDbEntity
  8
1
100
AcDbLine
 10
15.600006104
 20
19.534088135
 30
0.0
 11
17.601043701
 21
23.0
 31
0.0
  0
LINE
  5
6C
330
1D
100
AcDbEntity
  8
1
100
AcDbLine
 10
17.601043701
 20
23.0
 30
0.0
 11
21.0
 21
23.0
 31
0.0
  0
LINE
  5
6D
330
1D
100
AcDbEntity
  8
1
100
AcDbLine
 10
21.0
 20
23.0
 30
0.0
 11
22.0
 21
22.0
 31
0.0
  0
LINE
  5
6E
330
1D
100
AcDbEntity
  8
SK3
100
AcDbLine
 10
-48.399978638
 20
-6.75
 30
0.0
 11
-47.533950806
 21
-6.25
 31
0.0
  0
LINE
  5
6F
330
1D
100
AcDbEntity
  8
SK3
100
AcDbLine
 10
-47.533950806
 20
-6.25
 30
0.0
 11
-41.299972534
 21
-6.25
 31
0.0
  0
LINE
  5
70
330
1D
100
AcDbEntity
  8
SK3
100
AcDbLine
 10
-41.299972534
 20
-6.25
 30
0.0
 11
-40.636047363
 21
-5.100006104
 31
0.0
  0
LINE
  5
71
330
1D
100
AcDbEntity
  8
SK3
100
AcDbLine
 10
-40.636047363
 20
-5.100006104
 30
0.0
 11
-18.195120942
 21
-5.100006104
 31
0.0
  0
LINE
  5
72
330
1D
100
AcDbEntity
  8
3
100
AcDbLine
 10
0.0
 20
-5.100006104000002
 30
0.0
 11
9.598968506
 21
-5.100006104
 31
0.0
  0
LINE
  5
73
330
1D
100
AcDbEntity
  8
11
100
AcDbLine
 10
-41.155654907
 20
-6.0
 30
0.0
 11
-24.399978638
 21
-6.0
 31
0.0
  0
LINE
  5
74
330
1D
100
AcDbEntity
  8
SK3
100
AcDbLine
 10
-24.399978638
 20
-6.0
 30
0.0
 11
-21.041244505
 21
-5.100006104
 31
0.0
  0
ARC
  5
75
330
1D
100
AcDbEntity
  8
1
100
AcDbCircle
 10
1.600021362
 20
16.274993896
 30
0.0
 40
0.400001523
100
AcDbArc
 50
270.0
 51
0.0
  0
LINE
  5
76
330
1D
100
AcDbEntity
  8
SK4
100
AcDbLine
 10
-50.399978638
 20
0.0
 30
0.0
 11
-18.195120942
 21
0.0
 31
0.0
  0
LINE
  5
77
330
1D
100
AcDbEntity
  8
1
100
AcDbLine
 10
0.0
 20
-15.875
 30
0.0
 11
1.600006104
 21
-15.875
 31
0.0
  0
LINE
  5
78
330
1D
100
AcDbEntity
  8
1
100
AcDbLine
 10
0.0
 20
15.875
 30
0.0
 11
1.600006104
 21
15.875
 31
0.0
  0
LINE
  5
79
330
1D
100
AcDbEntity
  8
SK1
100
AcDbLine
 10
0.0
 20
15.875
 30
0.0
 11
0.0
 21
-15.875
 31
0.0
  0
LINE
  5
7A
330
1D
100
AcDbEntity
  8
SK1
100
AcDbLine
 10
0.0
 20
15.875
 30
0.0
 11
-47.758224487
 21
8.910339355
 31
0.0
  0
LINE
  5
7B
330
1D
100
AcDbEntity
  8
SK1
100
AcDbLine
 10
0.0
 20
-15.875
 30
0.0
 11
-47.758224487
 21
-8.910369873
 31
0.0
  0
ARC
  5
7C
330
1D
100
AcDbEntity
  8
SK1
100
AcDbCircle
 10
-47.649978638
 20
8.168212891
 30
0.0
 40
0.749992132
100
AcDbArc
 50
98.29726409899999
 51
180.000000715
  0
ARC
  5
7D
330
1D
100
AcDbEntity
  8
SK1
100
AcDbCircle
 10
-47.649978638
 20
-8.168212891
 30
0.0
 40
0.750007232
100
AcDbArc
 50
179.999997735
 51
261.702911377
  0
ARC
  5
7E
330
1D
100
AcDbEntity
  8
1
100
AcDbCircle
 10
1.600021362
 20
-16.274993896
 30
0.0
 40
0.399993905
100
AcDbArc
 50
0.0
 51
90.0
  0
LINE
  5
7F
330
1D
100
AcDbEntity
  8
1
100
AcDbLine
 10
3.0
 20
23.0
 30
0.0
 11
9.598968506
 21
23.0
 31
0.0
  0
LINE
  5
80
330
1D
100
AcDbEntity
  8
1
100
AcDbLine
 10
3.000030518
 20
-23.0
 30
0.0
 11
9.598968506
 21
-23.0
 31
0.0
  0
LINE
  5
81
330
1D
100
AcDbEntity
  8
1
100
AcDbLine
 10
11.899993896
 20
19.0
 30
0.0
 11
15.300018311
 21
19.0
 31
0.0
  0
LINE
  5
82
330
1D
100
AcDbEntity
  8
1
100
AcDbLine
 10
11.600006104
 20
19.534088135
 30
0.0
 11
9.598968506
 21
23.0
 31
0.0
  0
ARC
  5
83
330
1D
100
AcDbEntity
  8
1
100
AcDbCircle
 10
11.900009155
 20
19.299987793
 30
0.0
 40
0.300003048
100
AcDbArc
 50
180.0
 51
270.0
  0
ARC
  5
84
330
1D
100
AcDbEntity
  8
1
100
AcDbCircle
 10
15.300033569
 20
19.299987793
 30
0.0
 40
0.300003048
100
AcDbArc
 50
270.0
 51
0.0
  0
LINE
  5
85
330
1D
100
AcDbEntity
  8
1
100
AcDbLine
 10
11.899993896
 20
-19.0
 30
0.0
 11
15.300018311
 21
-19.0
 31
0.0
  0
LINE
  5
86
330
1D
100
AcDbEntity
  8
1
100
AcDbLine
 10
11.600006104
 20
-19.534118652
 30
0.0
 11
9.598968506
 21
-23.0
 31
0.0
  0
ARC
  5
87
330
1D
100
AcDbEntity
  8
1
100
AcDbCircle
 10
11.900009155
 20
-19.300018311
 30
0.0
 40
0.300003048
100
AcDbArc
 50
90.0
 51
180.0
  0
ARC
  5
88
330
1D
100
AcDbEntity
  8
1
100
AcDbCircle
 10
15.300033569
 20
-19.300018311
 30
0.0
 40
0.300003048
100
AcDbArc
 50
0.0
 51
90.0
  0
LINE
  5
89
330
1D
100
AcDbEntity
  8
1
100
AcDbLine
 10
11.600006104
 20
19.534088135
 30
0.0
 11
11.600006104
 21
-19.534118652
 31
0.0
  0
LINE
  5
8A
330
1D
100
AcDbEntity
  8
1
100
AcDbLine
 10
9.598968506
 20
-23.0
 30
0.0
 11
9.598968506
 21
23.0
 31
0.0
  0
LINE
  5
8B
330
1D
100
AcDbEntity
  8
1
100
AcDbLine
 10
17.601043701
 20
-23.0
 30
0.0
 11
17.601043701
 21
23.0
 31
0.0
  0
LINE
  5
8C
330
1D
100
AcDbEntity
  8
1
100
AcDbLine
 10
2.0
 20
-22.0
 30
0.0
 11
3.000030518
 21
-23.0
 31
0.0
  0
LINE
  5
8D
330
1D
100
AcDbEntity
  8
1
100
AcDbLine
 10
2.0
 20
22.0
 30
0.0
 11
3.0
 21
23.0
 31
0.0
  0
LINE
  5
8E
330
1D
100
AcDbEntity
  8
1
100
AcDbLine
 10
3.000030518
 20
-23.0
 30
0.0
 11
3.000030518
 21
23.0
 31
0.0
  0
LINE
  5
8F
330
1D
100
AcDbEntity
  8
1
100
AcDbLine
 10
2.0
 20
22.0
 30
0.0
 11
2.0
 21
-22.0
 31
0.0
  0
LINE
  5
90
330
1D
100
AcDbEntity
  8
SK3
100
AcDbLine
 10
-24.399978638
 20
6.0
 30
0.0
 11
-21.041244505
 21
5.100006104
 31
0.0
  0
LINE
  5
91
330
1D
100
AcDbEntity
  8
SK3
100
AcDbLine
 10
-24.399978638
 20
6.0
 30
0.0
 11
-24.399978638
 21
-6.0
 31
0.0
  0
LINE
  5
92
330
1D
100
AcDbEntity
  8
SK3
100
AcDbLine
 10
-48.399978638
 20
6.75
 30
0.0
 11
-47.533950806
 21
6.25
 31
0.0
  0
LINE
  5
93
330
1D
100
AcDbEntity
  8
SK3
100
AcDbLine
 10
-47.533950806
 20
6.25
 30
0.0
 11
-47.533950806
 21
-6.25
 31
0.0
  0
LINE
  5
94
330
1D
100
AcDbEntity
  8
SK3
100
AcDbLine
 10
-41.299972534
 20
6.25
 30
0.0
 11
-40.636047363
 21
5.100006104
 31
0.0
  0
LINE
  5
95
330
1D
100
AcDbEntity
  8
SK3
100
AcDbLine
 10
-40.636047363
 20
5.100006104
 30
0.0
 11
-40.636047363
 21
-5.100006104
 31
0.0
  0
LINE
  5
96
330
1D
100
AcDbEntity
  8
SK3
100
AcDbLine
 10
-47.533950806
 20
6.25
 30
0.0
 11
-41.299972534
 21
6.25
 31
0.0
  0
LINE
  5
97
330
1D
100
AcDbEntity
  8
SK3
100
AcDbLine
 10
-41.299972534
 20
6.25
 30
0.0
 11
-41.299972534
 21
-6.25
 31
0.0
  0
LINE
  5
98
330
1D
100
AcDbEntity
  8
11
100
AcDbLine
 10
-41.155654907
 20
6.0
 30
0.0
 11
-24.399978638
 21
6.0
 31
0.0
  0
LINE
  5
99
330
1D
100
AcDbEntity
  8
SK3
100
AcDbLine
 10
-40.636047363
 20
5.100006104
 30
0.0
 11
-18.195120942
 21
5.100006104
 31
0.0
  0
LINE
  5
9A
330
1D
100
AcDbEntity
  8
3
100
AcDbLine
 10
0.0
 20
5.100006104
 30
0.0
 11
9.598968506
 21
5.100006104
 31
0.0
  0
LINE
  5
9B
330
1D
100
AcDbEntity
  8
SK1
100
AcDbLine
 10
-48.39997077
 20
8.168212881
 30
0.0
 11
-48.39998587
 21
-8.168212861
 31
0.0
  0
LINE
  5
9C
330
1D
100
AcDbEntity
  8
SK2
100
AcDbLine
 10
-14.0
 20
-15.875
 30
0.0
 11
0.0
 21
-15.875
 31
0.0
  0
LINE
  5
9D
330
1D
100
AcDbEntity
  8
SK2
100
AcDbLine
 10
-12.0
 20
-15.875
 30
0.0
 11
-12.45
 21
-12.375
 31
0.0
  0
LINE
  5
9E
330
1D
100
AcDbEntity
  8
SK2
100
AcDbLine
 10
-12.45
 20
-12.375
 30
0.0
 11
-11.55
 21
-12.375
 31
0.0
  0
LINE
  5
9F
330
1D
100
AcDbEntity
  8
SK2
100
AcDbLine
 10
-11.55
 20
-12.375
 30
0.0
 11
-12.0
 21
-15.875
 31
0.0
  0
LINE
  5
A0
330
1D
100
AcDbEntity
  8
SK2
100
AcDbLine
 10
-14.0
 20
15.875
 30
0.0
 11
0.0
 21
15.875
 31
0.0
  0
LINE
  5
A1
330
1D
100
AcDbEntity
  8
SK2
100
AcDbLine
 10
-12.0
 20
15.875
 30
0.0
 11
-11.55
 21
12.375
 31
0.0
  0
LINE
  5
A2
330
1D
100
AcDbEntity
  8
SK2
100
AcDbLine
 10
-11.55
 20
12.375
 30
0.0
 11
-12.45
 21
12.375
 31
0.0
  0
LINE
  5
A3
330
1D
100
AcDbEntity
  8
SK2
100
AcDbLine
 10
-12.45
 20
12.375
 30
0.0
 11
-12.0
 21
15.875
 31
0.0
  0
LINE
  5
A4
330
1D
100
AcDbEntity
  8
SK2
100
AcDbLine
 10
-12.0
 20
-12.375
 30
0.0
 11
-12.0
 21
12.375
 31
0.0
  0
TEXT
  5
A5
330
1D
100
AcDbEntity
  8
SK2
100
AcDbText
 10
-13.5
 20
-1.965469105
 30
0.0
 40
3.5
  1
31.75
 50
90.0
  7
BMG_Text
100
AcDbText
  0
CIRCLE
  5
A6
330
1D
100
AcDbEntity
  8
SK2
100
AcDbCircle
 10
-14.75
 20
-4.215469105
 30
0.0
 40
1.25
  0
LINE
  5
A7
330
1D
100
AcDbEntity
  8
SK2
100
AcDbLine
 10
-13.5
 20
-5.465469105
 30
0.0
 11
-16.0
 21
-2.965469105
 31
0.0
  0
LINE
  5
A8
330
1D
100
AcDbEntity
  8
2
100
AcDbLine
 10
0.0
 20
-38.0
 30
0.0
 11
0.0
 21
-15.875
 31
0.0
  0
LINE
  5
A9
330
1D
100
AcDbEntity
  8
2
100
AcDbLine
 10
0.0
 20
-36.0
 30
0.0
 11
3.5
 21
-35.55
 31
0.0
  0
LINE
  5
AA
330
1D
100
AcDbEntity
  8
2
100
AcDbLine
 10
3.5
 20
-35.55
 30
0.0
 11
3.5
 21
-36.45
 31
0.0
  0
LINE
  5
AB
330
1D
100
AcDbEntity
  8
2
100
AcDbLine
 10
3.5
 20
-36.45
 30
0.0
 11
0.0
 21
-36.0
 31
0.0
  0
LINE
  5
AD
330
1D
100
AcDbEntity
  8
2
100
AcDbLine
 10
30.5
 20
-35.55
 30
0.0
 11
23.5
 21
-36.45
 31
0.0
  0
LINE
  5
AE
330
1D
100
AcDbEntity
  8
2
100
AcDbLine
 10
23.5
 20
-36.45
 30
0.0
 11
23.5
 21
-35.55
 31
0.0
  0
LINE
  5
AF
330
1D
100
AcDbEntity
  8
2
100
AcDbLine
 10
23.5
 20
-35.55
 30
0.0
 11
30.5
 21
-36.45
 31
0.0
  0
LINE
  5
B0
330
1D
100
AcDbEntity
  8
2
100
AcDbLine
 10
3.5
 20
-36.0
 30
0.0
 11
23.5
 21
-36.0
 31
0.0
  0
TEXT
  5
B1
330
1D
100
AcDbEntity
  8
2
100
AcDbText
 10
11.835312198
 20
-34.5
 30
0.0
 40
3.5
  1
27
  7
BMG_Text
100
AcDbText
  0
LINE
  5
B2
330
1D
100
AcDbEntity
  8
1
100
AcDbLine
 10
22.0
 20
22.0
 30
0.0
 11
22.0
 21
-22.0
 31
0.0
  0
LINE
  5
B3
330
1D
100
AcDbEntity
  8
1
100
AcDbLine
 10
22.0
 20
-22.0
 30
0.0
 11
21.0
 21
-23.0
 31
0.0
  0
LINE
  5
B4
330
1D
100
AcDbEntity
  8
1
100
AcDbLine
 10
25.05
 20
-15.35
 30
0.0
 11
25.55
 21
-15.35
 31
0.0
  0
ARC
  5
B5
330
1D
100
AcDbEntity
  8
1
100
AcDbCircle
 10
25.05
 20
-18.35
 30
0.0
 40
3.0
100
AcDbArc
 50
90.0
 51
180.0
  0
LINE
  5
B6
330
1D
100
AcDbEntity
  8
SK4
100
AcDbLine
 10
-8.354592502
 20
0.0
 30
0.0
 11
35.292901773
 21
0.0
 31
0.0
  0
LINE
  5
B7
330
1D
100
AcDbEntity
  8
2
100
AcDbLine
 10
27.0
 20
-38.0
 30
0.0
 11
27.0
 21
-25.0
 31
0.0
  0
LINE
  5
B9
330
1D
100
AcDbEntity
  8
2
100
AcDbLine
 10
30.5
 20
-35.55
 30
0.0
 11
30.5
 21
-36.45
 31
0.0
  0
LINE
  5
BB
330
1D
100
AcDbEntity
  8
2
100
AcDbLine
 10
30.5
 20
-36.0
 30
0.0
 11
58.9543125
 21
-36.0
 31
0.0
  0
TEXT
  5
BC
330
1D
100
AcDbEntity
  8
2
100
AcDbText
 10
68.74861273361464
 20
-34.398651242
 30
0.0
 40
3.5
  1
47
  7
BMG_Text
100
AcDbText
  0
TEXT
  5
BD
330
1D
100
AcDbEntity
  8
2
100
AcDbText
 10
31.566431301
 20
-34.398651242
 30
0.0
 40
3.5
  1
Ausdrehtiefe
  7
BMG_Text
100
AcDbText
  0
TEXT
  5
BE
330
1D
100
AcDbEntity
  8
SK6
100
AcDbText
 10
23.742853552
 20
-20.63616268
 30
0.0
 40
3.5
  1
323.705
  7
BMG_Text
100
AcDbText
  0
ARC
  5
BF
330
1D
100
AcDbEntity
  8
1
100
AcDbCircle
 10
25.05
 20
18.35
 30
0.0
 40
3.0
100
AcDbArc
 50
180.0
 51
270.0
  0
LINE
  5
C0
330
1D
100
AcDbEntity
  8
1
100
AcDbLine
 10
25.05
 20
15.35
 30
0.0
 11
25.55
 21
15.35
 31
0.0
  0
LINE
  5
C1
330
1D
100
AcDbEntity
  8
1
100
AcDbLine
 10
25.55
 20
15.35
 30
0.0
 11
25.7
 21
15.5
 31
0.0
  0
LINE
  5
C2
330
1D
100
AcDbEntity
  8
1
100
AcDbLine
 10
25.7
 20
15.5
 30
0.0
 11
31.797927406
 21
15.5
 31
0.0
  0
LINE
  5
C3
330
1D
100
AcDbEntity
  8
1
100
AcDbLine
 10
31.797927406
 20
15.5
 30
0.0
 11
32.0
 21
15.15
 31
0.0
  0
LINE
  5
C4
330
1D
100
AcDbEntity
  8
1
100
AcDbLine
 10
32.0
 20
15.15
 30
0.0
 11
33.6
 21
15.15
 31
0.0
  0
LINE
  5
C5
330
1D
100
AcDbEntity
  8
1
100
AcDbLine
 10
33.6
 20
15.15
 30
0.0
 11
34.0
 21
14.75
 31
0.0
  0
LINE
  5
C6
330
1D
100
AcDbEntity
  8
1
100
AcDbLine
 10
34.0
 20
14.75
 30
0.0
 11
34.0
 21
-14.75
 31
0.0
  0
LINE
  5
C7
330
1D
100
AcDbEntity
  8
1
100
AcDbLine
 10
34.0
 20
-14.75
 30
0.0
 11
33.6
 21
-15.15
 31
0.0
  0
LINE
  5
C8
330
1D
100
AcDbEntity
  8
1
100
AcDbLine
 10
33.6
 20
-15.15
 30
0.0
 11
32.0
 21
-15.15
 31
0.0
  0
LINE
  5
C9
330
1D
100
AcDbEntity
  8
1
100
AcDbLine
 10
32.0
 20
-15.15
 30
0.0
 11
31.797927406
 21
-15.5
 31
0.0
  0
LINE
  5
CA
330
1D
100
AcDbEntity
  8
1
100
AcDbLine
 10
31.797927406
 20
-15.5
 30
0.0
 11
25.7
 21
-15.5
 31
0.0
  0
LINE
  5
CB
330
1D
100
AcDbEntity
  8
1
100
AcDbLine
 10
25.7
 20
-15.5
 30
0.0
 11
25.55
 21
-15.35
 31
0.0
  0
LINE
  5
CC
330
1D
100
AcDbEntity
  8
3
100
AcDbLine
 10
12.0
 20
-9.25
 30
0.0
 11
9.61843014
 21
-5.125
 31
0.0
  0
LINE
  5
CD
330
1D
100
AcDbEntity
  8
3
100
AcDbLine
 10
9.61843014
 20
-5.125
 30
0.0
 11
9.61843014
 21
5.125
 31
0.0
  0
LINE
  5
CE
330
1D
100
AcDbEntity
  8
3
100
AcDbLine
 10
9.61843014
 20
5.125
 30
0.0
 11
12.0
 21
9.25
 31
0.0
  0
LINE
  5
CF
330
1D
100
AcDbEntity
  8
3
100
AcDbLine
 10
12.0
 20
9.25
 30
0.0
 11
12.0
 21
-9.25
 31
0.0
  0
LINE
  5
D0
330
1D
100
AcDbEntity
  8
3
100
AcDbLine
 10
12.0
 20
-9.25
 30
0.0
 11
13.566987298
 21
-9.25
 31
0.0
  0
LINE
  5
D1
330
1D
100
AcDbEntity
  8
3
100
AcDbLine
 10
13.566987298
 20
-9.25
 30
0.0
 11
14.0
 21
-9.0
 31
0.0
  0
LINE
  5
D2
330
1D
100
AcDbEntity
  8
3
100
AcDbLine
 10
14.0
 20
-9.0
 30
0.0
 11
14.0
 21
9.0
 31
0.0
  0
LINE
  5
D4
330
1D
100
AcDbEntity
  8
3
100
AcDbLine
 10
14.0
 20
9.0
 30
0.0
 11
13.566987298
 21
9.25
 31
0.0
  0
LINE
  5
D5
330
1D
100
AcDbEntity
  8
3
100
AcDbLine
 10
13.566987298
 20
9.25
 30
0.0
 11
13.566987298
 21
-9.25
 31
0.0
  0
LINE
  5
D6
330
1D
100
AcDbEntity
  8
1
100
AcDbLine
 10
25.7
 20
-2.677353357
 30
0.0
 11
25.7
 21
-15.5
 31
0.0
  0
LINE
  5
D7
330
1D
100
AcDbEntity
  8
1
100
AcDbLine
 10
25.7
 20
15.5
 30
0.0
 11
25.7
 21
2.677353357
 31
0.0
  0
LINE
  5
D8
330
1D
100
AcDbEntity
  8
1
100
AcDbLine
 10
31.797927406
 20
-15.5
 30
0.0
 11
31.797927406
 21
15.5
 31
0.0
  0
LINE
  5
DA
330
1D
100
AcDbEntity
  8
1
100
AcDbLine
 10
32.0
 20
15.15
 30
0.0
 11
32.0
 21
-15.15
 31
0.0
  0
LINE
  5
DB
330
1D
100
AcDbEntity
  8
1
100
AcDbLine
 10
33.6
 20
15.15
 30
0.0
 11
33.6
 21
-15.15
 31
0.0
  0
LINE
  5
DC
330
1D
100
AcDbEntity
  8
3
100
AcDbLine
 10
13.566987298
 20
9.25
 30
0.0
 11
12.0
 21
9.25
 31
0.0
  0
LINE
  5
DD
330
1D
100
AcDbEntity
  8
3
100
AcDbLine
 10
34.0
 20
9.0
 30
0.0
 11
14.0
 21
9.0
 31
0.0
  0
LINE
  5
DE
330
1D
100
AcDbEntity
  8
3
100
AcDbLine
 10
14.0
 20
-9.0
 30
0.0
 11
34.0
 21
-9.0
 31
0.0
  0
CIRCLE
  5
DF
330
1D
100
AcDbEntity
  8
1
100
AcDbCircle
 10
25.95
 20
0.0
 30
0.0
 40
2.689
  0
LINE
  5
E0
330
1D
100
AcDbEntity
  8
1
100
AcDbLine
 10
27.508845727
 20
0.0
 30
0.0
 11
26.729422863
 21
1.35
 31
0.0
  0
LINE
  5
E1
330
1D
100
AcDbEntity
  8
1
100
AcDbLine
 10
26.729422863
 20
1.35
 30
0.0
 11
25.170577137
 21
1.35
 31
0.0
  0
LINE
  5
E2
330
1D
100
AcDbEntity
  8
1
100
AcDbLine
 10
25.170577137
 20
1.35
 30
0.0
 11
24.391154273
 21
0.0
 31
0.0
  0
LINE
  5
E3
330
1D
100
AcDbEntity
  8
1
100
AcDbLine
 10
24.391154273
 20
0.0
 30
0.0
 11
25.170577137
 21
-1.35
 31
0.0
  0
LINE
  5
E4
330
1D
100
AcDbEntity
  8
1
100
AcDbLine
 10
25.170577137
 20
-1.35
 30
0.0
 11
26.729422863
 21
-1.35
 31
0.0
  0
LINE
  5
E5
330
1D
100
AcDbEntity
  8
1
100
AcDbLine
 10
26.729422863
 20
-1.35
 30
0.0
 11
27.508845727
 21
0.0
 31
0.0
  0
LINE
  5
E6
330
1D
100
AcDbEntity
  8
SK4
100
AcDbLine
 10
25.95
 20
-3.431835095
 30
0.0
 11
25.95
 21
3.601045306
 31
0.0
  0
LINE
  5
E7
330
1D
100
AcDbEntity
  8
2
100
AcDbLine
 10
0.0
 20
34.216398239
 30
0.0
 11
0.0
 21
15.875
 31
0.0
  0
LINE
  5
E8
330
1D
100
AcDbEntity
  8
2
100
AcDbLine
 10
0.0
 20
32.216398239
 30
0.0
 11
3.5
 21
32.666398239
 31
0.0
  0
LINE
  5
E9
330
1D
100
AcDbEntity
  8
2
100
AcDbLine
 10
3.5
 20
32.666398239
 30
0.0
 11
3.5
 21
31.766398239
 31
0.0
  0
LINE
  5
EA
330
1D
100
AcDbEntity
  8
2
100
AcDbLine
 10
3.5
 20
31.766398239
 30
0.0
 11
0.0
 21
32.216398239
 31
0.0
  0
LINE
  5
EB
330
1D
100
AcDbEntity
  8
2
100
AcDbLine
 10
34.0
 20
34.216398239
 30
0.0
 11
34.0
 21
14.75
 31
0.0
  0
LINE
  5
EC
330
1D
100
AcDbEntity
  8
2
100
AcDbLine
 10
34.0
 20
32.216398239
 30
0.0
 11
30.5
 21
31.766398239
 31
0.0
  0
LINE
  5
ED
330
1D
100
AcDbEntity
  8
2
100
AcDbLine
 10
30.5
 20
31.766398239
 30
0.0
 11
30.5
 21
32.666398239
 31
0.0
  0
LINE
  5
EE
330
1D
100
AcDbEntity
  8
2
100
AcDbLine
 10
30.5
 20
32.666398239
 30
0.0
 11
34.0
 21
32.216398239
 31
0.0
  0
LINE
  5
EF
330
1D
100
AcDbEntity
  8
2
100
AcDbLine
 10
3.5
 20
32.216398239
 30
0.0
 11
30.5
 21
32.216398239
 31
0.0
  0
TEXT
  5
F0
330
1D
100
AcDbEntity
  8
2
100
AcDbText
 10
15.52671837
 20
33.716398239
 30
0.0
 40
3.5
  1
34
  7
BMG_Text
100
AcDbText
  0
LINE
  5
F1
330
1D
100
AcDbEntity
  8
SK2
100
AcDbLine
 10
46.189130783
 20
-9.0
 30
0.0
 11
34.0
 21
-9.0
 31
0.0
  0
LINE
  5
F2
330
1D
100
AcDbEntity
  8
SK2
100
AcDbLine
 10
44.189130783
 20
-9.0
 30
0.0
 11
43.739130783
 21
-5.5
 31
0.0
  0
LINE
  5
F3
330
1D
100
AcDbEntity
  8
SK2
100
AcDbLine
 10
43.739130783
 20
-5.5
 30
0.0
 11
44.639130783
 21
-5.5
 31
0.0
  0
LINE
  5
F4
330
1D
100
AcDbEntity
  8
SK2
100
AcDbLine
 10
44.639130783
 20
-5.5
 30
0.0
 11
44.189130783
 21
-9.0
 31
0.0
  0
LINE
  5
F5
330
1D
100
AcDbEntity
  8
SK2
100
AcDbLine
 10
46.189130783
 20
9.0
 30
0.0
 11
34.0
 21
9.0
 31
0.0
  0
LINE
  5
F6
330
1D
100
AcDbEntity
  8
SK2
100
AcDbLine
 10
44.189130783
 20
9.0
 30
0.0
 11
44.639130783
 21
5.5
 31
0.0
  0
LINE
  5
F7
330
1D
100
AcDbEntity
  8
SK2
100
AcDbLine
 10
44.639130783
 20
5.5
 30
0.0
 11
43.739130783
 21
5.5
 31
0.0
  0
LINE
  5
F8
330
1D
100
AcDbEntity
  8
SK2
100
AcDbLine
 10
43.739130783
 20
5.5
 30
0.0
 11
44.189130783
 21
9.0
 31
0.0
  0
LINE
  5
F9
330
1D
100
AcDbEntity
  8
SK2
100
AcDbLine
 10
44.189130783
 20
-5.5
 30
0.0
 11
44.189130783
 21
5.5
 31
0.0
  0
TEXT
  5
FA
330
1D
100
AcDbEntity
  8
SK2
100
AcDbText
 10
42.689130783
 20
0.468124799
 30
0.0
 40
3.5
  1
18
 50
90.0
  7
BMG_Text
100
AcDbText
  0
CIRCLE
  5
FB
330
1D
100
AcDbEntity
  8
SK2
100
AcDbCircle
 10
41.439130783
 20
-1.781875201
 30
0.0
 40
1.25
  0
LINE
  5
FC
330
1D
100
AcDbEntity
  8
SK2
100
AcDbLine
 10
42.689130783
 20
-3.031875201
 30
0.0
 11
40.189130783
 21
-0.531875201
 31
0.0
  0
LINE
  5
FD
330
1D
100
AcDbEntity
  8
SK2
100
AcDbLine
 10
54.752906349
 20
-15.5
 30
0.0
 11
31.797927406
 21
-15.5
 31
0.0
  0
LINE
  5
FE
330
1D
100
AcDbEntity
  8
SK2
100
AcDbLine
 10
52.752906349
 20
-15.5
 30
0.0
 11
52.302906349
 21
-12.0
 31
0.0
  0
LINE
  5
FF
330
1D
100
AcDbEntity
  8
SK2
100
AcDbLine
 10
52.302906349
 20
-12.0
 30
0.0
 11
53.202906349
 21
-12.0
 31
0.0
  0
LINE
  5
100
330
1D
100
AcDbEntity
  8
SK2
100
AcDbLine
 10
53.202906349
 20
-12.0
 30
0.0
 11
52.752906349
 21
-15.5
 31
0.0
  0
LINE
  5
101
330
1D
100
AcDbEntity
  8
SK2
100
AcDbLine
 10
54.752906349
 20
15.5
 30
0.0
 11
31.797927406
 21
15.5
 31
0.0
  0
LINE
  5
102
330
1D
100
AcDbEntity
  8
SK2
100
AcDbLine
 10
52.752906349
 20
15.5
 30
0.0
 11
53.202906349
 21
12.0
 31
0.0
  0
LINE
  5
103
330
1D
100
AcDbEntity
  8
SK2
100
AcDbLine
 10
53.202906349
 20
12.0
 30
0.0
 11
52.302906349
 21
12.0
 31
0.0
  0
LINE
  5
104
330
1D
100
AcDbEntity
  8
SK2
100
AcDbLine
 10
52.302906349
 20
12.0
 30
0.0
 11
52.752906349
 21
15.5
 31
0.0
  0
LINE
  5
105
330
1D
100
AcDbEntity
  8
SK2
100
AcDbLine
 10
52.752906349
 20
-12.0
 30
0.0
 11
52.752906349
 21
12.0
 31
0.0
  0
TEXT
  5
106
330
1D
100
AcDbEntity
  8
SK2
100
AcDbText
 10
51.252906349
 20
0.659530904
 30
0.0
 40
3.5
  1
31
 50
90.0
  7
BMG_Text
100
AcDbText
  0
CIRCLE
  5
107
330
1D
100
AcDbEntity
  8
SK2
100
AcDbCircle
 10
50.002906349
 20
-1.590469096
 30
0.0
 40
1.25
  0
LINE
  5
108
330
1D
100
AcDbEntity
  8
SK2
100
AcDbLine
 10
51.252906349
 20
-2.840469096
 30
0.0
 11
48.752906349
 21
-0.340469096
 31
0.0
  0
LINE
  5
109
330
1D
100
AcDbEntity
  8
SK4
100
AcDbLine
 10
11.531133045
 20
5.610680565
 30
0.0
 11
1.874820198
 21
18.931373345
 31
0.0
  0
LINE
  5
10A
330
1D
100
AcDbEntity
  8
3
100
AcDbLine
 10
11.279601882
 20
8.002233857
 30
0.0
 11
2.0
 21
20.803261303
 31
0.0
  0
LINE
  5
10B
330
1D
100
AcDbEntity
  8
3
100
AcDbLine
 10
9.965412186
 20
5.725990534
 30
0.0
 11
2.0
 21
16.71411926
 31
0.0
  0
LINE
  5
10C
330
1D
100
AcDbEntity
  8
1
100
AcDbLine
 10
21.0
 20
23.0
 30
0.0
 11
21.0
 21
-23.0
 31
0.0
  0
ARC
  5
10E
330
1D
100
AcDbEntity
  8
SK6
100
AcDbCircle
 10
-10.580177201
 20
-38.195615061
 30
0.0
 40
2.51999998
100
AcDbArc
 50
180.0
 51
217.38319397
  0
ARC
  5
10F
330
1D
100
AcDbEntity
  8
SK6
100
AcDbCircle
 10
-13.190185441
 20
-38.195615061
 30
0.0
 40
2.51999998
100
AcDbArc
 50
180.0
 51
217.38319397
  0
LINE
  5
110
330
1D
100
AcDbEntity
  8
SK6
100
AcDbLine
 10
-12.582572831
 20
-39.725621461
 30
0.0
 11
-15.192569621
 21
-39.725621461
 31
0.0
  0
LINE
  5
111
330
1D
100
AcDbEntity
  8
SK6
100
AcDbLine
 10
-15.710174451
 20
-33.965626961
 30
0.0
 11
-15.710174451
 21
-38.195615061
 31
0.0
  0
ARC
  5
112
330
1D
100
AcDbEntity
  8
SK6
100
AcDbCircle
 10
-15.620155221
 20
-34.145619631
 30
0.0
 40
2.51999998
100
AcDbArc
 50
358.70883179
 51
93.06652832
  0
ARC
  5
113
330
1D
100
AcDbEntity
  8
SK6
100
AcDbCircle
 10
-15.890167131
 20
-29.105618721
 30
0.0
 40
2.51999998
100
AcDbArc
 50
273.06652832
 51
0.0
  0
ARC
  5
114
330
1D
100
AcDbEntity
  8
SK6
100
AcDbCircle
 10
-15.890167131
 20
-26.495625741
 30
0.0
 40
2.51999998
100
AcDbArc
 50
0.0
 51
90.00000763
  0
LINE
  5
115
330
1D
100
AcDbEntity
  8
SK6
100
AcDbLine
 10
-13.370155221
 20
-26.495625741
 30
0.0
 11
-13.370155221
 21
-29.105626351
 31
0.0
  0
LINE
  5
116
330
1D
100
AcDbEntity
  8
SK6
100
AcDbLine
 10
-15.620155221
 20
-26.945622681
 30
0.0
 11
-15.620155221
 21
-29.825619941
 31
0.0
  0
LINE
  5
117
330
1D
100
AcDbEntity
  8
SK6
100
AcDbLine
 10
-13.100807081
 20
-34.202405221
 30
0.0
 11
-13.100177661
 21
-38.196019411
 31
0.0
  0
POINT
  5
128
330
1D
100
AcDbEntity
  8
200
100
AcDbPoint
 10
0.0
 20
0.0
 30
0.0
  0
ARC
  5
1CA
330
1D
100
AcDbEntity
  8
NOCUT
100
AcDbCircle
 10
1.600021361999998
 20
16.274993896
 30
0.0
 40
0.4000015230000017
100
AcDbArc
 50
270.0000000000002
 51
0.0
  0
ARC
  5
1CB
330
1D
100
AcDbEntity
  8
NOCUT
100
AcDbCircle
 10
11.89998311308581
 20
19.29997700608595
 30
0.0
 40
0.2999770062797512
100
AcDbArc
 50
179.9979396932557
 51
270.0020595427694
  0
ARC
  5
1CC
330
1D
100
AcDbEntity
  8
NOCUT
100
AcDbCircle
 10
15.300033569
 20
19.299987793
 30
0.0
 40
0.3000030480000013
100
AcDbArc
 50
270.0
 51
0.0
  0
ARC
  5
1CD
330
1D
100
AcDbEntity
  8
NOCUT
100
AcDbCircle
 10
25.05
 20
18.35
 30
0.0
 40
3.000000000000005
100
AcDbArc
 50
180.0
 51
269.9999999999999
  0
LINE
  5
1CE
330
1D
100
AcDbEntity
  8
NOCUT
100
AcDbLine
 10
0.0
 20
15.875
 30
0.0
 11
1.600006104
 21
15.875
 31
0.0
  0
LINE
  5
1CF
330
1D
100
AcDbEntity
  8
NOCUT
100
AcDbLine
 10
2.000022885
 20
16.274993896
 30
0.0
 11
2.000022885
 21
22.02096624188499
 31
0.0
  0
LINE
  5
1D0
330
1D
100
AcDbEntity
  8
NOCUT
100
AcDbLine
 10
2.000022885
 20
22.02096624188499
 30
0.0
 11
3.0
 21
23.0
 31
0.0
  0
LINE
  5
1D1
330
1D
100
AcDbEntity
  8
NOCUT
100
AcDbLine
 10
3.0
 20
23.0
 30
0.0
 11
9.598968506
 21
23.0
 31
0.0
  0
LINE
  5
1D2
330
1D
100
AcDbEntity
  8
NOCUT
100
AcDbLine
 10
9.598968506
 20
23.0
 30
0.0
 11
11.600006104
 21
19.534088135
 31
0.0
  0
LINE
  5
1D3
330
1D
100
AcDbEntity
  8
NOCUT
100
AcDbLine
 10
11.600006104
 20
19.534088135
 30
0.0
 11
11.600006104
 21
19.24376725277034
 31
0.0
  0
LINE
  5
1D4
330
1D
100
AcDbEntity
  8
NOCUT
100
AcDbLine
 10
11.900009155
 20
18.999984745
 30
0.0
 11
15.300033569
 21
18.999984745
 31
0.0
  0
LINE
  5
1D5
330
1D
100
AcDbEntity
  8
NOCUT
100
AcDbLine
 10
15.600036617
 20
19.299987793
 30
0.0
 11
15.600036617
 21
19.52014711634074
 31
0.0
  0
LINE
  5
1D6
330
1D
100
AcDbEntity
  8
NOCUT
100
AcDbLine
 10
15.600036617
 20
19.52014711634074
 30
0.0
 11
17.601043701
 21
23.0
 31
0.0
  0
LINE
  5
1D7
330
1D
100
AcDbEntity
  8
NOCUT
100
AcDbLine
 10
17.601043701
 20
23.0
 30
0.0
 11
21.0
 21
23.0
 31
0.0
  0
LINE
  5
1D8
330
1D
100
AcDbEntity
  8
NOCUT
100
AcDbLine
 10
21.0
 20
23.0
 30
0.0
 11
22.0
 21
22.0
 31
0.0
  0
LINE
  5
1D9
330
1D
100
AcDbEntity
  8
NOCUT
100
AcDbLine
 10
22.0
 20
22.0
 30
0.0
 11
22.05027831481154
 21
18.3091366740206
 31
0.0
  0
LINE
  5
1DA
330
1D
100
AcDbEntity
  8
NOCUT
100
AcDbLine
 10
25.05
 20
15.35
 30
0.0
 11
25.55
 21
15.35
 31
0.0
  0
LINE
  5
1DB
330
1D
100
AcDbEntity
  8
NOCUT
100
AcDbLine
 10
25.55
 20
15.35
 30
0.0
 11
25.7
 21
15.5
 31
0.0
  0
LINE
  5
1DC
330
1D
100
AcDbEntity
  8
NOCUT
100
AcDbLine
 10
25.7
 20
15.5
 30
0.0
 11
31.797927406
 21
15.5
 31
0.0
  0
LINE
  5
1DD
330
1D
100
AcDbEntity
  8
NOCUT
100
AcDbLine
 10
31.797927406
 20
15.5
 30
0.0
 11
32.0
 21
15.15
 31
0.0
  0
LINE
  5
1DE
330
1D
100
AcDbEntity
  8
NOCUT
100
AcDbLine
 10
32.0
 20
15.15
 30
0.0
 11
33.6
 21
15.15
 31
0.0
  0
LINE
  5
1DF
330
1D
100
AcDbEntity
  8
NOCUT
100
AcDbLine
 10
33.6
 20
15.15
 30
0.0
 11
34.0
 21
14.75
 31
0.0
  0
LINE
  5
1E0
330
1D
100
AcDbEntity
  8
NOCUT
100
AcDbLine
 10
34.0
 20
14.75
 30
0.0
 11
34.0
 21
0.0
 31
0.0
  0
LINE
  5
1E1
330
1D
100
AcDbEntity
  8
NOCUT
100
AcDbLine
 10
34.0
 20
0.0
 30
0.0
 11
0.0
 21
0.0
 31
0.0
  0
LWPOLYLINE
  5
1F5
330
1D
100
AcDbEntity
  8
INFTOTAL
100
AcDbPolyline
 90
        4
 70
     1
 43
0.0
 10
-86.06385041508165
 20
55.27820274895326
 10
-86.06385041508165
 20
-44.13524424658041
 10
79.30842278972574
 20
-44.13524424658041
 10
79.30842278972574
 20
55.27820274895326
  0
LINE
  5
244
330
1D
100
AcDbEntity
  8
1
100
AcDbLine
 10
0.0
 20
15.875
 30
0.0
 11
0.0
 21
-15.875
 31
0.0
  0
LINE
  5
245
330
1D
100
AcDbEntity
  8
4
100
AcDbLine
 10
11.531133045
 20
-5.610680565
 30
0.0
 11
1.874820197999995
 21
-18.931373345
 31
0.0
  0
LINE
  5
246
330
1D
100
AcDbEntity
  8
4
100
AcDbLine
 10
25.95
 20
-3.431835095
 30
0.0
 11
25.95
 21
3.601045306
 31
0.0
  0
LINE
  5
247
330
1D
100
AcDbEntity
  8
4
100
AcDbLine
 10
11.531133045
 20
5.610680564999999
 30
0.0
 11
1.874820197999995
 21
18.931373345
 31
0.0
  0
LINE
  5
253
330
1D
100
AcDbEntity
  8
NOCUT
100
AcDbLine
 10
0.0
 20
15.875
 30
0.0
 11
0.0
 21
0.0
 31
0.0
  0
LINE
  5
264
330
1D
100
AcDbEntity
  8
SK3
100
AcDbLine
 10
-10.817475714
 20
5.100006104
 30
0.0
 11
0.0
 21
5.100006104
 31
0.0
  0
LINE
  5
265
330
1D
100
AcDbEntity
  8
SK3
100
AcDbLine
 10
-10.817475714
 20
-5.100006104
 30
0.0
 11
0.0
 21
-5.100006104000002
 31
0.0
  0
ENDSEC
  0
SECTION
  2
OBJECTS
  0
DICTIONARY
  5
C
330
0
100
AcDbDictionary
281
     1
  3
ACAD_COLOR
350
20D
  3
ACAD_DETAILVIEWSTYLE
350
1FB
  3
ACAD_GROUP
350
D
  3
ACAD_LAYOUT
350
1A
  3
ACAD_MATERIAL
350
166
  3
ACAD_MLEADERSTYLE
350
173
  3
ACAD_MLINESTYLE
350
17
  3
ACAD_PLOTSETTINGS
350
19
  3
ACAD_PLOTSTYLENAME
350
E
  3
ACAD_SCALELIST
350
12F
  3
ACAD_SECTIONVIEWSTYLE
350
1FC
  3
ACAD_TABLESTYLE
350
1BC
  3
ACAD_VISUALSTYLE
350
155
  3
ACDB_RECOMPOSE_DATA
350
26A
  3
AcDbVariableDictionary
350
171
  3
APPDATA
350
1BF
  0
SUN
  5
1FD
330
129
100
AcDbSun
 90
        1
290
     0
 63
     7
421
 16777215
 40
1.0
291
     1
 91
  2455826
 92
 54000000
292
     0
 70
     2
 71
   256
280
     1
  0
DICTIONARY
  5
1C0
330
2
100
AcDbDictionary
280
     1
281
     1
  3
ACAD_LAYERSTATES
360
1C1
  0
DICTIONARY
  5
20D
102
{ACAD_REACTORS
330
C
102
}
330
C
100
AcDbDictionary
281
     1
  0
DICTIONARY
  5
1FB
102
{ACAD_REACTORS
330
C
102
}
330
C
100
AcDbDictionary
281
     1
  0
DICTIONARY
  5
D
102
{ACAD_REACTORS
330
C
102
}
330
C
100
AcDbDictionary
281
     1
  0
DICTIONARY
  5
1A
102
{ACAD_REACTORS
330
C
102
}
330
C
100
AcDbDictionary
281
     1
  3
Layout1
350
1C
  3
Model
350
1E
  0
DICTIONARY
  5
166
102
{ACAD_REACTORS
330
C
102
}
330
C
100
AcDbDictionary
281
     1
  3
ByBlock
350
168
  3
ByLayer
350
167
  3
Global
350
169
  0
DICTIONARY
  5
173
102
{ACAD_REACTORS
330
C
102
}
330
C
100
AcDbDictionary
281
     1
  3
Standard
350
1BE
  0
DICTIONARY
  5
17
102
{ACAD_REACTORS
330
C
102
}
330
C
100
AcDbDictionary
281
     1
  3
Standard
350
18
  0
DICTIONARY
  5
19
102
{ACAD_REACTORS
330
C
102
}
330
C
100
AcDbDictionary
281
     1
  0
ACDBDICTIONARYWDFLT
  5
E
102
{ACAD_REACTORS
330
C
102
}
330
C
100
AcDbDictionary
281
     1
  3
Normal
350
F
100
AcDbDictionaryWithDefault
340
F
  0
DICTIONARY
  5
12F
102
{ACAD_REACTORS
330
C
102
}
330
C
100
AcDbDictionary
281
     1
  3
A0
350
130
  3
A1
350
131
  3
A2
350
132
  3
A3
350
133
  3
A4
350
134
  3
A5
350
135
  3
A6
350
136
  3
A7
350
137
  3
A8
350
138
  3
A9
350
139
  3
B0
350
13A
  3
B1
350
13B
  3
B2
350
13C
  3
B3
350
13D
  3
B4
350
13E
  3
B5
350
13F
  3
B6
350
140
  3
B7
350
141
  3
B8
350
142
  3
B9
350
143
  3
C0
350
144
  3
C1
350
145
  3
C2
350
146
  3
C3
350
147
  3
C4
350
148
  3
C5
350
149
  3
C6
350
14A
  3
C7
350
14B
  3
C8
350
14C
  3
C9
350
14D
  3
D0
350
14E
  3
D1
350
14F
  3
D2
350
150
  0
DICTIONARY
  5
1FC
102
{ACAD_REACTORS
330
C
102
}
330
C
100
AcDbDictionary
281
     1
  0
DICTIONARY
  5
1BC
102
{ACAD_REACTORS
330
C
102
}
330
C
100
AcDbDictionary
281
     1
  3
Standard
350
1BD
  0
DICTIONARY
  5
155
102
{ACAD_REACTORS
330
C
102
}
330
C
100
AcDbDictionary
281
     1
  3
2dWireframe
350
15A
  3
3D Hidden
350
15C
  3
3dWireframe
350
15B
  3
Basic
350
15D
  3
Brighten
350
161
  3
ColorChange
350
165
  3
Conceptual
350
15F
  3
Dim
350
160
  3
EdgeColorOff
350
1B6
  3
Facepattern
350
164
  3
Flat
350
156
  3
FlatWithEdges
350
157
  3
Gouraud
350
158
  3
GouraudWithEdges
350
159
  3
Hidden
350
1B3
  3
JitterOff
350
1B4
  3
Linepattern
350
163
  3
OverhangOff
350
1B5
  3
Realistic
350
15E
  3
Shaded
350
1BB
  3
Shaded with edges
350
1BA
  3
Shades of Gray
350
1B7
  3
Sketchy
350
1B8
  3
Thicken
350
162
  3
Wireframe
350
1B2
  3
X-Ray
350
1B9
  0
XRECORD
  5
26A
102
{ACAD_REACTORS
330
C
102
}
330
C
100
AcDbXrecord
280
     1
 90
        1
330
1BD
  0
DICTIONARY
  5
171
102
{ACAD_REACTORS
330
C
102
}
330
C
100
AcDbDictionary
281
     1
  3
CANNOSCALE
350
1F8
  3
CMLEADERSTYLE
350
1FA
  3
CTABLESTYLE
350
1F9
  3
DIMASSOC
350
175
  3
HIDETEXT
350
176
  3
MSLTSCALE
350
174
  0
DICTIONARY
  5
1BF
102
{ACAD_REACTORS
330
C
102
}
330
C
100
AcDbDictionary
281
     1
  0
DICTIONARY
  5
1C1
102
{ACAD_REACTORS
330
1C0
102
}
330
1C0
100
AcDbDictionary
281
     1
  0
LAYOUT
  5
1C
102
{ACAD_REACTORS
330
1A
102
}
330
1A
100
AcDbPlotSettings
  1

  2
none_device
  4

  6

 40
0.0
 41
0.0
 42
0.0
 43
0.0
 44
0.0
 45
0.0
 46
0.0
 47
0.0
 48
0.0
 49
0.0
140
0.0
141
0.0
142
1.0
143
1.0
 70
   688
 72
     0
 73
     0
 74
     5
  7

 75
    16
 76
     0
 77
     2
 78
   300
147
1.0
148
0.0
149
0.0
100
AcDbLayout
  1
Layout1
 70
     1
 71
     1
 10
0.0
 20
0.0
 11
12.0
 21
9.0
 12
0.0
 22
0.0
 32
0.0
 14
1.000000000000000E+20
 24
1.000000000000000E+20
 34
1.000000000000000E+20
 15
-1.000000000000000E+20
 25
-1.000000000000000E+20
 35
-1.000000000000000E+20
146
0.0
 13
0.0
 23
0.0
 33
0.0
 16
1.0
 26
0.0
 36
0.0
 17
0.0
 27
1.0
 37
0.0
 76
     0
330
1B
  0
LAYOUT
  5
1E
102
{ACAD_REACTORS
330
1A
102
}
330
1A
100
AcDbPlotSettings
  1

  2
none_device
  4

  6

 40
0.0
 41
0.0
 42
0.0
 43
0.0
 44
0.0
 45
0.0
 46
0.0
 47
0.0
 48
0.0
 49
0.0
140
0.0
141
0.0
142
1.0
143
1.0
 70
  1712
 72
     0
 73
     0
 74
     0
  7

 75
     0
 76
     0
 77
     2
 78
   300
147
1.0
148
0.0
149
0.0
100
AcDbLayout
  1
Model
 70
     1
 71
     0
 10
0.0
 20
0.0
 11
12.0
 21
9.0
 12
0.0
 22
0.0
 32
0.0
 14
-86.06385041508165
 24
-44.13524424658041
 34
0.0
 15
79.30842278972574
 25
55.27820274895326
 35
0.0
146
0.0
 13
0.0
 23
0.0
 33
0.0
 16
1.0
 26
0.0
 36
0.0
 17
0.0
 27
1.0
 37
0.0
 76
     0
330
1D
331
129
  0
MATERIAL
  5
168
102
{ACAD_REACTORS
330
166
102
}
330
166
100
AcDbMaterial
  1
ByBlock
 72
     1
 94
      127
  0
MATERIAL
  5
167
102
{ACAD_REACTORS
330
166
102
}
330
166
100
AcDbMaterial
  1
ByLayer
 72
     1
 94
      127
  0
MATERIAL
  5
169
102
{ACAD_REACTORS
330
166
102
}
330
166
100
AcDbMaterial
  1
Global
 72
     1
 94
      127
  0
MLEADERSTYLE
  5
1BE
102
{ACAD_REACTORS
330
173
102
}
330
173
100
AcDbMLeaderStyle
179
     2
170
     2
171
     1
172
     0
 90
        2
 40
0.0
 41
0.0
173
     1
 91
-1056964608
340
14
 92
       -2
290
     1
 42
0.09
291
     1
 43
0.36
  3
Standard
341
0
 44
0.18
300

342
11
174
     1
178
     1
175
     1
176
     0
 93
-1056964608
 45
0.18
292
     0
297
     0
 46
0.18
343
0
 94
-1056964608
 47
1.0
 49
1.0
140
1.0
293
     1
141
0.0
294
     1
177
     0
142
1.0
295
     0
296
     0
143
0.125
271
     0
272
     9
273
     9
298
     0
  0
MLINESTYLE
  5
18
102
{ACAD_REACTORS
330
17
102
}
330
17
100
AcDbMlineStyle
  2
Standard
 70
     0
  3

 62
   256
 51
90.0
 52
90.0
 71
     2
 49
0.5
 62
   256
  6
BYLAYER
 49
-0.5
 62
   256
  6
BYLAYER
  0
ACDBPLACEHOLDER
  5
F
102
{ACAD_REACTORS
330
E
102
}
330
E
  0
SCALE
  5
130
102
{ACAD_REACTORS
330
12F
102
}
330
12F
100
AcDbScale
 70
     0
300
1:1
140
1.0
141
1.0
290
     1
  0
SCALE
  5
131
102
{ACAD_REACTORS
330
12F
102
}
330
12F
100
AcDbScale
 70
     0
300
1:2
140
1.0
141
2.0
290
     0
  0
SCALE
  5
132
102
{ACAD_REACTORS
330
12F
102
}
330
12F
100
AcDbScale
 70
     0
300
1:4
140
1.0
141
4.0
290
     0
  0
SCALE
  5
133
102
{ACAD_REACTORS
330
12F
102
}
330
12F
100
AcDbScale
 70
     0
300
1:5
140
1.0
141
5.0
290
     0
  0
SCALE
  5
134
102
{ACAD_REACTORS
330
12F
102
}
330
12F
100
AcDbScale
 70
     0
300
1:8
140
1.0
141
8.0
290
     0
  0
SCALE
  5
135
102
{ACAD_REACTORS
330
12F
102
}
330
12F
100
AcDbScale
 70
     0
300
1:10
140
1.0
141
10.0
290
     0
  0
SCALE
  5
136
102
{ACAD_REACTORS
330
12F
102
}
330
12F
100
AcDbScale
 70
     0
300
1:16
140
1.0
141
16.0
290
     0
  0
SCALE
  5
137
102
{ACAD_REACTORS
330
12F
102
}
330
12F
100
AcDbScale
 70
     0
300
1:20
140
1.0
141
20.0
290
     0
  0
SCALE
  5
138
102
{ACAD_REACTORS
330
12F
102
}
330
12F
100
AcDbScale
 70
     0
300
1:30
140
1.0
141
30.0
290
     0
  0
SCALE
  5
139
102
{ACAD_REACTORS
330
12F
102
}
330
12F
100
AcDbScale
 70
     0
300
1:40
140
1.0
141
40.0
290
     0
  0
SCALE
  5
13A
102
{ACAD_REACTORS
330
12F
102
}
330
12F
100
AcDbScale
 70
     0
300
1:50
140
1.0
141
50.0
290
     0
  0
SCALE
  5
13B
102
{ACAD_REACTORS
330
12F
102
}
330
12F
100
AcDbScale
 70
     0
300
1:100
140
1.0
141
100.0
290
     0
  0
SCALE
  5
13C
102
{ACAD_REACTORS
330
12F
102
}
330
12F
100
AcDbScale
 70
     0
300
2:1
140
2.0
141
1.0
290
     0
  0
SCALE
  5
13D
102
{ACAD_REACTORS
330
12F
102
}
330
12F
100
AcDbScale
 70
     0
300
4:1
140
4.0
141
1.0
290
     0
  0
SCALE
  5
13E
102
{ACAD_REACTORS
330
12F
102
}
330
12F
100
AcDbScale
 70
     0
300
8:1
140
8.0
141
1.0
290
     0
  0
SCALE
  5
13F
102
{ACAD_REACTORS
330
12F
102
}
330
12F
100
AcDbScale
 70
     0
300
10:1
140
10.0
141
1.0
290
     0
  0
SCALE
  5
140
102
{ACAD_REACTORS
330
12F
102
}
330
12F
100
AcDbScale
 70
     0
300
100:1
140
100.0
141
1.0
290
     0
  0
SCALE
  5
141
102
{ACAD_REACTORS
330
12F
102
}
330
12F
100
AcDbScale
 70
     0
300
1/128" = 1'-0"
140
0.0078125
141
12.0
290
     0
  0
SCALE
  5
142
102
{ACAD_REACTORS
330
12F
102
}
330
12F
100
AcDbScale
 70
     0
300
1/64" = 1'-0"
140
0.015625
141
12.0
290
     0
  0
SCALE
  5
143
102
{ACAD_REACTORS
330
12F
102
}
330
12F
100
AcDbScale
 70
     0
300
1/32" = 1'-0"
140
0.03125
141
12.0
290
     0
  0
SCALE
  5
144
102
{ACAD_REACTORS
330
12F
102
}
330
12F
100
AcDbScale
 70
     0
300
1/16" = 1'-0"
140
0.0625
141
12.0
290
     0
  0
SCALE
  5
145
102
{ACAD_REACTORS
330
12F
102
}
330
12F
100
AcDbScale
 70
     0
300
3/32" = 1'-0"
140
0.09375
141
12.0
290
     0
  0
SCALE
  5
146
102
{ACAD_REACTORS
330
12F
102
}
330
12F
100
AcDbScale
 70
     0
300
1/8" = 1'-0"
140
0.125
141
12.0
290
     0
  0
SCALE
  5
147
102
{ACAD_REACTORS
330
12F
102
}
330
12F
100
AcDbScale
 70
     0
300
3/16" = 1'-0"
140
0.1875
141
12.0
290
     0
  0
SCALE
  5
148
102
{ACAD_REACTORS
330
12F
102
}
330
12F
100
AcDbScale
 70
     0
300
1/4" = 1'-0"
140
0.25
141
12.0
290
     0
  0
SCALE
  5
149
102
{ACAD_REACTORS
330
12F
102
}
330
12F
100
AcDbScale
 70
     0
300
3/8" = 1'-0"
140
0.375
141
12.0
290
     0
  0
SCALE
  5
14A
102
{ACAD_REACTORS
330
12F
102
}
330
12F
100
AcDbScale
 70
     0
300
1/2" = 1'-0"
140
0.5
141
12.0
290
     0
  0
SCALE
  5
14B
102
{ACAD_REACTORS
330
12F
102
}
330
12F
100
AcDbScale
 70
     0
300
3/4" = 1'-0"
140
0.75
141
12.0
290
     0
  0
SCALE
  5
14C
102
{ACAD_REACTORS
330
12F
102
}
330
12F
100
AcDbScale
 70
     0
300
1" = 1'-0"
140
1.0
141
12.0
290
     0
  0
SCALE
  5
14D
102
{ACAD_REACTORS
330
12F
102
}
330
12F
100
AcDbScale
 70
     0
300
1-1/2" = 1'-0"
140
1.5
141
12.0
290
     0
  0
SCALE
  5
14E
102
{ACAD_REACTORS
330
12F
102
}
330
12F
100
AcDbScale
 70
     0
300
3" = 1'-0"
140
3.0
141
12.0
290
     0
  0
SCALE
  5
14F
102
{ACAD_REACTORS
330
12F
102
}
330
12F
100
AcDbScale
 70
     0
300
6" = 1'-0"
140
6.0
141
12.0
290
     0
  0
SCALE
  5
150
102
{ACAD_REACTORS
330
12F
102
}
330
12F
100
AcDbScale
 70
     0
300
1'-0" = 1'-0"
140
12.0
141
12.0
290
     0
  0
TABLESTYLE
  5
1BD
102
{ACAD_REACTORS
330
1BC
102
}
102
{ACAD_XDICTIONARY
360
268
102
}
330
1BC
100
AcDbTableStyle
  3
Standard
 70
     0
 71
     0
 40
0.06
 41
0.06
280
     0
281
     0
  7
Standard
140
0.18
170
     2
 62
     0
 63
   257
283
     0
 90
        4
 91
        0
  1

274
    -2
284
     1
 64
     0
275
    -2
285
     1
 65
     0
276
    -2
286
     1
 66
     0
277
    -2
287
     1
 67
     0
278
    -2
288
     1
 68
     0
279
    -2
289
     1
 69
     0
  7
Standard
140
0.25
170
     5
 62
     0
 63
   257
283
     0
 90
        4
 91
        0
  1

274
    -2
284
     1
 64
     0
275
    -2
285
     1
 65
     0
276
    -2
286
     1
 66
     0
277
    -2
287
     1
 67
     0
278
    -2
288
     1
 68
     0
279
    -2
289
     1
 69
     0
  7
Standard
140
0.18
170
     5
 62
     0
 63
   257
283
     0
 90
        4
 91
        0
  1

274
    -2
284
     1
 64
     0
275
    -2
285
     1
 65
     0
276
    -2
286
     1
 66
     0
277
    -2
287
     1
 67
     0
278
    -2
288
     1
 68
     0
279
    -2
289
     1
 69
     0
  0
VISUALSTYLE
  5
15A
102
{ACAD_REACTORS
330
155
102
}
330
155
100
AcDbVisualStyle
  2
2dWireframe
 70
     4
177
     3
291
     0
 70
    58
 90
        0
176
     1
 90
        2
176
     1
 90
        0
176
     1
 90
        0
176
     1
 40
-0.6
176
     1
 40
-30.0
176
     1
 62
     7
176
     1
 90
        1
176
     1
 90
        4
176
     1
 62
     7
176
     1
 62
   257
176
     1
 90
        1
176
     1
 90
        1
176
     1
 40
1.0
176
     1
 90
        0
176
     1
 62
   257
176
     1
 40
1.0
176
     1
 90
        1
176
     1
 90
        6
176
     1
 90
        2
176
     1
 62
     7
176
     1
 90
        5
176
     1
 90
        0
176
     1
 90
        0
176
     1
290
     0
176
     1
 90
        1
176
     1
 40
0.0
176
     1
 90
        0
176
     1
290
     1
176
     1
290
     1
176
     1
290
     0
176
     1
290
     0
176
     1
290
     0
176
     1
290
     0
176
     1
290
     0
176
     1
290
     0
176
     1
290
     0
176
     1
 90
       50
176
     1
 40
0.0
176
     1
 40
1.0
176
     1
 90
        0
176
     1
 62
    18
420
        0
176
     1
 90
       50
176
     1
 90
        3
176
     1
 62
     5
420
      255
176
     1
290
     0
176
     1
 90
       50
176
     1
 90
       50
176
     1
 90
       50
176
     1
290
     0
176
     1
 90
       50
176
     1
 62
   256
176
     0
 40
1.0
176
     0
 90
        2
176
     1
  1
strokes_ogs.tif
176
     1
290
     0
176
     1
 40
1.0
176
     1
 40
1.0
176
     1
  0
VISUALSTYLE
  5
15C
102
{ACAD_REACTORS
330
155
102
}
330
155
100
AcDbVisualStyle
  2
3D Hidden
 70
     6
177
     3
291
     0
 70
    58
 90
        1
176
     1
 90
        2
176
     1
 90
        2
176
     1
 90
        0
176
     1
 40
-0.6
176
     1
 40
-30.0
176
     1
 62
     7
176
     1
 90
        2
176
     1
 90
        2
176
     1
 62
     7
176
     1
 62
   257
176
     1
 90
        2
176
     1
 90
        1
176
     1
 40
40.0
176
     1
 90
        0
176
     1
 62
   257
176
     1
 40
1.0
176
     1
 90
        1
176
     1
 90
        6
176
     1
 90
        2
176
     1
 62
     7
176
     1
 90
        3
176
     1
 90
        0
176
     1
 90
        0
176
     1
290
     0
176
     1
 90
        1
176
     1
 40
0.0
176
     1
 90
        0
176
     1
290
     0
176
     1
290
     1
176
     1
290
     1
176
     1
290
     0
176
     1
290
     0
176
     1
290
     0
176
     1
290
     0
176
     1
290
     0
176
     1
290
     0
176
     1
 90
       50
176
     1
 40
0.0
176
     1
 40
1.0
176
     1
 90
        0
176
     1
 62
    18
420
        0
176
     1
 90
       50
176
     1
 90
        3
176
     1
 62
     5
420
      255
176
     1
290
     0
176
     1
 90
       50
176
     1
 90
       50
176
     1
 90
       50
176
     1
290
     0
176
     1
 90
       50
176
     1
 62
   256
176
     0
 40
1.0
176
     0
 90
        2
176
     1
  1
strokes_ogs.tif
176
     1
290
     0
176
     1
 40
1.0
176
     1
 40
1.0
176
     1
  0
VISUALSTYLE
  5
15B
102
{ACAD_REACTORS
330
155
102
}
330
155
100
AcDbVisualStyle
  2
3dWireframe
 70
     5
177
     3
291
     0
 70
    58
 90
        0
176
     1
 90
        2
176
     1
 90
        0
176
     1
 90
        0
176
     1
 40
-0.6
176
     1
 40
-30.0
176
     1
 62
     7
176
     1
 90
        1
176
     1
 90
        4
176
     1
 62
     7
176
     1
 62
   257
176
     1
 90
        1
176
     1
 90
        1
176
     1
 40
1.0
176
     1
 90
        0
176
     1
 62
   257
176
     1
 40
1.0
176
     1
 90
        1
176
     1
 90
        6
176
     1
 90
        2
176
     1
 62
     7
176
     1
 90
        5
176
     1
 90
        0
176
     1
 90
        0
176
     1
290
     0
176
     1
 90
        1
176
     1
 40
0.0
176
     1
 90
        0
176
     1
290
     0
176
     1
290
     1
176
     1
290
     1
176
     1
290
     0
176
     1
290
     0
176
     1
290
     0
176
     1
290
     0
176
     1
290
     0
176
     1
290
     0
176
     1
 90
       50
176
     1
 40
0.0
176
     1
 40
1.0
176
     1
 90
        0
176
     1
 62
    18
420
        0
176
     1
 90
       50
176
     1
 90
        3
176
     1
 62
     5
420
      255
176
     1
290
     0
176
     1
 90
       50
176
     1
 90
       50
176
     1
 90
       50
176
     1
290
     0
176
     1
 90
       50
176
     1
 62
   256
176
     0
 40
1.0
176
     0
 90
        2
176
     1
  1
strokes_ogs.tif
176
     1
290
     0
176
     1
 40
1.0
176
     1
 40
1.0
176
     1
  0
VISUALSTYLE
  5
15D
102
{ACAD_REACTORS
330
155
102
}
330
155
100
AcDbVisualStyle
  2
Basic
 70
     7
177
     3
291
     1
 70
    58
 90
        1
176
     1
 90
        0
176
     1
 90
        1
176
     1
 90
        0
176
     1
 40
-0.6
176
     1
 40
-30.0
176
     1
 62
     7
176
     1
 90
        0
176
     1
 90
        4
176
     1
 62
     7
176
     1
 62
   257
176
     1
 90
        1
176
     1
 90
        1
176
     1
 40
1.0
176
     1
 90
        8
176
     1
 62
     7
176
     1
 40
1.0
176
     1
 90
        1
176
     1
 90
        6
176
     1
 90
        2
176
     1
 62
     7
176
     1
 90
        5
176
     1
 90
        0
176
     1
 90
        0
176
     1
290
     0
176
     1
 90
        1
176
     1
 40
0.0
176
     1
 90
        0
176
     1
290
     0
176
     1
290
     1
176
     1
290
     1
176
     1
290
     0
176
     1
290
     0
176
     1
290
     0
176
     1
290
     0
176
     1
290
     0
176
     1
290
     0
176
     1
 90
       50
176
     1
 40
0.0
176
     1
 40
1.0
176
     1
 90
        0
176
     1
 62
    18
420
        0
176
     1
 90
       50
176
     1
 90
        3
176
     1
 62
     5
420
      255
176
     1
290
     0
176
     1
 90
       50
176
     1
 90
       50
176
     1
 90
       50
176
     1
290
     0
176
     1
 90
       50
176
     1
 62
   256
176
     0
 40
1.0
176
     0
 90
        2
176
     1
  1
strokes_ogs.tif
176
     1
290
     0
176
     1
 40
1.0
176
     1
 40
1.0
176
     1
  0
VISUALSTYLE
  5
161
102
{ACAD_REACTORS
330
155
102
}
330
155
100
AcDbVisualStyle
  2
Brighten
 70
    12
177
     3
291
     1
 70
    58
 90
        2
176
     1
 90
        2
176
     1
 90
        0
176
     1
 90
        0
176
     1
 40
-0.6
176
     1
 40
-30.0
176
     1
 62
     7
176
     1
 90
        1
176
     1
 90
        4
176
     1
 62
     7
176
     1
 62
   257
176
     1
 90
        1
176
     1
 90
        1
176
     1
 40
1.0
176
     1
 90
        8
176
     1
 62
     7
176
     1
 40
1.0
176
     1
 90
        1
176
     1
 90
        6
176
     1
 90
        2
176
     1
 62
     7
176
     1
 90
        5
176
     1
 90
        0
176
     1
 90
        0
176
     1
290
     0
176
     1
 90
        1
176
     1
 40
50.0
176
     1
 90
        0
176
     1
290
     0
176
     1
290
     1
176
     1
290
     1
176
     1
290
     0
176
     1
290
     0
176
     1
290
     0
176
     1
290
     0
176
     1
290
     0
176
     1
290
     0
176
     1
 90
       50
176
     1
 40
0.0
176
     1
 40
1.0
176
     1
 90
        0
176
     1
 62
    18
420
        0
176
     1
 90
       50
176
     1
 90
        3
176
     1
 62
     5
420
      255
176
     1
290
     0
176
     1
 90
       50
176
     1
 90
       50
176
     1
 90
       50
176
     1
290
     0
176
     1
 90
       50
176
     1
 62
   256
176
     0
 40
1.0
176
     0
 90
        2
176
     1
  1
strokes_ogs.tif
176
     1
290
     0
176
     1
 40
1.0
176
     1
 40
1.0
176
     1
  0
VISUALSTYLE
  5
165
102
{ACAD_REACTORS
330
155
102
}
330
155
100
AcDbVisualStyle
  2
ColorChange
 70
    16
177
     3
291
     1
 70
    58
 90
        2
176
     1
 90
        2
176
     1
 90
        3
176
     1
 90
        0
176
     1
 40
-0.6
176
     1
 40
-30.0
176
     1
 62
     8
176
     1
 90
        1
176
     1
 90
        4
176
     1
 62
     7
176
     1
 62
   257
176
     1
 90
        1
176
     1
 90
        1
176
     1
 40
1.0
176
     1
 90
        8
176
     1
 62
     8
176
     1
 40
1.0
176
     1
 90
        1
176
     1
 90
        6
176
     1
 90
        2
176
     1
 62
     7
176
     1
 90
        5
176
     1
 90
        0
176
     1
 90
        0
176
     1
290
     0
176
     1
 90
        1
176
     1
 40
0.0
176
     1
 90
        0
176
     1
290
     0
176
     1
290
     1
176
     1
290
     1
176
     1
290
     0
176
     1
290
     0
176
     1
290
     0
176
     1
290
     0
176
     1
290
     0
176
     1
290
     0
176
     1
 90
       50
176
     1
 40
0.0
176
     1
 40
1.0
176
     1
 90
        0
176
     1
 62
    18
420
        0
176
     1
 90
       50
176
     1
 90
        3
176
     1
 62
     5
420
      255
176
     1
290
     0
176
     1
 90
       50
176
     1
 90
       50
176
     1
 90
       50
176
     1
290
     0
176
     1
 90
       50
176
     1
 62
   256
176
     0
 40
1.0
176
     0
 90
        2
176
     1
  1
strokes_ogs.tif
176
     1
290
     0
176
     1
 40
1.0
176
     1
 40
1.0
176
     1
  0
VISUALSTYLE
  5
15F
102
{ACAD_REACTORS
330
155
102
}
330
155
100
AcDbVisualStyle
  2
Conceptual
 70
     9
177
     3
291
     0
 70
    58
 90
        3
176
     1
 90
        2
176
     1
 90
        0
176
     1
 90
        0
176
     1
 40
-0.6
176
     1
 40
-30.0
176
     1
 62
     7
176
     1
 90
        2
176
     1
 90
        2
176
     1
 62
     7
176
     1
 62
   257
176
     1
 90
        1
176
     1
 90
        1
176
     1
 40
40.0
176
     1
 90
        8
176
     1
 62
     7
176
     1
 40
1.0
176
     1
 90
        1
176
     1
 90
        6
176
     1
 90
        2
176
     1
 62
     7
176
     1
 90
        3
176
     1
 90
        0
176
     1
 90
        0
176
     1
290
     0
176
     1
 90
        1
176
     1
 40
0.0
176
     1
 90
        0
176
     1
290
     0
176
     1
290
     1
176
     1
290
     1
176
     1
290
     0
176
     1
290
     0
176
     1
290
     0
176
     1
290
     0
176
     1
290
     0
176
     1
290
     0
176
     1
 90
       50
176
     1
 40
0.0
176
     1
 40
1.0
176
     1
 90
        0
176
     1
 62
    18
420
        0
176
     1
 90
       50
176
     1
 90
        3
176
     1
 62
     5
420
      255
176
     1
290
     0
176
     1
 90
       50
176
     1
 90
       50
176
     1
 90
       50
176
     1
290
     0
176
     1
 90
       50
176
     1
 62
   256
176
     0
 40
1.0
176
     0
 90
        2
176
     1
  1
strokes_ogs.tif
176
     1
290
     0
176
     1
 40
1.0
176
     1
 40
1.0
176
     1
  0
VISUALSTYLE
  5
160
102
{ACAD_REACTORS
330
155
102
}
330
155
100
AcDbVisualStyle
  2
Dim
 70
    11
177
     3
291
     1
 70
    58
 90
        2
176
     1
 90
        2
176
     1
 90
        0
176
     1
 90
        0
176
     1
 40
-0.6
176
     1
 40
-30.0
176
     1
 62
     7
176
     1
 90
        1
176
     1
 90
        4
176
     1
 62
     7
176
     1
 62
   257
176
     1
 90
        1
176
     1
 90
        1
176
     1
 40
1.0
176
     1
 90
        8
176
     1
 62
     7
176
     1
 40
1.0
176
     1
 90
        1
176
     1
 90
        6
176
     1
 90
        2
176
     1
 62
     7
176
     1
 90
        5
176
     1
 90
        0
176
     1
 90
        0
176
     1
290
     0
176
     1
 90
        1
176
     1
 40
-50.0
176
     1
 90
        0
176
     1
290
     0
176
     1
290
     1
176
     1
290
     1
176
     1
290
     0
176
     1
290
     0
176
     1
290
     0
176
     1
290
     0
176
     1
290
     0
176
     1
290
     0
176
     1
 90
       50
176
     1
 40
0.0
176
     1
 40
1.0
176
     1
 90
        0
176
     1
 62
    18
420
        0
176
     1
 90
       50
176
     1
 90
        3
176
     1
 62
     5
420
      255
176
     1
290
     0
176
     1
 90
       50
176
     1
 90
       50
176
     1
 90
       50
176
     1
290
     0
176
     1
 90
       50
176
     1
 62
   256
176
     0
 40
1.0
176
     0
 90
        2
176
     1
  1
strokes_ogs.tif
176
     1
290
     0
176
     1
 40
1.0
176
     1
 40
1.0
176
     1
  0
VISUALSTYLE
  5
1B6
102
{ACAD_REACTORS
330
155
102
}
330
155
100
AcDbVisualStyle
  2
EdgeColorOff
 70
    22
177
     3
291
     1
 70
    58
 90
        2
176
     0
 90
        2
176
     0
 90
        0
176
     0
 90
        0
176
     0
 40
0.6
176
     0
 40
30.0
176
     0
 62
     7
420
 16777215
176
     0
 90
        1
176
     0
 90
        4
176
     0
 62
     7
176
     0
 62
   257
176
     0
 90
        1
176
     0
 90
        1
176
     0
 40
1.0
176
     0
 90
        8
176
     2
 62
     7
176
     0
 40
1.0
176
     0
 90
        1
176
     0
 90
        6
176
     0
 90
        2
176
     0
 62
     7
176
     0
 90
        5
176
     0
 90
        0
176
     0
 90
        0
176
     0
290
     0
176
     0
 90
        1
176
     0
 40
0.0
176
     0
 90
        0
176
     0
290
     0
176
     0
290
     1
176
     0
290
     1
176
     0
290
     0
176
     0
290
     0
176
     0
290
     0
176
     0
290
     0
176
     0
290
     0
176
     0
290
     0
176
     0
 90
       50
176
     0
 40
0.0
176
     0
 40
1.0
176
     0
 90
        0
176
     0
 62
    18
420
        0
176
     0
 90
       50
176
     0
 90
        3
176
     0
 62
     5
420
      255
176
     0
290
     0
176
     0
 90
       50
176
     0
 90
       50
176
     0
 90
       50
176
     0
290
     0
176
     0
 90
       50
176
     0
 62
   256
176
     0
 40
1.0
176
     0
 90
        2
176
     0
  1
strokes_ogs.tif
176
     0
290
     0
176
     0
 40
1.0
176
     0
 40
1.0
176
     0
  0
VISUALSTYLE
  5
164
102
{ACAD_REACTORS
330
155
102
}
330
155
100
AcDbVisualStyle
  2
Facepattern
 70
    15
177
     3
291
     1
 70
    58
 90
        2
176
     1
 90
        2
176
     1
 90
        0
176
     1
 90
        0
176
     1
 40
-0.6
176
     1
 40
-30.0
176
     1
 62
     7
176
     1
 90
        1
176
     1
 90
        4
176
     1
 62
     7
176
     1
 62
   257
176
     1
 90
        1
176
     1
 90
        1
176
     1
 40
1.0
176
     1
 90
        8
176
     1
 62
     7
176
     1
 40
1.0
176
     1
 90
        1
176
     1
 90
        6
176
     1
 90
        2
176
     1
 62
     7
176
     1
 90
        5
176
     1
 90
        0
176
     1
 90
        0
176
     1
290
     0
176
     1
 90
        1
176
     1
 40
0.0
176
     1
 90
        0
176
     1
290
     0
176
     1
290
     1
176
     1
290
     1
176
     1
290
     0
176
     1
290
     0
176
     1
290
     0
176
     1
290
     0
176
     1
290
     0
176
     1
290
     0
176
     1
 90
       50
176
     1
 40
0.0
176
     1
 40
1.0
176
     1
 90
        0
176
     1
 62
    18
420
        0
176
     1
 90
       50
176
     1
 90
        3
176
     1
 62
     5
420
      255
176
     1
290
     0
176
     1
 90
       50
176
     1
 90
       50
176
     1
 90
       50
176
     1
290
     0
176
     1
 90
       50
176
     1
 62
   256
176
     0
 40
1.0
176
     0
 90
        2
176
     1
  1
strokes_ogs.tif
176
     1
290
     0
176
     1
 40
1.0
176
     1
 40
1.0
176
     1
  0
VISUALSTYLE
  5
156
102
{ACAD_REACTORS
330
155
102
}
330
155
100
AcDbVisualStyle
  2
Flat
 70
     0
177
     3
291
     1
 70
    58
 90
        2
176
     1
 90
        1
176
     1
 90
        1
176
     1
 90
        2
176
     1
 40
-0.6
176
     1
 40
30.0
176
     1
 62
     7
176
     1
 90
        0
176
     1
 90
        4
176
     1
 62
     7
176
     1
 62
   257
176
     1
 90
        1
176
     1
 90
        1
176
     1
 40
1.0
176
     1
 90
        8
176
     1
 62
     7
176
     1
 40
1.0
176
     1
 90
        1
176
     1
 90
        6
176
     1
 90
        2
176
     1
 62
     7
176
     1
 90
        5
176
     1
 90
        0
176
     1
 90
        0
176
     1
290
     0
176
     1
 90
       13
176
     1
 40
0.0
176
     1
 90
        0
176
     1
290
     0
176
     1
290
     1
176
     1
290
     1
176
     1
290
     0
176
     1
290
     0
176
     1
290
     0
176
     1
290
     0
176
     1
290
     0
176
     1
290
     0
176
     1
 90
       50
176
     1
 40
0.0
176
     1
 40
1.0
176
     1
 90
        0
176
     1
 62
    18
420
        0
176
     1
 90
       50
176
     1
 90
        3
176
     1
 62
     5
420
      255
176
     1
290
     0
176
     1
 90
       50
176
     1
 90
       50
176
     1
 90
       50
176
     1
290
     0
176
     1
 90
       50
176
     1
 62
   256
176
     0
 40
1.0
176
     0
 90
        2
176
     1
  1
strokes_ogs.tif
176
     1
290
     0
176
     1
 40
1.0
176
     1
 40
1.0
176
     1
  0
VISUALSTYLE
  5
157
102
{ACAD_REACTORS
330
155
102
}
330
155
100
AcDbVisualStyle
  2
FlatWithEdges
 70
     1
177
     3
291
     1
 70
    58
 90
        2
176
     1
 90
        1
176
     1
 90
        1
176
     1
 90
        2
176
     1
 40
-0.6
176
     1
 40
30.0
176
     1
 62
     7
176
     1
 90
        1
176
     1
 90
        4
176
     1
 62
     7
176
     1
 62
   257
176
     1
 90
        1
176
     1
 90
        1
176
     1
 40
1.0
176
     1
 90
        0
176
     1
 62
   257
176
     1
 40
1.0
176
     1
 90
        1
176
     1
 90
        6
176
     1
 90
        2
176
     1
 62
     7
176
     1
 90
        5
176
     1
 90
        0
176
     1
 90
        0
176
     1
290
     0
176
     1
 90
       13
176
     1
 40
0.0
176
     1
 90
        0
176
     1
290
     0
176
     1
290
     1
176
     1
290
     1
176
     1
290
     0
176
     1
290
     0
176
     1
290
     0
176
     1
290
     0
176
     1
290
     0
176
     1
290
     0
176
     1
 90
       50
176
     1
 40
0.0
176
     1
 40
1.0
176
     1
 90
        0
176
     1
 62
    18
420
        0
176
     1
 90
       50
176
     1
 90
        3
176
     1
 62
     5
420
      255
176
     1
290
     0
176
     1
 90
       50
176
     1
 90
       50
176
     1
 90
       50
176
     1
290
     0
176
     1
 90
       50
176
     1
 62
   256
176
     0
 40
1.0
176
     0
 90
        2
176
     1
  1
strokes_ogs.tif
176
     1
290
     0
176
     1
 40
1.0
176
     1
 40
1.0
176
     1
  0
VISUALSTYLE
  5
158
102
{ACAD_REACTORS
330
155
102
}
330
155
100
AcDbVisualStyle
  2
Gouraud
 70
     2
177
     3
291
     1
 70
    58
 90
        2
176
     1
 90
        2
176
     1
 90
        1
176
     1
 90
        2
176
     1
 40
-0.6
176
     1
 40
30.0
176
     1
 62
     7
176
     1
 90
        0
176
     1
 90
        4
176
     1
 62
     7
176
     1
 62
   257
176
     1
 90
        1
176
     1
 90
        1
176
     1
 40
1.0
176
     1
 90
        0
176
     1
 62
     7
176
     1
 40
1.0
176
     1
 90
        1
176
     1
 90
        6
176
     1
 90
        2
176
     1
 62
     7
176
     1
 90
        5
176
     1
 90
        0
176
     1
 90
        0
176
     1
290
     0
176
     1
 90
       13
176
     1
 40
0.0
176
     1
 90
        0
176
     1
290
     0
176
     1
290
     1
176
     1
290
     1
176
     1
290
     0
176
     1
290
     0
176
     1
290
     0
176
     1
290
     0
176
     1
290
     0
176
     1
290
     0
176
     1
 90
       50
176
     1
 40
0.0
176
     1
 40
1.0
176
     1
 90
        0
176
     1
 62
    18
420
        0
176
     1
 90
       50
176
     1
 90
        3
176
     1
 62
     5
420
      255
176
     1
290
     0
176
     1
 90
       50
176
     1
 90
       50
176
     1
 90
       50
176
     1
290
     0
176
     1
 90
       50
176
     1
 62
   256
176
     0
 40
1.0
176
     0
 90
        2
176
     1
  1
strokes_ogs.tif
176
     1
290
     0
176
     1
 40
1.0
176
     1
 40
1.0
176
     1
  0
VISUALSTYLE
  5
159
102
{ACAD_REACTORS
330
155
102
}
330
155
100
AcDbVisualStyle
  2
GouraudWithEdges
 70
     3
177
     3
291
     1
 70
    58
 90
        2
176
     1
 90
        2
176
     1
 90
        1
176
     1
 90
        2
176
     1
 40
-0.6
176
     1
 40
30.0
176
     1
 62
     7
176
     1
 90
        1
176
     1
 90
        4
176
     1
 62
     7
176
     1
 62
   257
176
     1
 90
        1
176
     1
 90
        1
176
     1
 40
1.0
176
     1
 90
        0
176
     1
 62
   257
176
     1
 40
1.0
176
     1
 90
        1
176
     1
 90
        6
176
     1
 90
        2
176
     1
 62
     7
176
     1
 90
        5
176
     1
 90
        0
176
     1
 90
        0
176
     1
290
     0
176
     1
 90
       13
176
     1
 40
0.0
176
     1
 90
        0
176
     1
290
     0
176
     1
290
     1
176
     1
290
     1
176
     1
290
     0
176
     1
290
     0
176
     1
290
     0
176
     1
290
     0
176
     1
290
     0
176
     1
290
     0
176
     1
 90
       50
176
     1
 40
0.0
176
     1
 40
1.0
176
     1
 90
        0
176
     1
 62
    18
420
        0
176
     1
 90
       50
176
     1
 90
        3
176
     1
 62
     5
420
      255
176
     1
290
     0
176
     1
 90
       50
176
     1
 90
       50
176
     1
 90
       50
176
     1
290
     0
176
     1
 90
       50
176
     1
 62
   256
176
     0
 40
1.0
176
     0
 90
        2
176
     1
  1
strokes_ogs.tif
176
     1
290
     0
176
     1
 40
1.0
176
     1
 40
1.0
176
     1
  0
VISUALSTYLE
  5
1B3
102
{ACAD_REACTORS
330
155
102
}
330
155
100
AcDbVisualStyle
  2
Hidden
 70
     6
177
     3
291
     0
 70
    58
 90
        1
176
     1
 90
        2
176
     1
 90
        2
176
     1
 90
        0
176
     1
 40
0.6
176
     1
 40
30.0
176
     1
 62
     7
420
 16777215
176
     1
 90
        2
176
     1
 90
        2
176
     1
 62
     7
176
     1
 62
   257
176
     1
 90
        2
176
     1
 90
        1
176
     1
 40
40.0
176
     1
 90
        0
176
     1
 62
   257
176
     1
 40
1.0
176
     1
 90
        1
176
     1
 90
        6
176
     1
 90
        2
176
     1
 62
     7
176
     1
 90
        3
176
     1
 90
        0
176
     1
 90
        0
176
     1
290
     0
176
     1
 90
        1
176
     1
 40
0.0
176
     1
 90
        0
176
     1
290
     0
176
     1
290
     1
176
     1
290
     1
176
     1
290
     0
176
     1
290
     0
176
     1
290
     0
176
     1
290
     0
176
     1
290
     0
176
     1
290
     0
176
     1
 90
       50
176
     1
 40
0.0
176
     1
 40
1.0
176
     1
 90
        0
176
     1
 62
    18
420
        0
176
     1
 90
       50
176
     1
 90
        3
176
     1
 62
     5
420
      255
176
     1
290
     0
176
     1
 90
       50
176
     1
 90
       50
176
     1
 90
       50
176
     1
290
     0
176
     1
 90
       50
176
     1
 62
   256
176
     0
 40
1.0
176
     0
 90
        2
176
     1
  1
strokes_ogs.tif
176
     1
290
     0
176
     1
 40
1.0
176
     1
 40
1.0
176
     1
  0
VISUALSTYLE
  5
1B4
102
{ACAD_REACTORS
330
155
102
}
330
155
100
AcDbVisualStyle
  2
JitterOff
 70
    20
177
     3
291
     1
 70
    58
 90
        2
176
     0
 90
        2
176
     0
 90
        0
176
     0
 90
        0
176
     0
 40
0.6
176
     0
 40
30.0
176
     0
 62
     7
420
 16777215
176
     0
 90
        1
176
     0
 90
        4
176
     0
 62
     7
176
     0
 62
   257
176
     0
 90
        1
176
     0
 90
        1
176
     0
 40
1.0
176
     0
 90
       10
176
     2
 62
     7
176
     0
 40
1.0
176
     0
 90
        1
176
     0
 90
        6
176
     0
 90
        2
176
     0
 62
     7
176
     0
 90
        5
176
     0
 90
        0
176
     0
 90
        0
176
     0
290
     0
176
     0
 90
        1
176
     0
 40
0.0
176
     0
 90
        0
176
     0
290
     0
176
     0
290
     1
176
     0
290
     1
176
     0
290
     0
176
     0
290
     0
176
     0
290
     0
176
     0
290
     0
176
     0
290
     0
176
     0
290
     0
176
     0
 90
       50
176
     0
 40
0.0
176
     0
 40
1.0
176
     0
 90
        0
176
     0
 62
    18
420
        0
176
     0
 90
       50
176
     0
 90
        3
176
     0
 62
     5
420
      255
176
     0
290
     0
176
     0
 90
       50
176
     0
 90
       50
176
     0
 90
       50
176
     0
290
     0
176
     0
 90
       50
176
     0
 62
   256
176
     0
 40
1.0
176
     0
 90
        2
176
     0
  1
strokes_ogs.tif
176
     0
290
     0
176
     0
 40
1.0
176
     0
 40
1.0
176
     0
  0
VISUALSTYLE
  5
163
102
{ACAD_REACTORS
330
155
102
}
330
155
100
AcDbVisualStyle
  2
Linepattern
 70
    14
177
     3
291
     1
 70
    58
 90
        2
176
     1
 90
        2
176
     1
 90
        0
176
     1
 90
        0
176
     1
 40
-0.6
176
     1
 40
-30.0
176
     1
 62
     7
176
     1
 90
        1
176
     1
 90
        4
176
     1
 62
     7
176
     1
 62
   257
176
     1
 90
        7
176
     1
 90
        7
176
     1
 40
1.0
176
     1
 90
        8
176
     1
 62
     7
176
     1
 40
1.0
176
     1
 90
        1
176
     1
 90
        6
176
     1
 90
        2
176
     1
 62
     7
176
     1
 90
        5
176
     1
 90
        0
176
     1
 90
        0
176
     1
290
     0
176
     1
 90
        1
176
     1
 40
0.0
176
     1
 90
        0
176
     1
290
     0
176
     1
290
     1
176
     1
290
     1
176
     1
290
     0
176
     1
290
     0
176
     1
290
     0
176
     1
290
     0
176
     1
290
     0
176
     1
290
     0
176
     1
 90
       50
176
     1
 40
0.0
176
     1
 40
1.0
176
     1
 90
        0
176
     1
 62
    18
420
        0
176
     1
 90
       50
176
     1
 90
        3
176
     1
 62
     5
420
      255
176
     1
290
     0
176
     1
 90
       50
176
     1
 90
       50
176
     1
 90
       50
176
     1
290
     0
176
     1
 90
       50
176
     1
 62
   256
176
     0
 40
1.0
176
     0
 90
        2
176
     1
  1
strokes_ogs.tif
176
     1
290
     0
176
     1
 40
1.0
176
     1
 40
1.0
176
     1
  0
VISUALSTYLE
  5
1B5
102
{ACAD_REACTORS
330
155
102
}
330
155
100
AcDbVisualStyle
  2
OverhangOff
 70
    21
177
     3
291
     1
 70
    58
 90
        2
176
     0
 90
        2
176
     0
 90
        0
176
     0
 90
        0
176
     0
 40
0.6
176
     0
 40
30.0
176
     0
 62
     7
420
 16777215
176
     0
 90
        1
176
     0
 90
        4
176
     0
 62
     7
176
     0
 62
   257
176
     0
 90
        1
176
     0
 90
        1
176
     0
 40
1.0
176
     0
 90
        9
176
     2
 62
     7
176
     0
 40
1.0
176
     0
 90
        1
176
     0
 90
        6
176
     0
 90
        2
176
     0
 62
     7
176
     0
 90
        5
176
     0
 90
        0
176
     0
 90
        0
176
     0
290
     0
176
     0
 90
        1
176
     0
 40
0.0
176
     0
 90
        0
176
     0
290
     0
176
     0
290
     1
176
     0
290
     1
176
     0
290
     0
176
     0
290
     0
176
     0
290
     0
176
     0
290
     0
176
     0
290
     0
176
     0
290
     0
176
     0
 90
       50
176
     0
 40
0.0
176
     0
 40
1.0
176
     0
 90
        0
176
     0
 62
    18
420
        0
176
     0
 90
       50
176
     0
 90
        3
176
     0
 62
     5
420
      255
176
     0
290
     0
176
     0
 90
       50
176
     0
 90
       50
176
     0
 90
       50
176
     0
290
     0
176
     0
 90
       50
176
     0
 62
   256
176
     0
 40
1.0
176
     0
 90
        2
176
     0
  1
strokes_ogs.tif
176
     0
290
     0
176
     0
 40
1.0
176
     0
 40
1.0
176
     0
  0
VISUALSTYLE
  5
15E
102
{ACAD_REACTORS
330
155
102
}
330
155
100
AcDbVisualStyle
  2
Realistic
 70
     8
177
     3
291
     0
 70
    58
 90
        2
176
     1
 90
        2
176
     1
 90
        0
176
     1
 90
        0
176
     1
 40
-0.6
176
     1
 40
-30.0
176
     1
 62
     7
176
     1
 90
        1
176
     1
 90
        0
176
     1
 62
     7
176
     1
 62
   257
176
     1
 90
        1
176
     1
 90
        1
176
     1
 40
1.0
176
     1
 90
        8
176
     1
 62
     8
176
     1
 40
1.0
176
     1
 90
        1
176
     1
 90
        6
176
     1
 90
        2
176
     1
 62
     7
176
     1
 90
        5
176
     1
 90
        0
176
     1
 90
        0
176
     1
290
     0
176
     1
 90
       13
176
     1
 40
0.0
176
     1
 90
        0
176
     1
290
     0
176
     1
290
     1
176
     1
290
     1
176
     1
290
     0
176
     1
290
     0
176
     1
290
     0
176
     1
290
     0
176
     1
290
     0
176
     1
290
     0
176
     1
 90
       50
176
     1
 40
0.0
176
     1
 40
1.0
176
     1
 90
        0
176
     1
 62
    18
420
        0
176
     1
 90
       50
176
     1
 90
        3
176
     1
 62
     5
420
      255
176
     1
290
     0
176
     1
 90
       50
176
     1
 90
       50
176
     1
 90
       50
176
     1
290
     0
176
     1
 90
       50
176
     1
 62
   256
176
     0
 40
1.0
176
     0
 90
        2
176
     1
  1
strokes_ogs.tif
176
     1
290
     0
176
     1
 40
1.0
176
     1
 40
1.0
176
     1
  0
VISUALSTYLE
  5
1BB
102
{ACAD_REACTORS
330
155
102
}
330
155
100
AcDbVisualStyle
  2
Shaded
 70
    27
177
     3
291
     0
 70
    58
 90
        2
176
     1
 90
        2
176
     1
 90
        1
176
     1
 90
        2
176
     1
 40
0.6
176
     1
 40
30.0
176
     1
 62
     7
420
 16777215
176
     1
 90
        0
176
     1
 90
        4
176
     1
 62
     7
176
     1
 62
   257
176
     1
 90
        1
176
     1
 90
        1
176
     1
 40
1.0
176
     1
 90
        8
176
     1
 62
   257
176
     1
 40
1.0
176
     1
 90
        1
176
     1
 90
        6
176
     1
 90
        2
176
     1
 62
     8
420
  7895160
176
     1
 90
        3
176
     1
 90
        0
176
     1
 90
        0
176
     1
290
     0
176
     1
 90
        5
176
     1
 40
0.0
176
     1
 90
        0
176
     1
290
     0
176
     1
290
     1
176
     1
290
     1
176
     1
290
     0
176
     1
290
     0
176
     1
290
     0
176
     1
290
     0
176
     1
290
     0
176
     1
290
     0
176
     1
 90
       50
176
     1
 40
0.0
176
     1
 40
1.0
176
     1
 90
        0
176
     1
 62
    18
420
        0
176
     1
 90
       50
176
     1
 90
        3
176
     1
 62
     5
420
      255
176
     1
290
     0
176
     1
 90
       50
176
     1
 90
       50
176
     1
 90
       50
176
     1
290
     0
176
     1
 90
       50
176
     1
 62
   256
176
     0
 40
1.0
176
     0
 90
        2
176
     1
  1
strokes_ogs.tif
176
     1
290
     0
176
     1
 40
1.0
176
     1
 40
1.0
176
     1
  0
VISUALSTYLE
  5
1BA
102
{ACAD_REACTORS
330
155
102
}
330
155
100
AcDbVisualStyle
  2
Shaded with edges
 70
    26
177
     3
291
     0
 70
    58
 90
        2
176
     1
 90
        2
176
     1
 90
        1
176
     1
 90
        2
176
     1
 40
0.6
176
     1
 40
30.0
176
     1
 62
     7
420
 16777215
176
     1
 90
        1
176
     1
 90
       10
176
     1
 62
     7
176
     1
 62
   257
176
     1
 90
        2
176
     1
 90
        1
176
     1
 40
1.0
176
     1
 90
        8
176
     1
 62
   257
176
     1
 40
1.0
176
     1
 90
        1
176
     1
 90
        6
176
     1
 90
        2
176
     1
 62
     7
176
     1
 90
        3
176
     1
 90
        0
176
     1
 90
        0
176
     1
290
     0
176
     1
 90
        5
176
     1
 40
0.0
176
     1
 90
        0
176
     1
290
     0
176
     1
290
     1
176
     1
290
     1
176
     1
290
     0
176
     1
290
     0
176
     1
290
     0
176
     1
290
     0
176
     1
290
     0
176
     1
290
     0
176
     1
 90
       50
176
     1
 40
0.0
176
     1
 40
1.0
176
     1
 90
        0
176
     1
 62
    18
420
        0
176
     1
 90
       50
176
     1
 90
        3
176
     1
 62
     5
420
      255
176
     1
290
     0
176
     1
 90
       50
176
     1
 90
       50
176
     1
 90
       50
176
     1
290
     0
176
     1
 90
       50
176
     1
 62
   256
176
     0
 40
1.0
176
     0
 90
        2
176
     1
  1
strokes_ogs.tif
176
     1
290
     0
176
     1
 40
1.0
176
     1
 40
1.0
176
     1
  0
VISUALSTYLE
  5
1B7
102
{ACAD_REACTORS
330
155
102
}
330
155
100
AcDbVisualStyle
  2
Shades of Gray
 70
    23
177
     3
291
     0
 70
    58
 90
        2
176
     1
 90
        2
176
     1
 90
        3
176
     1
 90
        0
176
     1
 40
0.6
176
     1
 40
30.0
176
     1
 62
     7
420
 16777215
176
     1
 90
        2
176
     1
 90
        2
176
     1
 62
     7
176
     1
 62
     7
176
     1
 90
        1
176
     1
 90
        1
176
     1
 40
40.0
176
     1
 90
        8
176
     1
 62
     7
176
     1
 40
1.0
176
     1
 90
        1
176
     1
 90
        6
176
     1
 90
        2
176
     1
 62
     7
176
     1
 90
        3
176
     1
 90
        0
176
     1
 90
        0
176
     1
290
     0
176
     1
 90
        1
176
     1
 40
0.0
176
     1
 90
        0
176
     1
290
     0
176
     1
290
     1
176
     1
290
     1
176
     1
290
     0
176
     1
290
     0
176
     1
290
     0
176
     1
290
     0
176
     1
290
     0
176
     1
290
     0
176
     1
 90
       50
176
     1
 40
0.0
176
     1
 40
1.0
176
     1
 90
        0
176
     1
 62
    18
420
        0
176
     1
 90
       50
176
     1
 90
        3
176
     1
 62
     5
420
      255
176
     1
290
     0
176
     1
 90
       50
176
     1
 90
       50
176
     1
 90
       50
176
     1
290
     0
176
     1
 90
       50
176
     1
 62
   256
176
     0
 40
1.0
176
     0
 90
        2
176
     1
  1
strokes_ogs.tif
176
     1
290
     0
176
     1
 40
1.0
176
     1
 40
1.0
176
     1
  0
VISUALSTYLE
  5
1B8
102
{ACAD_REACTORS
330
155
102
}
330
155
100
AcDbVisualStyle
  2
Sketchy
 70
    24
177
     3
291
     0
 70
    58
 90
        1
176
     1
 90
        2
176
     1
 90
        2
176
     1
 90
        0
176
     1
 40
0.6
176
     1
 40
30.0
176
     1
 62
     7
420
 16777215
176
     1
 90
        2
176
     1
 90
        2
176
     1
 62
     7
176
     1
 62
     7
176
     1
 90
        1
176
     1
 90
        1
176
     1
 40
40.0
176
     1
 90
       11
176
     1
 62
     7
176
     1
 40
1.0
176
     1
 90
        1
176
     1
 90
        6
176
     1
 90
        2
176
     1
 62
     7
176
     1
 90
        6
176
     1
 90
        0
176
     1
 90
        0
176
     1
290
     0
176
     1
 90
        1
176
     1
 40
0.0
176
     1
 90
        0
176
     1
290
     0
176
     1
290
     1
176
     1
290
     1
176
     1
290
     0
176
     1
290
     0
176
     1
290
     0
176
     1
290
     0
176
     1
290
     0
176
     1
290
     0
176
     1
 90
       50
176
     1
 40
0.0
176
     1
 40
1.0
176
     1
 90
        0
176
     1
 62
    18
420
        0
176
     1
 90
       50
176
     1
 90
        3
176
     1
 62
     5
420
      255
176
     1
290
     0
176
     1
 90
       50
176
     1
 90
       50
176
     1
 90
       50
176
     1
290
     0
176
     1
 90
       50
176
     1
 62
   256
176
     0
 40
1.0
176
     0
 90
        2
176
     1
  1
strokes_ogs.tif
176
     1
290
     0
176
     1
 40
1.0
176
     1
 40
1.0
176
     1
  0
VISUALSTYLE
  5
162
102
{ACAD_REACTORS
330
155
102
}
330
155
100
AcDbVisualStyle
  2
Thicken
 70
    13
177
     3
291
     1
 70
    58
 90
        2
176
     1
 90
        2
176
     1
 90
        0
176
     1
 90
        0
176
     1
 40
-0.6
176
     1
 40
-30.0
176
     1
 62
     7
176
     1
 90
        1
176
     1
 90
        4
176
     1
 62
     7
176
     1
 62
   257
176
     1
 90
        1
176
     1
 90
        1
176
     1
 40
1.0
176
     1
 90
       12
176
     1
 62
     7
176
     1
 40
1.0
176
     1
 90
        1
176
     1
 90
        6
176
     1
 90
        2
176
     1
 62
     7
176
     1
 90
        5
176
     1
 90
        0
176
     1
 90
        0
176
     1
290
     0
176
     1
 90
        1
176
     1
 40
0.0
176
     1
 90
        0
176
     1
290
     0
176
     1
290
     1
176
     1
290
     1
176
     1
290
     0
176
     1
290
     0
176
     1
290
     0
176
     1
290
     0
176
     1
290
     0
176
     1
290
     0
176
     1
 90
       50
176
     1
 40
0.0
176
     1
 40
1.0
176
     1
 90
        0
176
     1
 62
    18
420
        0
176
     1
 90
       50
176
     1
 90
        3
176
     1
 62
     5
420
      255
176
     1
290
     0
176
     1
 90
       50
176
     1
 90
       50
176
     1
 90
       50
176
     1
290
     0
176
     1
 90
       50
176
     1
 62
   256
176
     0
 40
1.0
176
     0
 90
        2
176
     1
  1
strokes_ogs.tif
176
     1
290
     0
176
     1
 40
1.0
176
     1
 40
1.0
176
     1
  0
VISUALSTYLE
  5
1B2
102
{ACAD_REACTORS
330
155
102
}
330
155
100
AcDbVisualStyle
  2
Wireframe
 70
     5
177
     3
291
     0
 70
    58
 90
        0
176
     1
 90
        2
176
     1
 90
        0
176
     1
 90
        0
176
     1
 40
0.6
176
     1
 40
30.0
176
     1
 62
     7
420
 16777215
176
     1
 90
        1
176
     1
 90
        4
176
     1
 62
     7
176
     1
 62
   257
176
     1
 90
        1
176
     1
 90
        1
176
     1
 40
1.0
176
     1
 90
        0
176
     1
 62
   257
176
     1
 40
1.0
176
     1
 90
        1
176
     1
 90
        6
176
     1
 90
        2
176
     1
 62
     7
176
     1
 90
        3
176
     1
 90
        0
176
     1
 90
        0
176
     1
290
     0
176
     1
 90
        1
176
     1
 40
0.0
176
     1
 90
        0
176
     1
290
     0
176
     1
290
     1
176
     1
290
     1
176
     1
290
     0
176
     1
290
     0
176
     1
290
     0
176
     1
290
     0
176
     1
290
     0
176
     1
290
     0
176
     1
 90
       50
176
     1
 40
0.0
176
     1
 40
1.0
176
     1
 90
        0
176
     1
 62
    18
420
        0
176
     1
 90
       50
176
     1
 90
        3
176
     1
 62
     5
420
      255
176
     1
290
     0
176
     1
 90
       50
176
     1
 90
       50
176
     1
 90
       50
176
     1
290
     0
176
     1
 90
       50
176
     1
 62
   256
176
     0
 40
1.0
176
     0
 90
        2
176
     1
  1
strokes_ogs.tif
176
     1
290
     0
176
     1
 40
1.0
176
     1
 40
1.0
176
     1
  0
VISUALSTYLE
  5
1B9
102
{ACAD_REACTORS
330
155
102
}
330
155
100
AcDbVisualStyle
  2
X-Ray
 70
    25
177
     3
291
     0
 70
    58
 90
        2
176
     1
 90
        2
176
     1
 90
        1
176
     1
 90
        1
176
     1
 40
0.5
176
     1
 40
30.0
176
     1
 62
     7
420
 16777215
176
     1
 90
        1
176
     1
 90
        0
176
     1
 62
     7
176
     1
 62
   257
176
     1
 90
        1
176
     1
 90
        1
176
     1
 40
1.0
176
     1
 90
        8
176
     1
 62
     7
176
     1
 40
1.0
176
     1
 90
        1
176
     1
 90
        6
176
     1
 90
        2
176
     1
 62
     7
176
     1
 90
        3
176
     1
 90
        0
176
     1
 90
        0
176
     1
290
     0
176
     1
 90
       13
176
     1
 40
0.0
176
     1
 90
        0
176
     1
290
     0
176
     1
290
     1
176
     1
290
     1
176
     1
290
     0
176
     1
290
     0
176
     1
290
     0
176
     1
290
     0
176
     1
290
     0
176
     1
290
     0
176
     1
 90
       50
176
     1
 40
0.0
176
     1
 40
1.0
176
     1
 90
        0
176
     1
 62
    18
420
        0
176
     1
 90
       50
176
     1
 90
        3
176
     1
 62
     5
420
      255
176
     1
290
     0
176
     1
 90
       50
176
     1
 90
       50
176
     1
 90
       50
176
     1
290
     0
176
     1
 90
       50
176
     1
 62
   256
176
     0
 40
1.0
176
     0
 90
        2
176
     1
  1
strokes_ogs.tif
176
     1
290
     0
176
     1
 40
1.0
176
     1
 40
1.0
176
     1
  0
DICTIONARYVAR
  5
1F8
102
{ACAD_REACTORS
330
171
102
}
330
171
100
DictionaryVariables
280
     0
  1
1:1
  0
DICTIONARYVAR
  5
1FA
102
{ACAD_REACTORS
330
171
102
}
330
171
100
DictionaryVariables
280
     0
  1
Standard
  0
DICTIONARYVAR
  5
1F9
102
{ACAD_REACTORS
330
171
102
}
330
171
100
DictionaryVariables
280
     0
  1
Standard
  0
DICTIONARYVAR
  5
175
102
{ACAD_REACTORS
330
171
102
}
330
171
100
DictionaryVariables
280
     0
  1
2
  0
DICTIONARYVAR
  5
176
102
{ACAD_REACTORS
330
171
102
}
330
171
100
DictionaryVariables
280
     0
  1
1
  0
DICTIONARYVAR
  5
174
102
{ACAD_REACTORS
330
171
102
}
330
171
100
DictionaryVariables
280
     0
  1
0
  0
DICTIONARY
  5
268
330
1BD
100
AcDbDictionary
280
     1
281
     1
  3
ACAD_ROUNDTRIP_2008_TABLESTYLE_CELLSTYLEMAP
360
269
  0
CELLSTYLEMAP
  5
269
102
{ACAD_REACTORS
330
268
102
}
330
268
100
AcDbCellStyleMap
 90
        3
300
CELLSTYLE
  1
TABLEFORMAT_BEGIN
 90
        5
170
     1
 91
        0
 92
    32768
 62
   257
 93
        1
300
CONTENTFORMAT
  1
CONTENTFORMAT_BEGIN
 90
        0
 91
        0
 92
        4
 93
        0
300

 40
0.0
140
1.0
 94
        5
 62
     0
340
11
144
0.25
309
CONTENTFORMAT_END
171
     1
301
MARGIN
  1
CELLMARGIN_BEGIN
 40
0.06
 40
0.06
 40
0.06
 40
0.06
 40
0.06
 40
0.06
309
CELLMARGIN_END
 94
        6
 95
        1
302
GRIDFORMAT
  1
GRIDFORMAT_BEGIN
 90
        0
 91
        1
 62
     0
 92
       -2
340
14
 93
        0
 40
0.045
309
GRIDFORMAT_END
 95
        2
302
GRIDFORMAT
  1
GRIDFORMAT_BEGIN
 90
        0
 91
        1
 62
     0
 92
       -2
340
14
 93
        0
 40
0.045
309
GRIDFORMAT_END
 95
        4
302
GRIDFORMAT
  1
GRIDFORMAT_BEGIN
 90
        0
 91
        1
 62
     0
 92
       -2
340
14
 93
        0
 40
0.045
309
GRIDFORMAT_END
 95
        8
302
GRIDFORMAT
  1
GRIDFORMAT_BEGIN
 90
        0
 91
        1
 62
     0
 92
       -2
340
14
 93
        0
 40
0.045
309
GRIDFORMAT_END
 95
       16
302
GRIDFORMAT
  1
GRIDFORMAT_BEGIN
 90
        0
 91
        1
 62
     0
 92
       -2
340
14
 93
        0
 40
0.045
309
GRIDFORMAT_END
 95
       32
302
GRIDFORMAT
  1
GRIDFORMAT_BEGIN
 90
        0
 91
        1
 62
     0
 92
       -2
340
14
 93
        0
 40
0.045
309
GRIDFORMAT_END
309
TABLEFORMAT_END
  1
CELLSTYLE_BEGIN
 90
        1
 91
        1
300
_TITLE
309
CELLSTYLE_END
300
CELLSTYLE
  1
TABLEFORMAT_BEGIN
 90
        5
170
     1
 91
        0
 92
        0
 62
   257
 93
        1
300
CONTENTFORMAT
  1
CONTENTFORMAT_BEGIN
 90
        0
 91
        0
 92
        4
 93
        0
300

 40
0.0
140
1.0
 94
        5
 62
     0
340
11
144
0.18
309
CONTENTFORMAT_END
171
     1
301
MARGIN
  1
CELLMARGIN_BEGIN
 40
0.06
 40
0.06
 40
0.06
 40
0.06
 40
0.06
 40
0.06
309
CELLMARGIN_END
 94
        6
 95
        1
302
GRIDFORMAT
  1
GRIDFORMAT_BEGIN
 90
        0
 91
        1
 62
     0
 92
       -2
340
14
 93
        0
 40
0.045
309
GRIDFORMAT_END
 95
        2
302
GRIDFORMAT
  1
GRIDFORMAT_BEGIN
 90
        0
 91
        1
 62
     0
 92
       -2
340
14
 93
        0
 40
0.045
309
GRIDFORMAT_END
 95
        4
302
GRIDFORMAT
  1
GRIDFORMAT_BEGIN
 90
        0
 91
        1
 62
     0
 92
       -2
340
14
 93
        0
 40
0.045
309
GRIDFORMAT_END
 95
        8
302
GRIDFORMAT
  1
GRIDFORMAT_BEGIN
 90
        0
 91
        1
 62
     0
 92
       -2
340
14
 93
        0
 40
0.045
309
GRIDFORMAT_END
 95
       16
302
GRIDFORMAT
  1
GRIDFORMAT_BEGIN
 90
        0
 91
        1
 62
     0
 92
       -2
340
14
 93
        0
 40
0.045
309
GRIDFORMAT_END
 95
       32
302
GRIDFORMAT
  1
GRIDFORMAT_BEGIN
 90
        0
 91
        1
 62
     0
 92
       -2
340
14
 93
        0
 40
0.045
309
GRIDFORMAT_END
309
TABLEFORMAT_END
  1
CELLSTYLE_BEGIN
 90
        2
 91
        1
300
_HEADER
309
CELLSTYLE_END
300
CELLSTYLE
  1
TABLEFORMAT_BEGIN
 90
        5
170
     1
 91
        0
 92
        0
 62
   257
 93
        1
300
CONTENTFORMAT
  1
CONTENTFORMAT_BEGIN
 90
        0
 91
        0
 92
        4
 93
        0
300

 40
0.0
140
1.0
 94
        2
 62
     0
340
11
144
0.18
309
CONTENTFORMAT_END
171
     1
301
MARGIN
  1
CELLMARGIN_BEGIN
 40
0.06
 40
0.06
 40
0.06
 40
0.06
 40
0.06
 40
0.06
309
CELLMARGIN_END
 94
        6
 95
        1
302
GRIDFORMAT
  1
GRIDFORMAT_BEGIN
 90
        0
 91
        1
 62
     0
 92
       -2
340
14
 93
        0
 40
0.045
309
GRIDFORMAT_END
 95
        2
302
GRIDFORMAT
  1
GRIDFORMAT_BEGIN
 90
        0
 91
        1
 62
     0
 92
       -2
340
14
 93
        0
 40
0.045
309
GRIDFORMAT_END
 95
        4
302
GRIDFORMAT
  1
GRIDFORMAT_BEGIN
 90
        0
 91
        1
 62
     0
 92
       -2
340
14
 93
        0
 40
0.045
309
GRIDFORMAT_END
 95
        8
302
GRIDFORMAT
  1
GRIDFORMAT_BEGIN
 90
        0
 91
        1
 62
     0
 92
       -2
340
14
 93
        0
 40
0.045
309
GRIDFORMAT_END
 95
       16
302
GRIDFORMAT
  1
GRIDFORMAT_BEGIN
 90
        0
 91
        1
 62
     0
 92
       -2
340
14
 93
        0
 40
0.045
309
GRIDFORMAT_END
 95
       32
302
GRIDFORMAT
  1
GRIDFORMAT_BEGIN
 90
        0
 91
        1
 62
     0
 92
       -2
340
14
 93
        0
 40
0.045
309
GRIDFORMAT_END
309
TABLEFORMAT_END
  1
CELLSTYLE_BEGIN
 90
        3
 91
        2
300
_DATA
309
CELLSTYLE_END
  0
ENDSEC
  0
EOF
