  0
SECTION
  2
HEADER
  9
$ACADVER
  1
AC1027
  9
$ACADMAINTVER
 70
   105
  9
$DWGCODEPAGE
  3
ANSI_1252
  9
$REQUIREDVERSIONS
160
                 0
  9
$LASTSAVEDBY
  1
matthias.ochs
  9
$INSBASE
 10
0.0
 20
0.0
 30
0.0
  9
$EXTMIN
 10
-94.95880750002499
 20
-86.83677909627363
 30
0.0
  9
$EXTMAX
 10
180.9045355089699
 20
103.5596999743516
 30
0.0
  9
$LIMMIN
 10
-168.899625446
 20
-82.075681334
  9
$LIMMAX
 10
217.691849627
 20
89.196423107
  9
$ORTHOMODE
 70
     0
  9
$REGENMODE
 70
     1
  9
$FILLMODE
 70
     1
  9
$QTEXTMODE
 70
     0
  9
$MIRRTEXT
 70
     1
  9
$LTSCALE
 40
1.0
  9
$ATTMODE
 70
     1
  9
$TEXTSIZE
 40
0.2
  9
$TRACEWID
 40
0.05
  9
$TEXTSTYLE
  7
Standard
  9
$CLAYER
  8
3
  9
$CELTYPE
  6
ByLayer
  9
$CECOLOR
 62
   256
  9
$CELTSCALE
 40
1.0
  9
$DISPSILH
 70
     0
  9
$DIMSCALE
 40
1.0
  9
$DIMASZ
 40
0.18
  9
$DIMEXO
 40
0.0625
  9
$DIMDLI
 40
0.38
  9
$DIMRND
 40
0.0
  9
$DIMDLE
 40
0.0
  9
$DIMEXE
 40
0.18
  9
$DIMTP
 40
0.0
  9
$DIMTM
 40
0.0
  9
$DIMTXT
 40
0.18
  9
$DIMCEN
 40
0.09
  9
$DIMTSZ
 40
0.0
  9
$DIMTOL
 70
     0
  9
$DIMLIM
 70
     0
  9
$DIMTIH
 70
     1
  9
$DIMTOH
 70
     1
  9
$DIMSE1
 70
     0
  9
$DIMSE2
 70
     0
  9
$DIMTAD
 70
     0
  9
$DIMZIN
 70
     0
  9
$DIMBLK
  1

  9
$DIMASO
 70
     1
  9
$DIMSHO
 70
     1
  9
$DIMPOST
  1

  9
$DIMAPOST
  1

  9
$DIMALT
 70
     0
  9
$DIMALTD
 70
     2
  9
$DIMALTF
 40
25.4
  9
$DIMLFAC
 40
1.0
  9
$DIMTOFL
 70
     0
  9
$DIMTVP
 40
0.0
  9
$DIMTIX
 70
     0
  9
$DIMSOXD
 70
     0
  9
$DIMSAH
 70
     0
  9
$DIMBLK1
  1

  9
$DIMBLK2
  1

  9
$DIMSTYLE
  2
Standard
  9
$DIMCLRD
 70
     0
  9
$DIMCLRE
 70
     0
  9
$DIMCLRT
 70
     0
  9
$DIMTFAC
 40
1.0
  9
$DIMGAP
 40
0.09
  9
$DIMJUST
 70
     0
  9
$DIMSD1
 70
     0
  9
$DIMSD2
 70
     0
  9
$DIMTOLJ
 70
     1
  9
$DIMTZIN
 70
     0
  9
$DIMALTZ
 70
     0
  9
$DIMALTTZ
 70
     0
  9
$DIMUPT
 70
     0
  9
$DIMDEC
 70
     4
  9
$DIMTDEC
 70
     4
  9
$DIMALTU
 70
     2
  9
$DIMALTTD
 70
     2
  9
$DIMTXSTY
  7
Standard
  9
$DIMAUNIT
 70
     0
  9
$DIMADEC
 70
     0
  9
$DIMALTRND
 40
0.0
  9
$DIMAZIN
 70
     0
  9
$DIMDSEP
 70
    46
  9
$DIMATFIT
 70
     3
  9
$DIMFRAC
 70
     0
  9
$DIMLDRBLK
  1

  9
$DIMLUNIT
 70
     2
  9
$DIMLWD
 70
    -2
  9
$DIMLWE
 70
    -2
  9
$DIMTMOVE
 70
     2
  9
$DIMFXL
 40
1.0
  9
$DIMFXLON
 70
     0
  9
$DIMJOGANG
 40
0.7853981633974483
  9
$DIMTFILL
 70
     0
  9
$DIMTFILLCLR
 70
     0
  9
$DIMARCSYM
 70
     0
  9
$DIMLTYPE
  6

  9
$DIMLTEX1
  6

  9
$DIMLTEX2
  6

  9
$DIMTXTDIRECTION
 70
     0
  9
$LUNITS
 70
     2
  9
$LUPREC
 70
     4
  9
$SKETCHINC
 40
0.1
  9
$FILLETRAD
 40
0.5
  9
$AUNITS
 70
     2
  9
$AUPREC
 70
     0
  9
$MENU
  1
.
  9
$ELEVATION
 40
0.0
  9
$PELEVATION
 40
0.0
  9
$THICKNESS
 40
0.0
  9
$LIMCHECK
 70
     0
  9
$CHAMFERA
 40
0.5
  9
$CHAMFERB
 40
0.5
  9
$CHAMFERC
 40
1.0
  9
$CHAMFERD
 40
0.0
  9
$SKPOLY
 70
     0
  9
$TDCREATE
 40
2458327.544416655
  9
$TDUCREATE
 40
2458327.461083322
  9
$TDUPDATE
 40
2458677.684484132
  9
$TDUUPDATE
 40
2458677.601150799
  9
$TDINDWG
 40
0.0098256366
  9
$TDUSRTIMER
 40
0.0011631481
  9
$USRTIMER
 70
     1
  9
$ANGBASE
 50
0.0
  9
$ANGDIR
 70
     0
  9
$PDMODE
 70
     0
  9
$PDSIZE
 40
0.0
  9
$PLINEWID
 40
0.0
  9
$SPLFRAME
 70
     0
  9
$SPLINETYPE
 70
     6
  9
$SPLINESEGS
 70
     8
  9
$HANDSEED
  5
581
  9
$SURFTAB1
 70
     6
  9
$SURFTAB2
 70
     6
  9
$SURFTYPE
 70
     6
  9
$SURFU
 70
     6
  9
$SURFV
 70
     6
  9
$UCSBASE
  2

  9
$UCSNAME
  2

  9
$UCSORG
 10
0.0
 20
0.0
 30
0.0
  9
$UCSXDIR
 10
1.0
 20
0.0
 30
0.0
  9
$UCSYDIR
 10
0.0
 20
1.0
 30
0.0
  9
$UCSORTHOREF
  2

  9
$UCSORTHOVIEW
 70
     0
  9
$UCSORGTOP
 10
0.0
 20
0.0
 30
0.0
  9
$UCSORGBOTTOM
 10
0.0
 20
0.0
 30
0.0
  9
$UCSORGLEFT
 10
0.0
 20
0.0
 30
0.0
  9
$UCSORGRIGHT
 10
0.0
 20
0.0
 30
0.0
  9
$UCSORGFRONT
 10
0.0
 20
0.0
 30
0.0
  9
$UCSORGBACK
 10
0.0
 20
0.0
 30
0.0
  9
$PUCSBASE
  2

  9
$PUCSNAME
  2

  9
$PUCSORG
 10
0.0
 20
0.0
 30
0.0
  9
$PUCSXDIR
 10
1.0
 20
0.0
 30
0.0
  9
$PUCSYDIR
 10
0.0
 20
1.0
 30
0.0
  9
$PUCSORTHOREF
  2

  9
$PUCSORTHOVIEW
 70
     0
  9
$PUCSORGTOP
 10
0.0
 20
0.0
 30
0.0
  9
$PUCSORGBOTTOM
 10
0.0
 20
0.0
 30
0.0
  9
$PUCSORGLEFT
 10
0.0
 20
0.0
 30
0.0
  9
$PUCSORGRIGHT
 10
0.0
 20
0.0
 30
0.0
  9
$PUCSORGFRONT
 10
0.0
 20
0.0
 30
0.0
  9
$PUCSORGBACK
 10
0.0
 20
0.0
 30
0.0
  9
$USERI1
 70
     0
  9
$USERI2
 70
     0
  9
$USERI3
 70
     0
  9
$USERI4
 70
     0
  9
$USERI5
 70
     0
  9
$USERR1
 40
0.0
  9
$USERR2
 40
0.0
  9
$USERR3
 40
0.0
  9
$USERR4
 40
0.0
  9
$USERR5
 40
0.0
  9
$WORLDVIEW
 70
     1
  9
$SHADEDGE
 70
     3
  9
$SHADEDIF
 70
    70
  9
$TILEMODE
 70
     1
  9
$MAXACTVP
 70
    64
  9
$PINSBASE
 10
0.0
 20
0.0
 30
0.0
  9
$PLIMCHECK
 70
     0
  9
$PEXTMIN
 10
1.000000000000000E+20
 20
1.000000000000000E+20
 30
1.000000000000000E+20
  9
$PEXTMAX
 10
-1.000000000000000E+20
 20
-1.000000000000000E+20
 30
-1.000000000000000E+20
  9
$PLIMMIN
 10
0.0
 20
0.0
  9
$PLIMMAX
 10
0.0
 20
0.0
  9
$UNITMODE
 70
     0
  9
$VISRETAIN
 70
     1
  9
$PLINEGEN
 70
     0
  9
$PSLTSCALE
 70
     1
  9
$TREEDEPTH
 70
  3020
  9
$CMLSTYLE
  2
Standard
  9
$CMLJUST
 70
     0
  9
$CMLSCALE
 40
1.0
  9
$PROXYGRAPHICS
 70
     1
  9
$MEASUREMENT
 70
     0
  9
$CELWEIGHT
370
    -1
  9
$ENDCAPS
280
     0
  9
$JOINSTYLE
280
     0
  9
$LWDISPLAY
290
     0
  9
$INSUNITS
 70
     0
  9
$HYPERLINKBASE
  1

  9
$STYLESHEET
  1

  9
$XEDIT
290
     1
  9
$CEPSNTYPE
380
     0
  9
$PSTYLEMODE
290
     1
  9
$FINGERPRINTGUID
  2
{EA902546-B576-4B3C-B813-922B0B37CA55}
  9
$VERSIONGUID
  2
{FAEB1C32-E019-11D5-929B-00C0DF256EC4}
  9
$EXTNAMES
290
     1
  9
$PSVPSCALE
 40
0.0
  9
$OLESTARTUP
290
     0
  9
$SORTENTS
280
   127
  9
$INDEXCTL
280
     0
  9
$HIDETEXT
280
     1
  9
$XCLIPFRAME
280
     2
  9
$HALOGAP
280
     0
  9
$OBSCOLOR
 70
   257
  9
$OBSLTYPE
280
     0
  9
$INTERSECTIONDISPLAY
280
     0
  9
$INTERSECTIONCOLOR
 70
   257
  9
$DIMASSOC
280
     2
  9
$PROJECTNAME
  1

  9
$CAMERADISPLAY
290
     0
  9
$LENSLENGTH
 40
50.0
  9
$CAMERAHEIGHT
 40
0.0
  9
$STEPSPERSEC
 40
2.0
  9
$STEPSIZE
 40
6.0
  9
$3DDWFPREC
 40
2.0
  9
$PSOLWIDTH
 40
0.25
  9
$PSOLHEIGHT
 40
4.0
  9
$LOFTANG1
 40
1.570796326794897
  9
$LOFTANG2
 40
1.570796326794897
  9
$LOFTMAG1
 40
0.0
  9
$LOFTMAG2
 40
0.0
  9
$LOFTPARAM
 70
     7
  9
$LOFTNORMALS
280
     1
  9
$LATITUDE
 40
37.795
  9
$LONGITUDE
 40
-122.394
  9
$NORTHDIRECTION
 40
0.0
  9
$TIMEZONE
 70
 -8000
  9
$LIGHTGLYPHDISPLAY
280
     1
  9
$TILEMODELIGHTSYNCH
280
     1
  9
$SOLIDHIST
280
     0
  9
$SHOWHIST
280
     1
  9
$DWFFRAME
280
     2
  9
$DGNFRAME
280
     2
  9
$REALWORLDSCALE
290
     1
  9
$INTERFERECOLOR
 62
   256
  9
$CSHADOW
280
     0
  9
$SHADOWPLANELOCATION
 40
0.0
  0
ENDSEC
  0
SECTION
  2
CLASSES
  0
CLASS
  1
ACDBDICTIONARYWDFLT
  2
AcDbDictionaryWithDefault
  3
ObjectDBX Classes
 90
        0
 91
       24
280
     0
281
     0
  0
CLASS
  1
SCALE
  2
AcDbScale
  3
ObjectDBX Classes
 90
     1153
 91
       24
280
     0
281
     0
  0
CLASS
  1
VISUALSTYLE
  2
AcDbVisualStyle
  3
ObjectDBX Classes
 90
     4095
 91
       24
280
     0
281
     0
  0
CLASS
  1
MATERIAL
  2
AcDbMaterial
  3
ObjectDBX Classes
 90
     1153
 91
       24
280
     0
281
     0
  0
CLASS
  1
DICTIONARYVAR
  2
AcDbDictionaryVar
  3
ObjectDBX Classes
 90
        0
 91
        7
280
     0
281
     0
  0
CLASS
  1
ACDBPLACEHOLDER
  2
AcDbPlaceHolder
  3
ObjectDBX Classes
 90
        0
 91
        1
280
     0
281
     0
  0
CLASS
  1
LAYOUT
  2
AcDbLayout
  3
ObjectDBX Classes
 90
        0
 91
        1
280
     0
281
     0
  0
CLASS
  1
TABLESTYLE
  2
AcDbTableStyle
  3
ObjectDBX Classes
 90
     4095
 91
       24
280
     0
281
     0
  0
CLASS
  1
MLEADERSTYLE
  2
AcDbMLeaderStyle
  3
ACDB_MLEADERSTYLE_CLASS
 90
     4095
 91
       24
280
     0
281
     0
  0
CLASS
  1
SUN
  2
AcDbSun
  3
SCENEOE
 90
     1153
 91
       24
280
     0
281
     0
  0
CLASS
  1
SORTENTSTABLE
  2
AcDbSortentsTable
  3
ObjectDBX Classes
 90
        0
 91
        6
280
     0
281
     0
  0
CLASS
  1
CELLSTYLEMAP
  2
AcDbCellStyleMap
  3
ObjectDBX Classes
 90
     1152
 91
        6
280
     0
281
     0
  0
ENDSEC
  0
SECTION
  2
TABLES
  0
TABLE
  2
VPORT
  5
8
330
0
100
AcDbSymbolTable
 70
     1
  0
VPORT
  5
1DC
330
8
100
AcDbSymbolTableRecord
100
AcDbViewportTableRecord
  2
*Active
 70
     0
 10
0.0
 20
0.0
 11
1.0
 21
1.0
 12
47.64029608815258
 22
14.86059052907505
 13
0.0
 23
0.0
 14
0.5
 24
0.5
 15
0.5
 25
0.5
 16
0.0
 26
0.0
 36
1.0
 17
0.0
 27
0.0
 37
0.0
 40
293.4128593834423
 41
1.831002331002331
 42
50.0
 43
0.0
 44
0.0
 50
0.0
 51
0.0
 71
    16
 72
   100
 73
     1
 74
     3
 75
     0
 76
     0
 77
     0
 78
     0
281
     0
 65
     1
110
0.0
120
0.0
130
0.0
111
1.0
121
0.0
131
0.0
112
0.0
122
1.0
132
0.0
 79
     0
146
0.0
348
20E
 60
     3
 61
     5
292
     1
282
     1
141
0.0
142
0.0
 63
   256
361
2C1
  0
ENDTAB
  0
TABLE
  2
LTYPE
  5
5
330
0
100
AcDbSymbolTable
 70
     8
  0
LTYPE
  5
14
330
5
100
AcDbSymbolTableRecord
100
AcDbLinetypeTableRecord
  2
ByBlock
 70
     0
  3

 72
    65
 73
     0
 40
0.0
  0
LTYPE
  5
15
330
5
100
AcDbSymbolTableRecord
100
AcDbLinetypeTableRecord
  2
ByLayer
 70
     0
  3

 72
    65
 73
     0
 40
0.0
  0
LTYPE
  5
16
330
5
100
AcDbSymbolTableRecord
100
AcDbLinetypeTableRecord
  2
Continuous
 70
     0
  3
Solid line
 72
    65
 73
     0
 40
0.0
  0
LTYPE
  5
20
330
5
100
AcDbSymbolTableRecord
100
AcDbLinetypeTableRecord
  2
PUNKT
 70
     0
  3
..............
 72
    65
 73
     2
 40
1.5
 49
0.7
 74
     0
 49
-0.8
 74
     0
  0
LTYPE
  5
21
330
5
100
AcDbSymbolTableRecord
100
AcDbLinetypeTableRecord
  2
GESTRICHELT
 70
     0
  3
-- -- -- -- --
 72
    65
 73
     7
 40
2.8
 49
0.9
 74
     0
 49
0.0
 74
     0
 49
0.9
 74
     0
 49
0.0
 74
     0
 49
0.2
 74
     0
 49
0.0
 74
     0
 49
-0.8
 74
     0
  0
LTYPE
  5
22
330
5
100
AcDbSymbolTableRecord
100
AcDbLinetypeTableRecord
  2
STRICHPUNKT
 70
     0
  3
--.--.--.--.--
 72
    65
 73
     4
 40
8.8
 49
5.5
 74
     0
 49
-1.3
 74
     0
 49
0.7
 74
     0
 49
-1.3
 74
     0
  0
LTYPE
  5
25
330
5
100
AcDbSymbolTableRecord
100
AcDbLinetypeTableRecord
  2
PHANTOM
 70
     0
  3
--..--..--..--
 72
    65
 73
     6
 40
14.2
 49
7.0
 74
     0
 49
-1.8
 74
     0
 49
0.9
 74
     0
 49
-1.8
 74
     0
 49
0.9
 74
     0
 49
-1.8
 74
     0
  0
LTYPE
  5
256
330
5
100
AcDbSymbolTableRecord
100
AcDbLinetypeTableRecord
  2
DASH
 70
     0
  3
DASH _ _ _ _ _
 72
    65
 73
     2
 40
0.75
 49
0.4
 74
     0
 49
-0.35
 74
     0
  0
LTYPE
  5
257
330
5
100
AcDbSymbolTableRecord
100
AcDbLinetypeTableRecord
  2
LONGDASH_DASH
 70
     0
  3
LONGDASH_DASH __ . __ . __
 72
    65
 73
     4
 40
0.85
 49
0.4
 74
     0
 49
-0.2
 74
     0
 49
0.05
 74
     0
 49
-0.2
 74
     0
  0
LTYPE
  5
258
330
5
100
AcDbSymbolTableRecord
100
AcDbLinetypeTableRecord
  2
LONGDASH_DASH_DASH
 70
     0
  3
LONGDASH_DASH_DASH __ . . __ . . __
 72
    65
 73
     6
 40
1.1
 49
0.4
 74
     0
 49
-0.2
 74
     0
 49
0.05
 74
     0
 49
-0.2
 74
     0
 49
0.05
 74
     0
 49
-0.2
 74
     0
  0
ENDTAB
  0
TABLE
  2
LAYER
  5
2
102
{ACAD_XDICTIONARY
360
275
102
}
330
0
100
AcDbSymbolTable
 70
    17
  0
LAYER
  5
21F
330
2
100
AcDbSymbolTableRecord
100
AcDbLayerTableRecord
  2
200
 70
     0
 62
     2
  6
Continuous
370
    50
390
F
347
21D
348
0
  0
LAYER
  5
259
330
2
100
AcDbSymbolTableRecord
100
AcDbLayerTableRecord
  2
0
 70
     0
 62
     1
  6
Continuous
370
    -3
390
F
347
21D
348
0
  0
LAYER
  5
25A
330
2
100
AcDbSymbolTableRecord
100
AcDbLayerTableRecord
  2
1
 70
     0
 62
     4
  6
Continuous
370
    50
390
F
347
21D
348
0
  0
LAYER
  5
25B
330
2
100
AcDbSymbolTableRecord
100
AcDbLayerTableRecord
  2
2
 70
     0
 62
     7
  6
Continuous
370
    25
390
F
347
21D
348
0
  0
LAYER
  5
25C
330
2
100
AcDbSymbolTableRecord
100
AcDbLayerTableRecord
  2
3
 70
     0
 62
     1
  6
DASH
370
    35
390
F
347
21D
348
0
  0
LAYER
  5
25D
330
2
100
AcDbSymbolTableRecord
100
AcDbLayerTableRecord
  2
4
 70
     0
 62
     2
  6
LONGDASH_DASH
370
    25
390
F
347
21D
348
0
  0
LAYER
  5
25E
330
2
100
AcDbSymbolTableRecord
100
AcDbLayerTableRecord
  2
6
 70
     0
 62
     5
  6
Continuous
370
    -3
390
F
347
21D
348
0
  0
LAYER
  5
25F
330
2
100
AcDbSymbolTableRecord
100
AcDbLayerTableRecord
  2
CUT
 70
     0
 62
     1
  6
Continuous
370
    25
390
F
347
21D
348
0
  0
LAYER
  5
260
330
2
100
AcDbSymbolTableRecord
100
AcDbLayerTableRecord
  2
NOCUT
 70
     0
 62
     7
  6
Continuous
370
    25
390
F
347
21D
348
0
  0
LAYER
  5
261
330
2
100
AcDbSymbolTableRecord
100
AcDbLayerTableRecord
  2
SK1
 70
     0
 62
     4
  6
Continuous
370
    50
390
F
347
21D
348
0
  0
LAYER
  5
262
330
2
100
AcDbSymbolTableRecord
100
AcDbLayerTableRecord
  2
SK2
 70
     0
 62
     7
  6
Continuous
370
    25
390
F
347
21D
348
0
  0
LAYER
  5
263
330
2
100
AcDbSymbolTableRecord
100
AcDbLayerTableRecord
  2
SK3
 70
     0
 62
     1
  6
DASH
370
    35
390
F
347
21D
348
0
  0
LAYER
  5
264
330
2
100
AcDbSymbolTableRecord
100
AcDbLayerTableRecord
  2
SK4
 70
     0
 62
     2
  6
LONGDASH_DASH
370
    25
390
F
347
21D
348
0
  0
LAYER
  5
265
330
2
100
AcDbSymbolTableRecord
100
AcDbLayerTableRecord
  2
SK6
 70
     0
 62
     5
  6
Continuous
370
    -3
390
F
347
21D
348
0
  0
LAYER
  5
266
330
2
100
AcDbSymbolTableRecord
100
AcDbLayerTableRecord
  2
INFTOTAL
 70
     0
 62
     9
  6
Continuous
370
    18
390
F
347
21D
348
0
  0
LAYER
  5
2F5
330
2
100
AcDbSymbolTableRecord
100
AcDbLayerTableRecord
  2
7
 70
     0
 62
     5
  6
Continuous
370
    18
390
F
347
21D
348
0
1001
AcAecLayerStandard
1000

1000

  0
LAYER
  5
2F7
330
2
100
AcDbSymbolTableRecord
100
AcDbLayerTableRecord
  2
11
 70
     0
 62
     4
  6
Continuous
370
    50
390
F
347
21D
348
0
1001
AcAecLayerStandard
1000

1000

  0
ENDTAB
  0
TABLE
  2
STYLE
  5
3
330
0
100
AcDbSymbolTable
 70
     3
  0
STYLE
  5
11
330
3
100
AcDbSymbolTableRecord
100
AcDbTextStyleTableRecord
  2
Standard
 70
     0
 40
0.0
 41
1.0
 50
0.0
 71
     0
 42
0.2
  3
txt
  4

  0
STYLE
  5
21E
330
3
100
AcDbSymbolTableRecord
100
AcDbTextStyleTableRecord
  2
BMG_Text
 70
     0
 40
3.5
 41
1.0
 50
0.0
 71
     0
 42
0.2
  3
monos.ttf
  4

1001
ACAD
1000
Monospac821 BT
1071
       49
  0
STYLE
  5
2FC
330
3
100
AcDbSymbolTableRecord
100
AcDbTextStyleTableRecord
  2
SLDTEXTSTYLE0
 70
     0
 40
0.0
 41
0.605
 50
0.0
 71
     0
 42
0.2
  3
TXT
  4

  0
ENDTAB
  0
TABLE
  2
VIEW
  5
6
330
0
100
AcDbSymbolTable
 70
     0
  0
ENDTAB
  0
TABLE
  2
UCS
  5
7
330
0
100
AcDbSymbolTable
 70
     0
  0
ENDTAB
  0
TABLE
  2
APPID
  5
9
330
0
100
AcDbSymbolTable
 70
     3
  0
APPID
  5
12
330
9
100
AcDbSymbolTableRecord
100
AcDbRegAppTableRecord
  2
ACAD
 70
     0
  0
APPID
  5
2F6
330
9
100
AcDbSymbolTableRecord
100
AcDbRegAppTableRecord
  2
AcAecLayerStandard
 70
     0
  0
APPID
  5
2FF
330
9
100
AcDbSymbolTableRecord
100
AcDbRegAppTableRecord
  2
PE_URL
 70
     0
  0
ENDTAB
  0
TABLE
  2
DIMSTYLE
  5
A
330
0
100
AcDbSymbolTable
 70
     6
100
AcDbDimStyleTable
  0
DIMSTYLE
105
28
330
A
100
AcDbSymbolTableRecord
100
AcDbDimStyleTableRecord
  2
Standard
 70
     0
178
     0
340
11
  0
DIMSTYLE
105
2F8
330
A
100
AcDbSymbolTableRecord
100
AcDbDimStyleTableRecord
  2
Matthias
 70
     0
 41
3.0
 44
2.0
 73
     0
 77
     1
140
3.0
147
2.0
178
     0
340
11
  0
DIMSTYLE
105
2FA
102
{ACAD_REACTORS
102
}
330
A
100
AcDbSymbolTableRecord
100
AcDbDimStyleTableRecord
  2
ISO-25
 70
     0
 41
2.5
 42
0.625
 43
3.75
 44
1.25
 73
     0
 74
     0
 77
     1
 78
     8
140
2.5
141
2.5
143
0.0393700787
147
0.625
171
     3
172
     1
178
     0
271
     2
272
     2
274
     3
278
    44
283
     0
284
     8
340
11
  0
DIMSTYLE
105
2FB
330
A
100
AcDbSymbolTableRecord
100
AcDbDimStyleTableRecord
  2
SLDDIMSTYLE0
 70
     0
 41
3.5
 44
0.0
 45
0.000000001
 73
     0
 74
     0
 77
     1
 78
    12
 79
     3
140
3.5
144
0.5
147
0.875
173
     1
178
     0
271
     2
272
     1
276
     2
284
    12
340
2FC
  0
DIMSTYLE
105
2FD
330
A
100
AcDbSymbolTableRecord
100
AcDbDimStyleTableRecord
  2
SLDDIMSTYLE1
 70
     0
 41
3.5
 44
0.0
 45
0.000000001
 73
     0
 74
     0
 77
     1
 78
    12
 79
     3
140
3.5
144
0.5
147
0.875
173
     1
178
     0
271
     2
272
     3
276
     2
284
    12
340
2FC
  0
DIMSTYLE
105
2FE
330
A
100
AcDbSymbolTableRecord
100
AcDbDimStyleTableRecord
  2
SLDDIMSTYLE2
 70
     0
 41
3.5
 44
0.0
 45
0.000000001
 73
     0
 74
     0
 77
     1
 78
    12
 79
     3
140
3.5
147
0.875
173
     1
178
     0
271
     2
272
     0
276
     2
284
    12
340
2FC
  0
ENDTAB
  0
TABLE
  2
BLOCK_RECORD
  5
1
330
0
100
AcDbSymbolTable
 70
     3
  0
BLOCK_RECORD
  5
1D
102
{ACAD_XDICTIONARY
360
579
102
}
330
1
100
AcDbSymbolTableRecord
100
AcDbBlockTableRecord
  2
*Model_Space
340
1E
 70
     0
280
     1
281
     0
  0
BLOCK_RECORD
  5
1B
330
1
100
AcDbSymbolTableRecord
100
AcDbBlockTableRecord
  2
*Paper_Space
340
1C
 70
     0
280
     1
281
     0
  0
ENDTAB
  0
ENDSEC
  0
SECTION
  2
BLOCKS
  0
BLOCK
  5
207
330
1D
100
AcDbEntity
  8
0
100
AcDbBlockBegin
  2
*Model_Space
 70
     0
 10
0.0
 20
0.0
 30
0.0
  3
*Model_Space
  1

  0
ENDBLK
  5
208
330
1D
100
AcDbEntity
  8
0
100
AcDbBlockEnd
  0
BLOCK
  5
205
330
1B
100
AcDbEntity
 67
     1
  8
0
100
AcDbBlockBegin
  2
*Paper_Space
 70
     0
 10
0.0
 20
0.0
 30
0.0
  3
*Paper_Space
  1

  0
ENDBLK
  5
206
330
1B
100
AcDbEntity
 67
     1
  8
0
100
AcDbBlockEnd
  0
ENDSEC
  0
SECTION
  2
ENTITIES
  0
ARC
  5
29
330
1D
100
AcDbEntity
  8
3
100
AcDbCircle
 10
78.499988817
 20
-57.499981932
 30
0.0
 40
19.999980442
100
AcDbArc
 50
89.99996045000002
 51
136.467917958
  0
LINE
  5
2A
330
1D
100
AcDbEntity
  8
3
100
AcDbLine
 10
78.500002623
 20
-37.50000149
 30
0.0
 11
82.999996841
 21
-37.50000149
 31
0.0
  0
ARC
  5
2B
330
1D
100
AcDbEntity
  8
3
100
AcDbCircle
 10
78.51537727
 20
-57.50823692
 30
0.0
 40
20.016823141
100
AcDbArc
 50
136.481125519
 51
180.0
  0
LINE
  5
2C
330
1D
100
AcDbEntity
  8
3
100
AcDbLine
 10
58.499999344
 20
-62.735557556
 30
0.0
 11
58.498554129
 21
-57.50823692
 31
0.0
  0
LINE
  5
2D
330
1D
100
AcDbEntity
  8
3
100
AcDbLine
 10
48.722334206
 20
-62.735557556
 30
0.0
 11
58.499999344
 21
-62.735557556
 31
0.0
  0
LINE
  5
2E
330
1D
100
AcDbEntity
  8
3
100
AcDbLine
 10
64.365225595
 20
-43.350505393
 30
0.0
 11
58.100506663
 21
-37.085786462
 31
0.0
  0
LINE
  5
2F
330
1D
100
AcDbEntity
  8
3
100
AcDbLine
 10
66.585786641
 20
-28.600504622
 30
0.0
 11
75.684464358
 21
-37.699172865
 31
0.0
  0
LINE
  5
30
330
1D
100
AcDbEntity
  8
3
100
AcDbLine
 10
66.585786641
 20
-28.600504622
 30
0.0
 11
58.100506663
 21
-37.085786462
 31
0.0
  0
LINE
  5
31
330
1D
100
AcDbEntity
  8
3
100
AcDbLine
 10
63.692368567
 20
-29.9497284
 30
0.0
 11
66.585786641
 21
-28.600504622
 31
0.0
  0
LINE
  5
32
330
1D
100
AcDbEntity
  8
3
100
AcDbLine
 10
59.449728578
 20
-34.192368388
 30
0.0
 11
63.692368567
 21
-29.9497284
 31
0.0
  0
LINE
  5
33
330
1D
100
AcDbEntity
  8
3
100
AcDbLine
 10
58.100506663
 20
-37.085786462
 30
0.0
 11
59.449728578
 21
-34.192368388
 31
0.0
  0
LINE
  5
34
330
1D
100
AcDbEntity
  8
3
100
AcDbLine
 10
59.449728578
 20
-34.192368388
 30
0.0
 11
36.307360046
 21
-11.049999855
 31
0.0
  0
LINE
  5
35
330
1D
100
AcDbEntity
  8
4
100
AcDbLine
 10
36.752131644
 20
-7.252131746
 30
0.0
 11
70.410971069
 21
-40.910970544
 31
0.0
  0
LINE
  5
36
330
1D
100
AcDbEntity
  8
3
100
AcDbLine
 10
39.739275194
 20
-5.996635472
 30
0.0
 11
63.692368567
 21
-29.9497284
 31
0.0
  0
LINE
  5
37
330
1D
100
AcDbEntity
  8
SK1
100
AcDbLine
 10
-44.0
 20
-23.0
 30
0.0
 11
-1.112182617
 21
-23.0
 31
0.0
  0
LINE
  5
38
330
1D
100
AcDbEntity
  8
SK1
100
AcDbLine
 10
-1.112182617
 20
-23.0
 30
0.0
 11
-1.112182617
 21
23.0
 31
0.0
  0
LINE
  5
39
330
1D
100
AcDbEntity
  8
SK1
100
AcDbLine
 10
-1.112182617
 20
23.0
 30
0.0
 11
-0.429334532
 21
22.817024411
 31
0.0
  0
ARC
  5
3A
330
1D
100
AcDbEntity
  8
SK1
100
AcDbCircle
 10
-0.299926758
 20
23.299987793
 30
0.0
 40
0.5
100
AcDbArc
 50
255.000207424
 51
306.859407195
  0
LINE
  5
3B
330
1D
100
AcDbEntity
  8
4
100
AcDbLine
 10
0.0000000000000142
 20
0.0
 30
0.0
 11
113.1116973937081
 21
0.0
 31
0.0
  0
LINE
  5
3C
330
1D
100
AcDbEntity
  8
SK1
100
AcDbLine
 10
-43.99987793
 20
23.0
 30
0.0
 11
-1.112182617
 21
23.0
 31
0.0
  0
LINE
  5
3D
330
1D
100
AcDbEntity
  8
SK1
100
AcDbLine
 10
-0.429321289
 20
-22.817016602
 30
0.0
 11
-1.112182617
 21
-23.0
 31
0.0
  0
ARC
  5
3E
330
1D
100
AcDbEntity
  8
SK1
100
AcDbCircle
 10
-0.299926758
 20
-23.299987793
 30
0.0
 40
0.5
100
AcDbArc
 50
53.140592805
 51
104.999792576
  0
LINE
  5
3F
330
1D
100
AcDbEntity
  8
SK3
100
AcDbLine
 10
-21.999992022
 20
-12.000015259
 30
0.0
 11
-18.267941215
 21
-11.000015259
 31
0.0
  0
LINE
  5
40
330
1D
100
AcDbEntity
  8
SK3
100
AcDbLine
 10
-46.999992022
 20
-12.350036621
 30
0.0
 11
-46.220573077
 21
-11.0
 31
0.0
  0
LINE
  5
42
330
1D
100
AcDbEntity
  8
SK3
100
AcDbLine
 10
-46.220573077
 20
11.000015259
 30
0.0
 11
-46.999992022
 21
12.349990845
 31
0.0
  0
LINE
  5
44
330
1D
100
AcDbEntity
  8
SK3
100
AcDbLine
 10
-50.0
 20
-12.750004606
 30
0.0
 11
-49.307242999
 21
-12.350036621
 31
0.0
  0
LINE
  5
45
330
1D
100
AcDbEntity
  8
SK3
100
AcDbLine
 10
-49.307242999
 20
-12.350036621
 30
0.0
 11
-49.307120929
 21
12.349990845
 31
0.0
  0
LINE
  5
46
330
1D
100
AcDbEntity
  8
SK3
100
AcDbLine
 10
-49.307120929
 20
12.349990845
 30
0.0
 11
-50.0
 21
12.750019865
 31
0.0
  0
LINE
  5
47
330
1D
100
AcDbEntity
  8
SK3
100
AcDbLine
 10
-49.307120929
 20
12.349990845
 30
0.0
 11
-46.999992022
 21
12.349990845
 31
0.0
  0
LINE
  5
48
330
1D
100
AcDbEntity
  8
SK3
100
AcDbLine
 10
-46.999992022
 20
12.349990845
 30
0.0
 11
-46.999992022
 21
-12.350036621
 31
0.0
  0
LINE
  5
49
330
1D
100
AcDbEntity
  8
SK3
100
AcDbLine
 10
-46.999992022
 20
-12.350036621
 30
0.0
 11
-49.307120929
 21
-12.350036621
 31
0.0
  0
LINE
  5
4A
330
1D
100
AcDbEntity
  8
SK3
100
AcDbLine
 10
-49.307120929
 20
-12.350036621
 30
0.0
 11
-49.307120929
 21
12.349990845
 31
0.0
  0
LINE
  5
4B
330
1D
100
AcDbEntity
  8
3
100
AcDbLine
 10
0.0000000000000071
 20
-11.0
 30
0.0
 11
37.900000811
 21
-11.0
 31
0.0
  0
LINE
  5
4C
330
1D
100
AcDbEntity
  8
3
100
AcDbLine
 10
37.900000811
 20
11.000015259
 30
0.0
 11
0.0
 21
11.000015259
 31
0.0
  0
LINE
  5
4D
330
1D
100
AcDbEntity
  8
SK3
100
AcDbLine
 10
-46.220573077
 20
11.000015259
 30
0.0
 11
-46.220573077
 21
-11.0
 31
0.0
  0
LINE
  5
4E
330
1D
100
AcDbEntity
  8
SK3
100
AcDbLine
 10
-21.999992022
 20
-12.0
 30
0.0
 11
-21.999992022
 21
-6.466059192
 31
0.0
  0
LINE
  5
4F
330
1D
100
AcDbEntity
  8
SK3
100
AcDbLine
 10
-21.999992022
 20
6.466059192
 30
0.0
 11
-21.999992022
 21
12.000015259
 31
0.0
  0
LINE
  5
50
330
1D
100
AcDbEntity
  8
11
100
AcDbLine
 10
-21.999992022
 20
12.000015259
 30
0.0
 11
-46.797843585
 21
12.000015259
 31
0.0
  0
LINE
  5
51
330
1D
100
AcDbEntity
  8
11
100
AcDbLine
 10
-46.797843585
 20
-12.0
 30
0.0
 11
-21.999992022
 21
-12.0
 31
0.0
  0
LINE
  5
52
330
1D
100
AcDbEntity
  8
SK3
100
AcDbLine
 10
-21.999992022
 20
12.000015259
 30
0.0
 11
-18.267941215
 21
11.000015259
 31
0.0
  0
LINE
  5
53
330
1D
100
AcDbEntity
  8
SK2
100
AcDbLine
 10
-70.0
 20
-45.0
 30
0.0
 11
1.0
 21
-45.0
 31
0.0
  0
LINE
  5
54
330
1D
100
AcDbEntity
  8
SK2
100
AcDbLine
 10
-68.0
 20
-45.0
 30
0.0
 11
-68.45
 21
-41.5
 31
0.0
  0
LINE
  5
55
330
1D
100
AcDbEntity
  8
SK2
100
AcDbLine
 10
-68.45
 20
-41.5
 30
0.0
 11
-67.55
 21
-41.5
 31
0.0
  0
LINE
  5
56
330
1D
100
AcDbEntity
  8
SK2
100
AcDbLine
 10
-67.55
 20
-41.5
 30
0.0
 11
-68.0
 21
-45.0
 31
0.0
  0
LINE
  5
57
330
1D
100
AcDbEntity
  8
SK2
100
AcDbLine
 10
-70.0
 20
45.0
 30
0.0
 11
1.0
 21
45.0
 31
0.0
  0
LINE
  5
58
330
1D
100
AcDbEntity
  8
SK2
100
AcDbLine
 10
-68.0
 20
45.0
 30
0.0
 11
-67.55
 21
41.5
 31
0.0
  0
LINE
  5
59
330
1D
100
AcDbEntity
  8
SK2
100
AcDbLine
 10
-67.55
 20
41.5
 30
0.0
 11
-68.45
 21
41.5
 31
0.0
  0
LINE
  5
5A
330
1D
100
AcDbEntity
  8
SK2
100
AcDbLine
 10
-68.45
 20
41.5
 30
0.0
 11
-68.0
 21
45.0
 31
0.0
  0
LINE
  5
5B
330
1D
100
AcDbEntity
  8
SK2
100
AcDbLine
 10
-68.0
 20
-41.5
 30
0.0
 11
-68.0
 21
41.5
 31
0.0
  0
TEXT
  5
5C
330
1D
100
AcDbEntity
  8
SK2
100
AcDbText
 10
-69.5
 20
0.139998994
 30
0.0
 40
3.5
  1
90
 50
90.0
  7
BMG_Text
100
AcDbText
  0
CIRCLE
  5
5D
330
1D
100
AcDbEntity
  8
SK2
100
AcDbCircle
 10
-70.75
 20
-2.110001006
 30
0.0
 40
1.25
  0
LINE
  5
5E
330
1D
100
AcDbEntity
  8
SK2
100
AcDbLine
 10
-69.5
 20
-3.360001006
 30
0.0
 11
-72.0
 21
-0.860001006
 31
0.0
  0
LINE
  5
5F
330
1D
100
AcDbEntity
  8
SK2
100
AcDbLine
 10
-62.0
 20
-23.0
 30
0.0
 11
-44.0
 21
-23.0
 31
0.0
  0
LINE
  5
60
330
1D
100
AcDbEntity
  8
SK2
100
AcDbLine
 10
-60.0
 20
-23.0
 30
0.0
 11
-60.45
 21
-19.5
 31
0.0
  0
LINE
  5
61
330
1D
100
AcDbEntity
  8
SK2
100
AcDbLine
 10
-60.45
 20
-19.5
 30
0.0
 11
-59.55
 21
-19.5
 31
0.0
  0
LINE
  5
62
330
1D
100
AcDbEntity
  8
SK2
100
AcDbLine
 10
-59.55
 20
-19.5
 30
0.0
 11
-60.0
 21
-23.0
 31
0.0
  0
LINE
  5
63
330
1D
100
AcDbEntity
  8
SK2
100
AcDbLine
 10
-62.0
 20
23.0
 30
0.0
 11
-44.0
 21
23.0
 31
0.0
  0
LINE
  5
64
330
1D
100
AcDbEntity
  8
SK2
100
AcDbLine
 10
-60.0
 20
23.0
 30
0.0
 11
-59.55
 21
19.5
 31
0.0
  0
LINE
  5
65
330
1D
100
AcDbEntity
  8
SK2
100
AcDbLine
 10
-59.55
 20
19.5
 30
0.0
 11
-60.45
 21
19.5
 31
0.0
  0
LINE
  5
66
330
1D
100
AcDbEntity
  8
SK2
100
AcDbLine
 10
-60.45
 20
19.5
 30
0.0
 11
-60.0
 21
23.0
 31
0.0
  0
LINE
  5
67
330
1D
100
AcDbEntity
  8
SK2
100
AcDbLine
 10
-60.0
 20
-19.5
 30
0.0
 11
-60.0
 21
19.5
 31
0.0
  0
TEXT
  5
68
330
1D
100
AcDbEntity
  8
SK2
100
AcDbText
 10
-61.5
 20
0.139999486
 30
0.0
 40
3.5
  1
46
 50
90.0
  7
BMG_Text
100
AcDbText
  0
CIRCLE
  5
69
330
1D
100
AcDbEntity
  8
SK2
100
AcDbCircle
 10
-62.75
 20
-2.110000514
 30
0.0
 40
1.25
  0
LINE
  5
6A
330
1D
100
AcDbEntity
  8
SK2
100
AcDbLine
 10
-61.5
 20
-3.360000514
 30
0.0
 11
-64.0
 21
-0.860000514
 31
0.0
  0
TEXT
  5
6B
330
1D
100
AcDbEntity
  8
SK6
100
AcDbText
 10
-28.4277336829157
 20
-52.57267987954135
 30
0.0
 40
3.5
  1
319.703
  7
BMG_Text
100
AcDbText
  0
CIRCLE
  5
6C
330
1D
100
AcDbEntity
  8
SK1
100
AcDbCircle
 10
-17.932
 20
0.0
 30
0.0
 40
7.5
  0
LINE
  5
6D
330
1D
100
AcDbEntity
  8
SK1
100
AcDbLine
 10
-44.0
 20
-0.3
 30
0.0
 11
-44.0
 21
-23.0
 31
0.0
  0
LINE
  5
6E
330
1D
100
AcDbEntity
  8
SK1
100
AcDbLine
 10
-44.0
 20
23.0
 30
0.0
 11
-46.605707514
 21
22.633791691
 31
0.0
  0
LINE
  5
6F
330
1D
100
AcDbEntity
  8
SK1
100
AcDbLine
 10
-46.605707514
 20
22.633791691
 30
0.0
 11
-48.579186621
 21
22.981769304
 31
0.0
  0
ARC
  5
70
330
1D
100
AcDbEntity
  8
SK1
100
AcDbCircle
 10
-48.787564435
 20
21.8
 30
0.0
 40
1.2
100
AcDbArc
 50
80.0
 51
149.999999999
  0
LINE
  5
71
330
1D
100
AcDbEntity
  8
SK1
100
AcDbLine
 10
-49.826794919
 20
22.4
 30
0.0
 11
-50.0
 21
22.1
 31
0.0
  0
LINE
  5
72
330
1D
100
AcDbEntity
  8
SK1
100
AcDbLine
 10
-50.0
 20
22.1
 30
0.0
 11
-50.0
 21
-22.1
 31
0.0
  0
LINE
  5
73
330
1D
100
AcDbEntity
  8
SK1
100
AcDbLine
 10
-50.0
 20
-22.1
 30
0.0
 11
-49.826794919
 21
-22.4
 31
0.0
  0
ARC
  5
74
330
1D
100
AcDbEntity
  8
SK1
100
AcDbCircle
 10
-48.787564435
 20
-21.8
 30
0.0
 40
1.2
100
AcDbArc
 50
210.0
 51
279.999999999
  0
LINE
  5
75
330
1D
100
AcDbEntity
  8
SK1
100
AcDbLine
 10
-48.579186622
 20
-22.981769304
 30
0.0
 11
-46.605707514
 21
-22.633791691
 31
0.0
  0
LINE
  5
76
330
1D
100
AcDbEntity
  8
SK1
100
AcDbLine
 10
-46.605707514
 20
-22.633791691
 30
0.0
 11
-44.0
 21
-23.0
 31
0.0
  0
LINE
  5
77
330
1D
100
AcDbEntity
  8
SK1
100
AcDbLine
 10
-44.0
 20
0.3
 30
0.0
 11
-44.0
 21
23.0
 31
0.0
  0
LINE
  5
78
330
1D
100
AcDbEntity
  8
SK1
100
AcDbLine
 10
-46.605707514
 20
-22.633791691
 30
0.0
 11
-46.605707514
 21
22.633791691
 31
0.0
  0
LINE
  5
7A
330
1D
100
AcDbEntity
  8
1
100
AcDbLine
 10
82.999996841
 20
28.635641547
 30
0.0
 11
61.3
 21
28.635642127
 31
0.0
  0
ARC
  5
7B
330
1D
100
AcDbEntity
  8
1
100
AcDbCircle
 10
104.51300111
 20
8.591196143
 30
0.0
 40
47.635525396
100
AcDbArc
 50
155.115667996
 51
157.461812867
  0
ARC
  5
7C
330
1D
100
AcDbEntity
  8
1
100
AcDbCircle
 10
114.992912704
 20
4.242089201
 30
0.0
 40
58.977955918
100
AcDbArc
 50
157.461812867
 51
166.864202143
  0
ARC
  5
7D
330
1D
100
AcDbEntity
  8
1
100
AcDbCircle
 10
133.169167667
 20
0.0
 30
0.0
 40
77.642670359
100
AcDbArc
 50
166.863936892
 51
185.98209961
  0
LINE
  5
7F
330
1D
100
AcDbEntity
  8
1
100
AcDbLine
 10
55.940717459
 20
-8.092643693
 30
0.0
 11
61.300583184
 21
-60.032803565
 31
0.0
  0
LINE
  5
80
330
1D
100
AcDbEntity
  8
1
100
AcDbLine
 10
55.16641587
 20
-55.313769728
 30
0.0
 11
49.149621278
 21
-50.449438393
 31
0.0
  0
LINE
  5
81
330
1D
100
AcDbEntity
  8
1
100
AcDbLine
 10
49.149621278
 20
-50.449438393
 30
0.0
 11
43.2930924
 21
-45.402880758
 31
0.0
  0
LINE
  5
82
330
1D
100
AcDbEntity
  8
1
100
AcDbLine
 10
39.816997945
 20
-42.22124815
 30
0.0
 11
36.432791501
 21
-38.933474571
 31
0.0
  0
LINE
  5
83
330
1D
100
AcDbEntity
  8
1
100
AcDbLine
 10
36.432791501
 20
-38.933474571
 30
0.0
 11
33.183276653
 21
-35.519838333
 31
0.0
  0
LINE
  5
84
330
1D
100
AcDbEntity
  8
1
100
AcDbLine
 10
33.183276653
 20
-35.519838333
 30
0.0
 11
30.111249536
 21
-31.960621476
 31
0.0
  0
LINE
  5
85
330
1D
100
AcDbEntity
  8
1
100
AcDbLine
 10
30.111249536
 20
-31.960621476
 30
0.0
 11
27.259517461
 21
-28.236098588
 31
0.0
  0
LINE
  5
86
330
1D
100
AcDbEntity
  8
1
100
AcDbLine
 10
27.259517461
 20
-28.236098588
 30
0.0
 11
25.575881824
 21
-25.751465932
 31
0.0
  0
LINE
  5
87
330
1D
100
AcDbEntity
  8
1
100
AcDbLine
 10
25.575881824
 20
-25.751465932
 30
0.0
 11
24.036973715
 21
-23.178080097
 31
0.0
  0
LINE
  5
88
330
1D
100
AcDbEntity
  8
1
100
AcDbLine
 10
24.036973715
 20
-23.178080097
 30
0.0
 11
22.65226841
 21
-20.46437189
 31
0.0
  0
LINE
  5
89
330
1D
100
AcDbEntity
  8
1
100
AcDbLine
 10
22.65226841
 20
-20.46437189
 30
0.0
 11
21.488411352
 21
-17.652994022
 31
0.0
  0
LINE
  5
8A
330
1D
100
AcDbEntity
  8
1
100
AcDbLine
 10
21.488411352
 20
-17.652994022
 30
0.0
 11
20.751791075
 21
-15.35970252
 31
0.0
  0
LINE
  5
8B
330
1D
100
AcDbEntity
  8
1
100
AcDbLine
 10
20.751791075
 20
-15.35970252
 30
0.0
 11
20.201724023
 21
-13.016701676
 31
0.0
  0
LINE
  5
8C
330
1D
100
AcDbEntity
  8
1
100
AcDbLine
 10
20.201724023
 20
-13.016701676
 30
0.0
 11
19.851306453
 21
-10.565232486
 31
0.0
  0
LINE
  5
8D
330
1D
100
AcDbEntity
  8
1
100
AcDbLine
 10
19.851306453
 20
-10.565232486
 30
0.0
 11
19.732050598
 21
-8.092643693
 31
0.0
  0
LINE
  5
8E
330
1D
100
AcDbEntity
  8
1
100
AcDbLine
 10
19.732050598
 20
-8.092643693
 30
0.0
 11
19.732050598
 21
43.724782765
 31
0.0
  0
LINE
  5
8F
330
1D
100
AcDbEntity
  8
1
100
AcDbLine
 10
19.732050598
 20
43.724782765
 30
0.0
 11
19.858302548
 21
44.212698936
 31
0.0
  0
LINE
  5
90
330
1D
100
AcDbEntity
  8
1
100
AcDbLine
 10
19.858302548
 20
44.212698936
 30
0.0
 11
20.215040073
 21
44.775310904
 31
0.0
  0
LINE
  5
91
330
1D
100
AcDbEntity
  8
1
100
AcDbLine
 10
20.215040073
 20
44.775310904
 30
0.0
 11
20.945563912
 21
45.561697334
 31
0.0
  0
LINE
  5
92
330
1D
100
AcDbEntity
  8
1
100
AcDbLine
 10
20.945563912
 20
45.561697334
 30
0.0
 11
21.905446425
 21
46.396415681
 31
0.0
  0
LINE
  5
93
330
1D
100
AcDbEntity
  8
1
100
AcDbLine
 10
21.905446425
 20
46.396415681
 30
0.0
 11
23.219281807
 21
47.398980707
 31
0.0
  0
LINE
  5
94
330
1D
100
AcDbEntity
  8
1
100
AcDbLine
 10
23.219281807
 20
47.398980707
 30
0.0
 11
24.683983996
 21
48.421360552
 31
0.0
  0
LINE
  5
95
330
1D
100
AcDbEntity
  8
1
100
AcDbLine
 10
24.683983996
 20
48.421360552
 30
0.0
 11
26.245782152
 21
49.450218677
 31
0.0
  0
LINE
  5
96
330
1D
100
AcDbEntity
  8
1
100
AcDbLine
 10
26.245782152
 20
49.450218677
 30
0.0
 11
28.956593946
 21
51.158100367
 31
0.0
  0
LINE
  5
97
330
1D
100
AcDbEntity
  8
1
100
AcDbLine
 10
28.956593946
 20
51.158100367
 30
0.0
 11
31.791895628
 21
52.878014743
 31
0.0
  0
LINE
  5
98
330
1D
100
AcDbEntity
  8
1
100
AcDbLine
 10
31.791895628
 20
52.878014743
 30
0.0
 11
34.709624946
 21
54.604925215
 31
0.0
  0
LINE
  5
99
330
1D
100
AcDbEntity
  8
1
100
AcDbLine
 10
34.709624946
 20
54.604925215
 30
0.0
 11
37.667714059
 21
56.333780289
 31
0.0
  0
LINE
  5
9A
330
1D
100
AcDbEntity
  8
1
100
AcDbLine
 10
37.667714059
 20
56.333780289
 30
0.0
 11
41.328720748
 21
58.461602777
 31
0.0
  0
LINE
  5
9B
330
1D
100
AcDbEntity
  8
1
100
AcDbLine
 10
82.999996841
 20
69.500006735
 30
0.0
 11
82.500003278
 21
70.000000298
 31
0.0
  0
LINE
  5
9C
330
1D
100
AcDbEntity
  8
1
100
AcDbLine
 10
82.500003278
 20
70.000000298
 30
0.0
 11
61.301268637
 21
70.000000298
 31
0.0
  0
LINE
  5
9D
330
1D
100
AcDbEntity
  8
1
100
AcDbLine
 10
61.301268637
 20
70.000000298
 30
0.0
 11
17.999999225
 21
45.000001788
 31
0.0
  0
LINE
  5
9E
330
1D
100
AcDbEntity
  8
1
100
AcDbLine
 10
17.999999225
 20
45.000001788
 30
0.0
 11
0.500000024
 21
45.000001788
 31
0.0
  0
LINE
  5
9F
330
1D
100
AcDbEntity
  8
1
100
AcDbLine
 10
0.500000024
 20
45.000001788
 30
0.0
 11
0.0
 21
44.500000775
 31
0.0
  0
LINE
  5
A1
330
1D
100
AcDbEntity
  8
1
100
AcDbLine
 10
0.0
 20
44.500000775
 30
0.0
 11
0.0
 21
-44.500000775
 31
0.0
  0
LINE
  5
A2
330
1D
100
AcDbEntity
  8
1
100
AcDbLine
 10
0.0
 20
-44.500000775
 30
0.0
 11
0.500000024
 21
-45.000001788
 31
0.0
  0
LINE
  5
A3
330
1D
100
AcDbEntity
  8
1
100
AcDbLine
 10
0.500000024
 20
-45.000001788
 30
0.0
 11
17.999999225
 21
-45.000001788
 31
0.0
  0
LINE
  5
A4
330
1D
100
AcDbEntity
  8
1
100
AcDbLine
 10
17.999999225
 20
-45.000001788
 30
0.0
 11
61.301268637
 21
-70.000000298
 31
0.0
  0
LINE
  5
A5
330
1D
100
AcDbEntity
  8
1
100
AcDbLine
 10
61.301268637
 20
-70.000000298
 30
0.0
 11
61.300583184
 21
-60.033325106
 31
0.0
  0
LINE
  5
A6
330
1D
100
AcDbEntity
  8
1
100
AcDbLine
 10
61.300583184
 20
-60.033325106
 30
0.0
 11
82.500003278
 21
-60.033325106
 31
0.0
  0
LINE
  5
A7
330
1D
100
AcDbEntity
  8
1
100
AcDbLine
 10
61.301268637
 20
-70.000000298
 30
0.0
 11
82.503417472
 21
-69.99658178
 31
0.0
  0
LINE
  5
A8
330
1D
100
AcDbEntity
  8
1
100
AcDbLine
 10
82.503417472
 20
-69.99658178
 30
0.0
 11
82.800000906
 21
-69.699622691
 31
0.0
  0
LINE
  5
A9
330
1D
100
AcDbEntity
  8
1
100
AcDbLine
 10
82.999996841
 20
69.500006735
 30
0.0
 11
82.999996841
 21
-69.699622691
 31
0.0
  0
LINE
  5
AA
330
1D
100
AcDbEntity
  8
1
100
AcDbLine
 10
48.722334206
 20
62.735557556
 30
0.0
 11
58.499999344
 21
62.735557556
 31
0.0
  0
LINE
  5
AB
330
1D
100
AcDbEntity
  8
1
100
AcDbLine
 10
58.499999344
 20
62.735557556
 30
0.0
 11
58.498554129
 21
57.50823692
 31
0.0
  0
ARC
  5
AC
330
1D
100
AcDbEntity
  8
1
100
AcDbCircle
 10
78.51537727
 20
57.50823692
 30
0.0
 40
20.016823141
100
AcDbArc
 50
180.0
 51
223.518874481
  0
ARC
  5
AD
330
1D
100
AcDbEntity
  8
1
100
AcDbCircle
 10
78.499988817
 20
57.499981933
 30
0.0
 40
19.999980442
100
AcDbArc
 50
223.532082042
 51
270.0000395499999
  0
LINE
  5
AE
330
1D
100
AcDbEntity
  8
3
100
AcDbLine
 10
64.365225595
 20
43.350505393
 30
0.0
 11
58.100506663
 21
37.085786462
 31
0.0
  0
LINE
  5
AF
330
1D
100
AcDbEntity
  8
3
100
AcDbLine
 10
58.100506663
 20
37.085786462
 30
0.0
 11
59.449728578
 21
34.192368388
 31
0.0
  0
LINE
  5
B0
330
1D
100
AcDbEntity
  8
3
100
AcDbLine
 10
59.449728578
 20
34.192368388
 30
0.0
 11
36.307360046
 21
11.049999855
 31
0.0
  0
LINE
  5
B1
330
1D
100
AcDbEntity
  8
3
100
AcDbLine
 10
37.900006364
 20
-11.0
 30
0.0
 11
41.9036793
 21
0.0
 31
0.0
  0
LINE
  5
B2
330
1D
100
AcDbEntity
  8
3
100
AcDbLine
 10
41.9036793
 20
0.0
 30
0.0
 11
37.900000811
 21
11.000015259
 31
0.0
  0
LINE
  5
B3
330
1D
100
AcDbEntity
  8
3
100
AcDbLine
 10
37.900000811
 20
11.000015259
 30
0.0
 11
37.900000811
 21
-11.0
 31
0.0
  0
LINE
  5
B5
330
1D
100
AcDbEntity
  8
1
100
AcDbLine
 10
17.999999225
 20
45.000001788
 30
0.0
 11
17.999999225
 21
-45.000001788
 31
0.0
  0
LINE
  5
B6
330
1D
100
AcDbEntity
  8
1
100
AcDbLine
 10
61.299998313
 20
-60.032896698
 30
0.0
 11
61.299998313
 21
28.63564156
 31
0.0
  0
LINE
  5
B7
330
1D
100
AcDbEntity
  8
3
100
AcDbLine
 10
39.739275194
 20
5.996635472
 30
0.0
 11
63.692368567
 21
29.9497284
 31
0.0
  0
LINE
  5
B8
330
1D
100
AcDbEntity
  8
3
100
AcDbLine
 10
63.692368567
 20
29.9497284
 30
0.0
 11
66.585786641
 21
28.600504622
 31
0.0
  0
LINE
  5
B9
330
1D
100
AcDbEntity
  8
3
100
AcDbLine
 10
66.585786641
 20
28.600504622
 30
0.0
 11
75.684464358
 21
37.699172865
 31
0.0
  0
LINE
  5
BA
330
1D
100
AcDbEntity
  8
3
100
AcDbLine
 10
59.449728578
 20
34.192368388
 30
0.0
 11
63.692368567
 21
29.9497284
 31
0.0
  0
LINE
  5
BB
330
1D
100
AcDbEntity
  8
3
100
AcDbLine
 10
66.585786641
 20
28.600504622
 30
0.0
 11
58.100506663
 21
37.085786462
 31
0.0
  0
LINE
  5
BC
330
1D
100
AcDbEntity
  8
1
100
AcDbLine
 10
78.500002623
 20
37.50000149
 30
0.0
 11
82.999996841
 21
37.50000149
 31
0.0
  0
LINE
  5
BD
330
1D
100
AcDbEntity
  8
1
100
AcDbLine
 10
39.816997945
 20
-42.22124815
 30
0.0
 11
43.2930924
 21
-45.402880758
 31
0.0
  0
LINE
  5
BE
330
1D
100
AcDbEntity
  8
1
100
AcDbLine
 10
55.16641587
 20
-55.313769728
 30
0.0
 11
61.300583184
 21
-60.032803565
 31
0.0
  0
LINE
  5
BF
330
1D
100
AcDbEntity
  8
4
100
AcDbLine
 10
36.752131644
 20
7.252131746
 30
0.0
 11
70.410971069
 21
40.910970544
 31
0.0
  0
LINE
  5
C0
330
1D
100
AcDbEntity
  8
2
100
AcDbLine
 10
0.0
 20
-82.39654237
 30
0.0
 11
0.0
 21
-44.500000775
 31
0.0
  0
LINE
  5
C1
330
1D
100
AcDbEntity
  8
2
100
AcDbLine
 10
0.0
 20
-80.39654237
 30
0.0
 11
3.500000004
 21
-79.946542401
 31
0.0
  0
LINE
  5
C2
330
1D
100
AcDbEntity
  8
2
100
AcDbLine
 10
3.500000004
 20
-79.946542401
 30
0.0
 11
3.499999996
 21
-80.846542401
 31
0.0
  0
LINE
  5
C3
330
1D
100
AcDbEntity
  8
2
100
AcDbLine
 10
3.499999996
 20
-80.846542401
 30
0.0
 11
0.0
 21
-80.39654237
 31
0.0
  0
LINE
  5
C4
330
1D
100
AcDbEntity
  8
2
100
AcDbLine
 10
82.999996841
 20
-82.396543086
 30
0.0
 11
82.999996841
 21
-69.699622691
 31
0.0
  0
LINE
  5
C5
330
1D
100
AcDbEntity
  8
2
100
AcDbLine
 10
82.999996841
 20
-80.396543086
 30
0.0
 11
79.499996837
 21
-80.846543055
 31
0.0
  0
LINE
  5
C6
330
1D
100
AcDbEntity
  8
2
100
AcDbLine
 10
79.499996837
 20
-80.846543055
 30
0.0
 11
79.499996845
 21
-79.946543055
 31
0.0
  0
LINE
  5
C7
330
1D
100
AcDbEntity
  8
2
100
AcDbLine
 10
79.499996845
 20
-79.946543055
 30
0.0
 11
82.999996841
 21
-80.396543086
 31
0.0
  0
LINE
  5
C8
330
1D
100
AcDbEntity
  8
2
100
AcDbLine
 10
3.5
 20
-80.396542401
 30
0.0
 11
79.499996841
 21
-80.396543055
 31
0.0
  0
TEXT
  5
C9
330
1D
100
AcDbEntity
  8
2
100
AcDbText
 10
40.026716256
 20
-78.896542715
 30
0.0
 40
3.5
  1
83
 50
359.999999506
  7
BMG_Text
100
AcDbText
  0
LINE
  5
CA
330
1D
100
AcDbEntity
  8
2
100
AcDbLine
 10
0.0
 20
84.517285168
 30
0.0
 11
0.0
 21
44.500000775
 31
0.0
  0
LINE
  5
CB
330
1D
100
AcDbEntity
  8
2
100
AcDbLine
 10
0.0
 20
82.517285168
 30
0.0
 11
3.500000003
 21
82.967285147
 31
0.0
  0
LINE
  5
CC
330
1D
100
AcDbEntity
  8
2
100
AcDbLine
 10
3.500000003
 20
82.967285147
 30
0.0
 11
3.499999997
 21
82.067285147
 31
0.0
  0
LINE
  5
CD
330
1D
100
AcDbEntity
  8
2
100
AcDbLine
 10
3.499999997
 20
82.067285147
 30
0.0
 11
0.0
 21
82.517285168
 31
0.0
  0
LINE
  5
CE
330
1D
100
AcDbEntity
  8
2
100
AcDbLine
 10
117.0
 20
84.517284464
 30
0.0
 11
117.0
 21
73.200283121
 31
0.0
  0
LINE
  5
CF
330
1D
100
AcDbEntity
  8
2
100
AcDbLine
 10
117.0
 20
82.517284464
 30
0.0
 11
113.499999997
 21
82.067284485
 31
0.0
  0
LINE
  5
D0
330
1D
100
AcDbEntity
  8
2
100
AcDbLine
 10
113.499999997
 20
82.067284485
 30
0.0
 11
113.500000003
 21
82.967284485
 31
0.0
  0
LINE
  5
D1
330
1D
100
AcDbEntity
  8
2
100
AcDbLine
 10
113.500000003
 20
82.967284485
 30
0.0
 11
117.0
 21
82.517284464
 31
0.0
  0
LINE
  5
D2
330
1D
100
AcDbEntity
  8
2
100
AcDbLine
 10
3.5
 20
82.517285147
 30
0.0
 11
113.5
 21
82.517284485
 31
0.0
  0
TEXT
  5
D3
330
1D
100
AcDbEntity
  8
2
100
AcDbText
 10
56.479842451
 20
84.017284828
 30
0.0
 40
3.5
  1
117
 50
359.9999996550001
  7
BMG_Text
100
AcDbText
  0
LINE
  5
D4
330
1D
100
AcDbEntity
  8
SK2
100
AcDbLine
 10
-78.523804605
 20
-70.000000298
 30
0.0
 11
61.301268637
 21
-70.000000298
 31
0.0
  0
LINE
  5
D5
330
1D
100
AcDbEntity
  8
SK2
100
AcDbLine
 10
-76.523804605
 20
-70.000000298
 30
0.0
 11
-76.973804605
 21
-66.500000298
 31
0.0
  0
LINE
  5
D6
330
1D
100
AcDbEntity
  8
SK2
100
AcDbLine
 10
-76.973804605
 20
-66.500000298
 30
0.0
 11
-76.073804605
 21
-66.500000298
 31
0.0
  0
LINE
  5
D7
330
1D
100
AcDbEntity
  8
SK2
100
AcDbLine
 10
-76.073804605
 20
-66.500000298
 30
0.0
 11
-76.523804605
 21
-70.000000298
 31
0.0
  0
LINE
  5
D8
330
1D
100
AcDbEntity
  8
SK2
100
AcDbLine
 10
-78.523804605
 20
70.000000298
 30
0.0
 11
61.301268637
 21
70.000000298
 31
0.0
  0
LINE
  5
D9
330
1D
100
AcDbEntity
  8
SK2
100
AcDbLine
 10
-76.523804605
 20
70.000000298
 30
0.0
 11
-76.073804605
 21
66.500000298
 31
0.0
  0
LINE
  5
DA
330
1D
100
AcDbEntity
  8
SK2
100
AcDbLine
 10
-76.073804605
 20
66.500000298
 30
0.0
 11
-76.973804605
 21
66.500000298
 31
0.0
  0
LINE
  5
DB
330
1D
100
AcDbEntity
  8
SK2
100
AcDbLine
 10
-76.973804605
 20
66.500000298
 30
0.0
 11
-76.523804605
 21
70.000000298
 31
0.0
  0
LINE
  5
DC
330
1D
100
AcDbEntity
  8
SK2
100
AcDbLine
 10
-76.523804605
 20
-66.500000298
 30
0.0
 11
-76.523804605
 21
66.500000298
 31
0.0
  0
TEXT
  5
DD
330
1D
100
AcDbEntity
  8
SK2
100
AcDbText
 10
-78.023804605
 20
-0.652970315
 30
0.0
 40
3.5
  1
140
 50
90.0
  7
BMG_Text
100
AcDbText
  0
CIRCLE
  5
DE
330
1D
100
AcDbEntity
  8
SK2
100
AcDbCircle
 10
-79.273804605
 20
-2.902970315
 30
0.0
 40
1.25
  0
LINE
  5
DF
330
1D
100
AcDbEntity
  8
SK2
100
AcDbLine
 10
-78.023804605
 20
-4.152970315
 30
0.0
 11
-80.523804605
 21
-1.652970315
 31
0.0
  0
LINE
  5
E0
330
1D
100
AcDbEntity
  8
SK4
100
AcDbLine
 10
-12.0
 20
-29.330638858
 30
0.0
 11
-12.0
 21
-22.197623121
 31
0.0
  0
LINE
  5
E1
330
1D
100
AcDbEntity
  8
SK4
100
AcDbLine
 10
-12.0
 20
21.555180833
 30
0.0
 11
-12.0
 21
29.385230077
 31
0.0
  0
LINE
  5
E2
330
1D
100
AcDbEntity
  8
SK1
100
AcDbLine
 10
-16.987426758
 20
-27.999996185
 30
0.0
 11
-7.012573242
 21
-27.999996185
 31
0.0
  0
LINE
  5
E3
330
1D
100
AcDbEntity
  8
SK1
100
AcDbLine
 10
-16.987426758
 20
27.999996185
 30
0.0
 11
-7.012573242
 21
27.999996185
 31
0.0
  0
LINE
  5
E4
330
1D
100
AcDbEntity
  8
SK1
100
AcDbLine
 10
-20.732055664
 20
-23.514095306
 30
0.0
 11
-18.719467163
 21
-27.000003815
 31
0.0
  0
LINE
  5
E5
330
1D
100
AcDbEntity
  8
SK1
100
AcDbLine
 10
-3.267959595
 20
-23.514102936
 30
0.0
 11
-5.280532837
 21
-26.999996185
 31
0.0
  0
LINE
  5
E6
330
1D
100
AcDbEntity
  8
SK1
100
AcDbLine
 10
-20.732040405
 20
23.514080048
 30
0.0
 11
-18.719467163
 21
26.999996185
 31
0.0
  0
LINE
  5
E7
330
1D
100
AcDbEntity
  8
SK1
100
AcDbLine
 10
-3.267944336
 20
23.514080048
 30
0.0
 11
-5.280532837
 21
26.999996185
 31
0.0
  0
ARC
  5
E8
330
1D
100
AcDbEntity
  8
SK1
100
AcDbCircle
 10
-19.0
 20
-22.514087677
 30
0.0
 40
2.0
100
AcDbArc
 50
194.061081335
 51
210.000121593
  0
ARC
  5
E9
330
1D
100
AcDbEntity
  8
SK1
100
AcDbCircle
 10
-16.987426758
 20
-25.999996185
 30
0.0
 40
1.999994755
100
AcDbArc
 50
210.000335693
 51
269.999999523
  0
ARC
  5
EA
330
1D
100
AcDbEntity
  8
SK1
100
AcDbCircle
 10
-7.012573242
 20
-25.999996185
 30
0.0
 40
2.0
100
AcDbArc
 50
270.0
 51
329.99984622
  0
ARC
  5
EB
330
1D
100
AcDbEntity
  8
SK1
100
AcDbCircle
 10
-5.0
 20
-22.514095306
 30
0.0
 40
1.999994755
100
AcDbArc
 50
329.999664307
 51
345.939106347
  0
ARC
  5
EC
330
1D
100
AcDbEntity
  8
SK1
100
AcDbCircle
 10
-19.0
 20
22.514080048
 30
0.0
 40
2.0
100
AcDbArc
 50
149.999851584
 51
165.938693347
  0
ARC
  5
ED
330
1D
100
AcDbEntity
  8
SK1
100
AcDbCircle
 10
-16.987426758
 20
25.999996185
 30
0.0
 40
1.99999094
100
AcDbArc
 50
89.999999642
 51
149.999851227
  0
ARC
  5
EE
330
1D
100
AcDbEntity
  8
SK1
100
AcDbCircle
 10
-7.012573242
 20
25.999996185
 30
0.0
 40
2.0
100
AcDbArc
 50
30.00015378
 51
90.0
  0
ARC
  5
EF
330
1D
100
AcDbEntity
  8
SK1
100
AcDbCircle
 10
-5.0
 20
22.514095306
 30
0.0
 40
1.999996543
100
AcDbArc
 50
14.060880823
 51
29.999542236
  0
ARC
  5
F0
330
1D
100
AcDbEntity
  8
1
100
AcDbCircle
 10
120.779212222
 20
-38.846830348
 30
0.0
 40
82.523358137
100
AcDbArc
 50
117.285807823
 51
119.847317639
  0
ARC
  5
F1
330
1D
100
AcDbEntity
  8
1
100
AcDbCircle
 10
82.78298209
 20
34.866794944
 30
0.0
 40
0.407513977
100
AcDbArc
 50
293.899143615
 51
66.100856385
  0
ARC
  5
F2
330
1D
100
AcDbEntity
  8
1
100
AcDbCircle
 10
46.616940201
 20
-38.846830348
 30
0.0
 40
82.514947519
100
AcDbArc
 50
63.877127221
 51
66.586486918
  0
LINE
  5
F3
330
1D
100
AcDbEntity
  8
1
100
AcDbLine
 10
79.700000495
 20
37.500284612
 30
0.0
 11
99.300000727
 21
37.500284612
 31
0.0
  0
LINE
  5
F4
330
1D
100
AcDbEntity
  8
1
100
AcDbLine
 10
100.299999028
 20
36.500282586
 30
0.0
 11
99.793802857
 21
37.006478757
 31
0.0
  0
LINE
  5
F5
330
1D
100
AcDbEntity
  8
1
100
AcDbLine
 10
99.793802857
 20
37.006478757
 30
0.0
 11
99.300000727
 21
37.500284612
 31
0.0
  0
LINE
  5
F7
330
1D
100
AcDbEntity
  8
1
100
AcDbLine
 10
100.299999028
 20
28.635924682
 30
0.0
 11
83.198077887
 21
28.635924682
 31
0.0
  0
ARC
  5
F8
330
1D
100
AcDbEntity
  8
1
100
AcDbCircle
 10
82.569098856
 20
28.668934979
 30
0.0
 40
0.629844664
100
AcDbArc
 50
356.995739231
 51
53.008138822
  0
ARC
  5
F9
330
1D
100
AcDbEntity
  8
1
100
AcDbCircle
 10
36.224635356
 20
-38.846830348
 30
0.0
 40
82.520555142
100
AcDbArc
 50
55.514082151
 51
58.46205983799999
  0
ARC
  5
FA
330
1D
100
AcDbEntity
  8
1
100
AcDbCircle
 10
82.887168416
 20
-59.981354805
 30
0.0
 40
0.31517656
100
AcDbArc
 50
281.142714342
 51
350.5611800550001
  0
LINE
  5
FB
330
1D
100
AcDbEntity
  8
1
100
AcDbLine
 10
83.198077887
 20
28.635924682
 30
0.0
 11
83.198077887
 21
-60.033041984
 31
0.0
  0
LINE
  5
FC
330
1D
100
AcDbEntity
  8
CUT
100
AcDbLine
 10
115.269642234
 20
-73.054850101
 30
0.0
 11
115.269642234
 21
-73.055177927
 31
0.0
  0
LINE
  5
FD
330
1D
100
AcDbEntity
  8
1
100
AcDbLine
 10
104.534707874
 20
-71.158803999
 30
0.0
 11
115.269642234
 21
-73.055177927
 31
0.0
  0
LINE
  5
FE
330
1D
100
AcDbEntity
  8
1
100
AcDbLine
 10
104.534707874
 20
-71.27443701
 30
0.0
 11
104.534707874
 21
-71.158803999
 31
0.0
  0
ARC
  5
FF
330
1D
100
AcDbEntity
  8
CUT
100
AcDbCircle
 10
104.504195697
 20
-70.158525918
 30
0.0
 40
1.114639428
100
AcDbArc
 50
262.7642282670001
 51
270.0
  0
ARC
  5
100
330
1D
100
AcDbEntity
  8
CUT
100
AcDbCircle
 10
104.504195697
 20
-70.158525918
 30
0.0
 40
1.116410354
100
AcDbArc
 50
270.0
 51
271.566217348
  0
LINE
  5
101
330
1D
100
AcDbEntity
  8
1
100
AcDbLine
 10
104.363802731
 20
-71.26428932
 30
0.0
 11
103.420466095
 21
-71.097955108
 31
0.0
  0
LINE
  5
102
330
1D
100
AcDbEntity
  8
1
100
AcDbLine
 10
103.420466095
 20
-71.097955108
 30
0.0
 11
97.190469414
 21
-69.999434054
 31
0.0
  0
LINE
  5
103
330
1D
100
AcDbEntity
  8
1
100
AcDbLine
 10
97.190469414
 20
-60.033041984
 30
0.0
 11
97.190469414
 21
-69.999434054
 31
0.0
  0
LINE
  5
104
330
1D
100
AcDbEntity
  8
1
100
AcDbLine
 10
97.190469414
 20
-60.033041984
 30
0.0
 11
99.794436157
 21
-60.567792505
 31
0.0
  0
LINE
  5
105
330
1D
100
AcDbEntity
  8
1
100
AcDbLine
 10
99.794436157
 20
-60.567792505
 30
0.0
 11
111.097473562
 21
-62.875136733
 31
0.0
  0
ARC
  5
106
330
1D
100
AcDbEntity
  8
1
100
AcDbCircle
 10
160.703063499
 20
1.069126572
 30
0.0
 40
80.929494577
100
AcDbArc
 50
232.197017566
 51
233.079293609
  0
LINE
  5
107
330
1D
100
AcDbEntity
  8
1
100
AcDbLine
 10
100.299999028
 20
-1.568181557
 30
0.0
 11
100.299999028
 21
36.500282586
 31
0.0
  0
ARC
  5
108
330
1D
100
AcDbEntity
  8
1
100
AcDbCircle
 10
110.3
 20
-1.568181548
 30
0.0
 40
10.0
100
AcDbArc
 50
180.0
 51
210.0
  0
LINE
  5
109
330
1D
100
AcDbEntity
  8
1
100
AcDbLine
 10
83.198077887
 20
-60.033041984
 30
0.0
 11
97.190469414
 21
-60.033041984
 31
0.0
  0
LINE
  5
10A
330
1D
100
AcDbEntity
  8
1
100
AcDbLine
 10
111.097473562
 20
-22.949451581
 30
0.0
 11
101.63974753
 21
-6.568181328
 31
0.0
  0
LINE
  5
10B
330
1D
100
AcDbEntity
  8
1
100
AcDbLine
 10
113.097477615
 20
-26.413554326
 30
0.0
 11
113.097477615
 21
-63.343368471
 31
0.0
  0
LINE
  5
10C
330
1D
100
AcDbEntity
  8
1
100
AcDbLine
 10
113.097477615
 20
-63.343368471
 30
0.0
 11
113.081078887
 21
-63.507206738
 31
0.0
  0
LINE
  5
10D
330
1D
100
AcDbEntity
  8
1
100
AcDbLine
 10
113.081078887
 20
-63.507206738
 30
0.0
 11
113.027077079
 21
-63.655205071
 31
0.0
  0
LINE
  5
10E
330
1D
100
AcDbEntity
  8
1
100
AcDbLine
 10
113.027077079
 20
-63.655205071
 30
0.0
 11
112.947117448
 21
-63.758149743
 31
0.0
  0
LINE
  5
10F
330
1D
100
AcDbEntity
  8
1
100
AcDbLine
 10
112.947117448
 20
-63.758149743
 30
0.0
 11
112.820055246
 21
-63.835240901
 31
0.0
  0
LINE
  5
110
330
1D
100
AcDbEntity
  8
1
100
AcDbLine
 10
112.820055246
 20
-63.835240901
 30
0.0
 11
112.612146795
 21
-63.859641552
 31
0.0
  0
LINE
  5
111
330
1D
100
AcDbEntity
  8
1
100
AcDbLine
 10
112.612146795
 20
-63.859641552
 30
0.0
 11
112.265255213
 21
-63.74617666
 31
0.0
  0
LINE
  5
112
330
1D
100
AcDbEntity
  8
1
100
AcDbLine
 10
112.265255213
 20
-63.74617666
 30
0.0
 11
112.087961197
 21
-63.631393015
 31
0.0
  0
LINE
  5
113
330
1D
100
AcDbEntity
  8
1
100
AcDbLine
 10
113.097477615
 20
-26.413554326
 30
0.0
 11
111.097473562
 21
-22.949451581
 31
0.0
  0
LINE
  5
114
330
1D
100
AcDbEntity
  8
1
100
AcDbLine
 10
97.190469414
 20
-69.999434054
 30
0.0
 11
83.156332284
 21
-69.999434054
 31
0.0
  0
LINE
  5
115
330
1D
100
AcDbEntity
  8
1
100
AcDbLine
 10
83.156332284
 20
-69.999434054
 30
0.0
 11
83.064298987
 21
-69.998890162
 31
0.0
  0
LINE
  5
116
330
1D
100
AcDbEntity
  8
1
100
AcDbLine
 10
83.064298987
 20
-69.998890162
 30
0.0
 11
82.948077381
 21
-69.998376071
 31
0.0
  0
ARC
  5
117
330
1D
100
AcDbEntity
  8
1
100
AcDbCircle
 10
83.698076211
 20
136.855799204
 30
0.0
 40
206.856087776
100
AcDbArc
 50
268.89252881
 51
269.792261162
  0
ARC
  5
118
330
1D
100
AcDbEntity
  8
1
100
AcDbCircle
 10
73.305771366
 20
136.855799204
 30
0.0
 40
206.856951053
100
AcDbArc
 50
271.7713723480001
 51
272.671696999
  0
LINE
  5
119
330
1D
100
AcDbEntity
  8
1
100
AcDbLine
 10
82.948077381
 20
-69.777995348
 30
0.0
 11
83.077326327
 21
-69.769367576
 31
0.0
  0
LINE
  5
11A
330
1D
100
AcDbEntity
  8
1
100
AcDbLine
 10
83.077326327
 20
-69.769367576
 30
0.0
 11
83.163730711
 21
-69.757528603
 31
0.0
  0
LINE
  5
11B
330
1D
100
AcDbEntity
  8
1
100
AcDbLine
 10
83.163730711
 20
-69.757528603
 30
0.0
 11
83.197764963
 21
-69.743618369
 31
0.0
  0
LINE
  5
11C
330
1D
100
AcDbEntity
  8
1
100
AcDbLine
 10
83.197764963
 20
-69.743618369
 30
0.0
 11
83.175305188
 21
-69.729104638
 31
0.0
  0
LINE
  5
11D
330
1D
100
AcDbEntity
  8
1
100
AcDbLine
 10
83.175305188
 20
-69.729104638
 30
0.0
 11
83.098597735
 21
-69.715701044
 31
0.0
  0
LINE
  5
11E
330
1D
100
AcDbEntity
  8
1
100
AcDbLine
 10
83.098597735
 20
-69.715701044
 30
0.0
 11
82.976415664
 21
-69.705121219
 31
0.0
  0
LINE
  5
11F
330
1D
100
AcDbEntity
  8
1
100
AcDbLine
 10
82.976415664
 20
-69.705121219
 30
0.0
 11
82.948077381
 21
-69.703489542
 31
0.0
  0
ARC
  5
120
330
1D
100
AcDbEntity
  8
1
100
AcDbCircle
 10
94.090381057
 20
136.855799204
 30
0.0
 40
206.861854089
100
AcDbArc
 50
266.010987308
 51
266.912320398
  0
ARC
  5
121
330
1D
100
AcDbEntity
  8
1
100
AcDbCircle
 10
62.91346652
 20
136.855799204
 30
0.0
 40
206.863567009
100
AcDbArc
 50
274.654547167
 51
275.557716197
  0
LINE
  5
122
330
1D
100
AcDbEntity
  8
1
100
AcDbLine
 10
82.948077381
 20
-69.037422538
 30
0.0
 11
83.077412009
 21
-69.01936233
 31
0.0
  0
LINE
  5
123
330
1D
100
AcDbEntity
  8
1
100
AcDbLine
 10
83.077412009
 20
-69.01936233
 30
0.0
 11
83.163581699
 21
-68.994984031
 31
0.0
  0
LINE
  5
124
330
1D
100
AcDbEntity
  8
1
100
AcDbLine
 10
83.163581699
 20
-68.994984031
 30
0.0
 11
83.197761238
 21
-68.966560066
 31
0.0
  0
LINE
  5
125
330
1D
100
AcDbEntity
  8
1
100
AcDbLine
 10
83.197761238
 20
-68.966560066
 30
0.0
 11
83.174850702
 21
-68.937093019
 31
0.0
  0
LINE
  5
126
330
1D
100
AcDbEntity
  8
1
100
AcDbLine
 10
83.174850702
 20
-68.937093019
 30
0.0
 11
83.09635511
 21
-68.910196424
 31
0.0
  0
LINE
  5
127
330
1D
100
AcDbEntity
  8
1
100
AcDbLine
 10
83.09635511
 20
-68.910196424
 30
0.0
 11
82.971781403
 21
-68.88935715
 31
0.0
  0
LINE
  5
128
330
1D
100
AcDbEntity
  8
1
100
AcDbLine
 10
82.971781403
 20
-68.88935715
 30
0.0
 11
82.948077381
 21
-68.886727095
 31
0.0
  0
ARC
  5
129
330
1D
100
AcDbEntity
  8
1
100
AcDbCircle
 10
104.482685902
 20
136.855799204
 30
0.0
 40
206.867422852
100
AcDbArc
 50
263.119448591
 51
264.024735981
  0
ARC
  5
12A
330
1D
100
AcDbEntity
  8
1
100
AcDbCircle
 10
52.521161675
 20
136.855799204
 30
0.0
 40
206.867254261
100
AcDbArc
 50
277.5495173030001
 51
278.458072162
  0
LINE
  5
12B
330
1D
100
AcDbEntity
  8
1
100
AcDbLine
 10
82.948077381
 20
-67.759595811
 30
0.0
 11
83.077575922
 21
-67.731641233
 31
0.0
  0
LINE
  5
12C
330
1D
100
AcDbEntity
  8
1
100
AcDbLine
 10
83.077575922
 20
-67.731641233
 30
0.0
 11
83.163350731
 21
-67.694306374
 31
0.0
  0
LINE
  5
12D
330
1D
100
AcDbEntity
  8
1
100
AcDbLine
 10
83.163350731
 20
-67.694306374
 30
0.0
 11
83.197761238
 21
-67.650564015
 31
0.0
  0
LINE
  5
12E
330
1D
100
AcDbEntity
  8
1
100
AcDbLine
 10
83.197761238
 20
-67.650564015
 30
0.0
 11
83.173978984
 21
-67.604862154
 31
0.0
  0
LINE
  5
12F
330
1D
100
AcDbEntity
  8
1
100
AcDbLine
 10
83.173978984
 20
-67.604862154
 30
0.0
 11
83.092246115
 21
-67.563250661
 31
0.0
  0
LINE
  5
130
330
1D
100
AcDbEntity
  8
1
100
AcDbLine
 10
83.092246115
 20
-67.563250661
 30
0.0
 11
82.948077381
 21
-67.529149354
 31
0.0
  0
ARC
  5
131
330
1D
100
AcDbEntity
  8
1
100
AcDbCircle
 10
114.874990747
 20
136.855799204
 30
0.0
 40
206.857463975
100
AcDbArc
 50
260.209588912
 51
261.121593957
  0
ARC
  5
132
330
1D
100
AcDbEntity
  8
1
100
AcDbCircle
 10
47.538438135
 20
106.179433245
 30
0.0
 40
175.702013587
100
AcDbArc
 50
280.54723489
 51
281.626858282
  0
LINE
  5
133
330
1D
100
AcDbEntity
  8
1
100
AcDbLine
 10
82.948077381
 20
-65.913274884
 30
0.0
 11
83.077829242
 21
-65.874643624
 31
0.0
  0
LINE
  5
134
330
1D
100
AcDbEntity
  8
1
100
AcDbLine
 10
83.077829242
 20
-65.874643624
 30
0.0
 11
83.163026631
 21
-65.823674202
 31
0.0
  0
LINE
  5
135
330
1D
100
AcDbEntity
  8
1
100
AcDbLine
 10
83.163026631
 20
-65.823674202
 30
0.0
 11
83.197772413
 21
-65.76320529
 31
0.0
  0
LINE
  5
136
330
1D
100
AcDbEntity
  8
1
100
AcDbLine
 10
83.197772413
 20
-65.76320529
 30
0.0
 11
83.172563374
 21
-65.699078143
 31
0.0
  0
LINE
  5
137
330
1D
100
AcDbEntity
  8
1
100
AcDbLine
 10
83.172563374
 20
-65.699078143
 30
0.0
 11
83.085723132
 21
-65.640725195
 31
0.0
  0
LINE
  5
138
330
1D
100
AcDbEntity
  8
1
100
AcDbLine
 10
83.085723132
 20
-65.640725195
 30
0.0
 11
82.948077381
 21
-65.597184002
 31
0.0
  0
ARC
  5
139
330
1D
100
AcDbEntity
  8
1
100
AcDbCircle
 10
119.857714288
 20
106.179433245
 30
0.0
 40
175.698073168
100
AcDbArc
 50
256.787637759
 51
257.873240652
  0
ARC
  5
13A
330
1D
100
AcDbEntity
  8
1
100
AcDbCircle
 10
37.146133289
 20
106.179433245
 30
0.0
 40
175.699943724
100
AcDbArc
 50
284.016200883
 51
285.110300725
  0
LINE
  5
13B
330
1D
100
AcDbEntity
  8
1
100
AcDbLine
 10
82.948077381
 20
-63.448853791
 30
0.0
 11
83.07818687
 21
-63.398331404
 31
0.0
  0
LINE
  5
13C
330
1D
100
AcDbEntity
  8
1
100
AcDbLine
 10
83.07818687
 20
-63.398331404
 30
0.0
 11
83.162613124
 21
-63.332669437
 31
0.0
  0
LINE
  5
13D
330
1D
100
AcDbEntity
  8
1
100
AcDbLine
 10
83.162613124
 20
-63.332669437
 30
0.0
 11
83.197794765
 21
-63.253201544
 31
0.0
  0
LINE
  5
13E
330
1D
100
AcDbEntity
  8
1
100
AcDbLine
 10
83.197794765
 20
-63.253201544
 30
0.0
 11
83.170350552
 21
-63.167124987
 31
0.0
  0
LINE
  5
13F
330
1D
100
AcDbEntity
  8
1
100
AcDbLine
 10
83.170350552
 20
-63.167124987
 30
0.0
 11
83.075784057
 21
-63.088826835
 31
0.0
  0
LINE
  5
140
330
1D
100
AcDbEntity
  8
1
100
AcDbLine
 10
83.075784057
 20
-63.088826835
 30
0.0
 11
82.948077381
 21
-63.038051128
 31
0.0
  0
ARC
  5
141
330
1D
100
AcDbEntity
  8
1
100
AcDbCircle
 10
130.250019133
 20
106.179433245
 30
0.0
 40
175.705828846
100
AcDbArc
 50
253.279878155
 51
254.382545966
  0
ARC
  5
142
330
1D
100
AcDbEntity
  8
1
100
AcDbCircle
 10
33.041617236
 20
85.26683356
 30
0.0
 40
153.869807625
100
AcDbArc
 50
287.65188044
 51
288.9250165479999
  0
LINE
  5
143
330
1D
100
AcDbEntity
  8
1
100
AcDbLine
 10
79.700000495
 20
-61.358243227
 30
0.0
 11
79.649999648
 21
-61.317052692
 31
0.0
  0
ARC
  5
144
330
1D
100
AcDbEntity
  8
1
100
AcDbCircle
 10
115.406487249
 20
-72.264523141
 30
0.0
 40
0.802086817
100
AcDbArc
 50
260.176641067
 51
359.4880564260001
  0
LINE
  5
145
330
1D
100
AcDbEntity
  8
1
100
AcDbLine
 10
113.825324833
 20
-27.674220502
 30
0.0
 11
113.825324833
 21
-44.499717653
 31
0.0
  0
ARC
  5
146
330
1D
100
AcDbEntity
  8
1
100
AcDbCircle
 10
202.031164091
 20
-44.499716878
 30
0.0
 40
88.205840414
100
AcDbArc
 50
180.0
 51
185.344722231
  0
ARC
  5
147
330
1D
100
AcDbEntity
  8
1
100
AcDbCircle
 10
128.590907451
 20
-51.37030837
 30
0.0
 40
14.444900054
100
AcDbArc
 50
185.345024151
 51
192.606993773
  0
ARC
  5
148
330
1D
100
AcDbEntity
  8
1
100
AcDbCircle
 10
118.468366217
 20
-53.634261783
 30
0.0
 40
4.072276178
100
AcDbArc
 50
192.606993773
 51
207.00288411
  0
ARC
  5
149
330
1D
100
AcDbEntity
  8
1
100
AcDbCircle
 10
114.989353083
 20
-55.407128963
 30
0.0
 40
0.167587915
100
AcDbArc
 50
207.002623801
 51
332.997376199
  0
ARC
  5
14B
330
1D
100
AcDbEntity
  8
1
100
AcDbCircle
 10
111.510339949
 20
-53.634261783
 30
0.0
 40
4.072276178
100
AcDbArc
 50
332.9971158899999
 51
347.393006227
  0
ARC
  5
14C
330
1D
100
AcDbEntity
  8
1
100
AcDbCircle
 10
101.387798715
 20
-51.37030837
 30
0.0
 40
14.444900054
100
AcDbArc
 50
347.393006227
 51
354.654975849
  0
ARC
  5
14D
330
1D
100
AcDbEntity
  8
1
100
AcDbCircle
 10
27.947542075
 20
-44.499716878
 30
0.0
 40
88.205840414
100
AcDbArc
 50
354.655277769
 51
0.0
  0
LINE
  5
14E
330
1D
100
AcDbEntity
  8
1
100
AcDbLine
 10
116.153385401
 20
-44.499717653
 30
0.0
 11
116.153385401
 21
-31.706538051
 31
0.0
  0
LINE
  5
14F
330
1D
100
AcDbEntity
  8
1
100
AcDbLine
 10
116.153385401
 20
-31.706538051
 30
0.0
 11
116.6499964
 21
-32.566703856
 31
0.0
  0
LINE
  5
150
330
1D
100
AcDbEntity
  8
1
100
AcDbLine
 10
116.6499964
 20
-32.566703856
 30
0.0
 11
116.6499964
 21
-61.264690012
 31
0.0
  0
LINE
  5
151
330
1D
100
AcDbEntity
  8
CUT
100
AcDbLine
 10
116.6499964
 20
-61.264690012
 30
0.0
 11
116.492342114
 21
-61.410315335
 31
0.0
  0
LINE
  5
152
330
1D
100
AcDbEntity
  8
1
100
AcDbLine
 10
116.208564401
 20
-61.360023916
 30
0.0
 11
116.492342114
 21
-61.410315335
 31
0.0
  0
LINE
  5
153
330
1D
100
AcDbEntity
  8
1
100
AcDbLine
 10
116.208564401
 20
-72.265893221
 30
0.0
 11
116.208564401
 21
-61.360023916
 31
0.0
  0
LINE
  5
154
330
1D
100
AcDbEntity
  8
CUT
100
AcDbLine
 10
116.208564401
 20
-72.265893221
 30
0.0
 11
116.208542049
 21
-72.271689773
 31
0.0
  0
LINE
  5
155
330
1D
100
AcDbEntity
  8
1
100
AcDbLine
 10
113.097477615
 20
-26.413554326
 30
0.0
 11
113.825324833
 21
-27.674220502
 31
0.0
  0
LINE
  5
156
330
1D
100
AcDbEntity
  8
1
100
AcDbLine
 10
79.649999648
 20
-62.026411295
 30
0.0
 11
79.700000495
 21
-62.097821385
 31
0.0
  0
ARC
  5
157
330
1D
100
AcDbEntity
  8
1
100
AcDbCircle
 10
80.481831089
 20
-61.302706948
 30
0.0
 40
1.102584023
100
AcDbArc
 50
191.133868353
 51
221.023700021
  0
LINE
  5
158
330
1D
100
AcDbEntity
  8
1
100
AcDbLine
 10
79.649999648
 20
-61.317052692
 30
0.0
 11
79.56988728
 21
-61.257209629
 31
0.0
  0
LINE
  5
159
330
1D
100
AcDbEntity
  8
1
100
AcDbLine
 10
79.56988728
 20
-61.257209629
 30
0.0
 11
79.492982387
 21
-61.216168106
 31
0.0
  0
LINE
  5
15A
330
1D
100
AcDbEntity
  8
1
100
AcDbLine
 10
79.492982387
 20
-61.216168106
 30
0.0
 11
79.434625715
 21
-61.208475381
 31
0.0
  0
LINE
  5
15B
330
1D
100
AcDbEntity
  8
1
100
AcDbLine
 10
79.434625715
 20
-61.208475381
 30
0.0
 11
79.406928182
 21
-61.23136729
 31
0.0
  0
LINE
  5
15C
330
1D
100
AcDbEntity
  8
1
100
AcDbLine
 10
79.406928182
 20
-61.23136729
 30
0.0
 11
79.399999142
 21
-61.268538237
 31
0.0
  0
ARC
  5
15D
330
1D
100
AcDbEntity
  8
1
100
AcDbCircle
 10
81.080257495
 20
31.758621706
 30
0.0
 40
1.682915908
100
AcDbArc
 50
148.197410176
 51
176.779637838
  0
LINE
  5
15E
330
1D
100
AcDbEntity
  8
1
100
AcDbLine
 10
79.700000495
 20
32.7443555
 30
0.0
 11
79.649999648
 21
32.645508647
 31
0.0
  0
LINE
  5
15F
330
1D
100
AcDbEntity
  8
1
100
AcDbLine
 10
79.700000495
 20
-64.289443195
 30
0.0
 11
79.649999648
 21
-64.247436821
 31
0.0
  0
LINE
  5
160
330
1D
100
AcDbEntity
  8
1
100
AcDbLine
 10
79.446289599
 20
37.246569991
 30
0.0
 11
79.408075571
 21
37.113208324
 31
0.0
  0
LINE
  5
161
330
1D
100
AcDbEntity
  8
1
100
AcDbLine
 10
79.408075571
 20
37.113208324
 30
0.0
 11
79.399999142
 21
37.038750947
 31
0.0
  0
LINE
  5
162
330
1D
100
AcDbEntity
  8
1
100
AcDbLine
 10
79.446289599
 20
37.246569991
 30
0.0
 11
79.700000495
 21
37.500284612
 31
0.0
  0
LINE
  5
163
330
1D
100
AcDbEntity
  8
1
100
AcDbLine
 10
79.649999648
 20
-64.802162349
 30
0.0
 11
79.700000495
 21
-64.867846668
 31
0.0
  0
ARC
  5
164
330
1D
100
AcDbEntity
  8
1
100
AcDbCircle
 10
80.570264362
 20
-63.99515516
 30
0.0
 40
1.223988459
100
AcDbArc
 50
197.038505649
 51
221.248475939
  0
LINE
  5
165
330
1D
100
AcDbEntity
  8
1
100
AcDbLine
 10
79.649999648
 20
-64.247436821
 30
0.0
 11
79.561185002
 21
-64.178854227
 31
0.0
  0
LINE
  5
166
330
1D
100
AcDbEntity
  8
1
100
AcDbLine
 10
79.561185002
 20
-64.178854227
 30
0.0
 11
79.482760191
 21
-64.13308531
 31
0.0
  0
LINE
  5
167
330
1D
100
AcDbEntity
  8
1
100
AcDbLine
 10
79.482760191
 20
-64.13308531
 30
0.0
 11
79.425923437
 21
-64.121179283
 31
0.0
  0
LINE
  5
168
330
1D
100
AcDbEntity
  8
1
100
AcDbLine
 10
79.425923437
 20
-64.121179283
 30
0.0
 11
79.402640372
 21
-64.141727984
 31
0.0
  0
LINE
  5
169
330
1D
100
AcDbEntity
  8
1
100
AcDbLine
 10
79.402640372
 20
-64.141727984
 30
0.0
 11
79.399999142
 21
-64.160659909
 31
0.0
  0
LINE
  5
16A
330
1D
100
AcDbEntity
  8
1
100
AcDbLine
 10
79.399999142
 20
37.038750947
 30
0.0
 11
79.399999142
 21
-69.644644856
 31
0.0
  0
LINE
  5
16B
330
1D
100
AcDbEntity
  8
1
100
AcDbLine
 10
79.700000495
 20
-66.553980112
 30
0.0
 11
79.649999648
 21
-66.510796547
 31
0.0
  0
LINE
  5
16C
330
1D
100
AcDbEntity
  8
1
100
AcDbLine
 10
79.649999648
 20
-66.928058863
 30
0.0
 11
79.700000495
 21
-66.989071667
 31
0.0
  0
ARC
  5
16D
330
1D
100
AcDbEntity
  8
1
100
AcDbCircle
 10
80.485760406
 20
-66.12245004
 30
0.0
 40
1.160819374
100
AcDbArc
 50
200.716790373
 51
223.947595737
  0
LINE
  5
16E
330
1D
100
AcDbEntity
  8
1
100
AcDbLine
 10
79.649999648
 20
-66.510796547
 30
0.0
 11
79.552899957
 21
-66.432476044
 31
0.0
  0
LINE
  5
16F
330
1D
100
AcDbEntity
  8
1
100
AcDbLine
 10
79.552899957
 20
-66.432476044
 30
0.0
 11
79.473603427
 21
-66.381148994
 31
0.0
  0
LINE
  5
170
330
1D
100
AcDbEntity
  8
1
100
AcDbLine
 10
79.473603427
 20
-66.381148994
 30
0.0
 11
79.418852836
 21
-66.364012659
 31
0.0
  0
LINE
  5
171
330
1D
100
AcDbEntity
  8
1
100
AcDbLine
 10
79.418852836
 20
-66.364012659
 30
0.0
 11
79.400464803
 21
-66.381447017
 31
0.0
  0
LINE
  5
172
330
1D
100
AcDbEntity
  8
1
100
AcDbLine
 10
79.400464803
 20
-66.381447017
 30
0.0
 11
79.399999142
 21
-66.387854517
 31
0.0
  0
LINE
  5
173
330
1D
100
AcDbEntity
  8
1
100
AcDbLine
 10
79.700000495
 20
-68.218261004
 30
0.0
 11
79.649999648
 21
-68.173594773
 31
0.0
  0
LINE
  5
174
330
1D
100
AcDbEntity
  8
1
100
AcDbLine
 10
79.649999648
 20
-68.464659154
 30
0.0
 11
79.700000495
 21
-68.521775305
 31
0.0
  0
ARC
  5
175
330
1D
100
AcDbEntity
  8
1
100
AcDbCircle
 10
80.428032942
 20
-67.641786837
 30
0.0
 40
1.132455145
100
AcDbArc
 50
204.798006843
 51
226.604351517
  0
LINE
  5
176
330
1D
100
AcDbEntity
  8
1
100
AcDbLine
 10
79.649999648
 20
-68.173594773
 30
0.0
 11
79.544909209
 21
-68.084351718
 31
0.0
  0
LINE
  5
177
330
1D
100
AcDbEntity
  8
1
100
AcDbLine
 10
79.544909209
 20
-68.084351718
 30
0.0
 11
79.465299755
 21
-68.026646972
 31
0.0
  0
LINE
  5
178
330
1D
100
AcDbEntity
  8
1
100
AcDbLine
 10
79.465299755
 20
-68.026646972
 30
0.0
 11
79.419001847
 21
-68.004235625
 31
0.0
  0
LINE
  5
179
330
1D
100
AcDbEntity
  8
1
100
AcDbLine
 10
79.419001847
 20
-68.004235625
 30
0.0
 11
79.400259912
 21
-68.012133241
 31
0.0
  0
LINE
  5
17A
330
1D
100
AcDbEntity
  8
1
100
AcDbLine
 10
79.400259912
 20
-68.012133241
 30
0.0
 11
79.399999142
 21
-68.01546365
 31
0.0
  0
LINE
  5
17B
330
1D
100
AcDbEntity
  8
1
100
AcDbLine
 10
79.700000495
 20
-69.32554394
 30
0.0
 11
79.649999648
 21
-69.27908957
 31
0.0
  0
ARC
  5
17C
330
1D
100
AcDbEntity
  8
1
100
AcDbCircle
 10
79.160079524
 20
-69.654714305
 30
0.0
 40
0.617345664
100
AcDbArc
 50
37.477601539
 51
67.130661558
  0
LINE
  5
17D
330
1D
100
AcDbEntity
  8
1
100
AcDbLine
 10
79.649999648
 20
-69.451101124
 30
0.0
 11
79.700000495
 21
-69.504916668
 31
0.0
  0
ARC
  5
17E
330
1D
100
AcDbEntity
  8
1
100
AcDbCircle
 10
80.589212814
 20
-68.427111417
 30
0.0
 40
1.38948778
100
AcDbArc
 50
211.14459483
 51
227.47265438
  0
LINE
  5
17F
330
1D
100
AcDbEntity
  8
1
100
AcDbLine
 10
79.700000495
 20
-69.902300835
 30
0.0
 11
79.649999648
 21
-69.853752851
 31
0.0
  0
LINE
  5
180
330
1D
100
AcDbEntity
  8
1
100
AcDbLine
 10
113.825324833
 20
-27.674220502
 30
0.0
 11
116.153385401
 21
-31.706538051
 31
0.0
  0
LINE
  5
181
330
1D
100
AcDbEntity
  8
1
100
AcDbLine
 10
79.649999648
 20
-69.910660386
 30
0.0
 11
79.700000495
 21
-69.961644709
 31
0.0
  0
ARC
  5
182
330
1D
100
AcDbEntity
  8
1
100
AcDbCircle
 10
81.843926729
 20
-67.598332455
 30
0.0
 40
3.187503176
100
AcDbArc
 50
219.939601259
 51
226.505087607
  0
ARC
  5
183
330
1D
100
AcDbEntity
  8
1
100
AcDbCircle
 10
78.247054373
 20
-71.134974881
 30
0.0
 40
1.899943508
100
AcDbArc
 50
42.403495202
 51
52.63927966199999
  0
LINE
  5
184
330
1D
100
AcDbEntity
  8
1
100
AcDbLine
 10
97.190469414
 20
70.000000298
 30
0.0
 11
83.356331944
 21
70.000000298
 31
0.0
  0
LINE
  5
185
330
1D
100
AcDbEntity
  8
1
100
AcDbLine
 10
104.301046491
 20
71.253791451
 30
0.0
 11
103.420466095
 21
71.098521352
 31
0.0
  0
LINE
  5
186
330
1D
100
AcDbEntity
  8
1
100
AcDbLine
 10
103.420466095
 20
71.098521352
 30
0.0
 11
97.190469414
 21
70.000000298
 31
0.0
  0
LINE
  5
187
330
1D
100
AcDbEntity
  8
1
100
AcDbLine
 10
103.313285768
 20
61.88737601
 30
0.0
 11
104.299999684
 21
63.063293695
 31
0.0
  0
ARC
  5
188
330
1D
100
AcDbEntity
  8
1
100
AcDbCircle
 10
105.305
 20
60.21612773
 30
0.0
 40
2.6
100
AcDbArc
 50
140.0
 51
320.0
  0
LINE
  5
189
330
1D
100
AcDbEntity
  8
1
100
AcDbLine
 10
108.283430248
 20
59.720803052
 30
0.0
 11
107.296716332
 21
58.544881642
 31
0.0
  0
LINE
  5
18A
330
1D
100
AcDbEntity
  8
1
100
AcDbLine
 10
116.6499964
 20
61.265256256
 30
0.0
 11
116.645272732
 21
61.264418066
 31
0.0
  0
LINE
  5
18B
330
1D
100
AcDbEntity
  8
1
100
AcDbLine
 10
116.6499964
 20
32.5672701
 30
0.0
 11
116.6499964
 21
61.2676074520384
 31
0.0
  0
LINE
  5
18C
330
1D
100
AcDbEntity
  8
1
100
AcDbLine
 10
101.63974753
 20
6.568747573
 30
0.0
 11
116.6499964
 21
32.5672701
 31
0.0
  0
ARC
  5
18D
330
1D
100
AcDbEntity
  8
1
100
AcDbCircle
 10
110.3
 20
1.568747792
 30
0.0
 40
10.0
100
AcDbArc
 50
150.0
 51
180.0
  0
LINE
  5
18E
330
1D
100
AcDbEntity
  8
1
100
AcDbLine
 10
116.6499964
 20
61.265256256
 30
0.0
 11
116.648528635
 21
61.266612262
 31
0.0
  0
LINE
  5
18F
330
1D
100
AcDbEntity
  8
1
100
AcDbLine
 10
83.356331944
 20
70.000000298
 30
0.0
 11
83.264298648
 21
69.999456406
 31
0.0
  0
LINE
  5
190
330
1D
100
AcDbEntity
  8
1
100
AcDbLine
 10
83.264298648
 20
69.999456406
 30
0.0
 11
83.148077041
 21
69.998942316
 31
0.0
  0
LINE
  5
191
330
1D
100
AcDbEntity
  8
1
100
AcDbLine
 10
79.849999308
 20
69.91122663
 30
0.0
 11
79.900000155
 21
69.962210953
 31
0.0
  0
ARC
  5
192
330
1D
100
AcDbEntity
  8
1
100
AcDbCircle
 10
83.898076211
 20
-136.85523296
 30
0.0
 40
206.855536433
100
AcDbArc
 50
90.207738838
 51
91.10747119
  0
LINE
  5
193
330
1D
100
AcDbEntity
  8
1
100
AcDbLine
 10
79.599998802
 20
37.400282919
 30
0.0
 11
79.599998802
 21
69.645211101
 31
0.0
  0
ARC
  5
194
330
1D
100
AcDbEntity
  8
1
100
AcDbCircle
 10
82.043926389
 20
67.598898699
 30
0.0
 40
3.187503176
100
AcDbArc
 50
133.494912393
 51
140.060398741
  0
ARC
  5
196
330
1D
100
AcDbEntity
  8
1
100
AcDbCircle
 10
105.1
 20
71.243053635
 30
0.0
 40
0.8
100
AcDbArc
 50
100.0
 51
180.0
  0
LINE
  5
197
330
1D
100
AcDbEntity
  8
1
100
AcDbLine
 10
116.061080158
 20
73.988132179
 30
0.0
 11
104.96108225
 21
72.030901909
 31
0.0
  0
ARC
  5
198
330
1D
100
AcDbEntity
  8
1
100
AcDbCircle
 10
116.2
 20
73.200283121
 30
0.0
 40
0.8
100
AcDbArc
 50
0.0
 51
100.0
  0
LINE
  5
199
330
1D
100
AcDbEntity
  8
1
100
AcDbLine
 10
117.000002324
 20
61.929047108
 30
0.0
 11
117.000002324
 21
73.200285435
 31
0.0
  0
ARC
  5
19A
330
1D
100
AcDbEntity
  8
1
100
AcDbCircle
 10
116.2
 20
61.929047729
 30
0.0
 40
0.8
100
AcDbArc
 50
280.0
 51
0.0
  0
ARC
  5
19B
330
1D
100
AcDbEntity
  8
1
100
AcDbCircle
 10
105.1
 20
59.971818243
 30
0.0
 40
0.8
100
AcDbArc
 50
180.0
 51
280.0
  0
ARC
  5
19D
330
1D
100
AcDbEntity
  8
CUT
100
AcDbCircle
 10
116.2
 20
-73.199716877
 30
0.0
 40
0.8
100
AcDbArc
 50
260.0
 51
0.0
  0
ARC
  5
19E
330
1D
100
AcDbEntity
  8
CUT
100
AcDbCircle
 10
116.2
 20
-73.199716877
 30
0.0
 40
0.21554549
100
AcDbArc
 50
260.0
 51
0.0
  0
ARC
  5
19F
330
1D
100
AcDbEntity
  8
CUT
100
AcDbCircle
 10
116.2
 20
-61.928481485
 30
0.0
 40
0.8
100
AcDbArc
 50
0.0
 51
55.898251634
  0
ARC
  5
1A0
330
1D
100
AcDbEntity
  8
CUT
100
AcDbCircle
 10
116.2
 20
-61.928481485
 30
0.0
 40
0.21554549
100
AcDbArc
 50
0.0
 51
80.0
  0
LINE
  5
1A1
330
1D
100
AcDbEntity
  8
CUT
100
AcDbLine
 10
117.000002324
 20
-61.928480864
 30
0.0
 11
117.000002324
 21
-73.199719191
 31
0.0
  0
LINE
  5
1A2
330
1D
100
AcDbEntity
  8
CUT
100
AcDbLine
 10
116.41554898
 20
-73.199719191
 30
0.0
 11
116.41554898
 21
-61.928480864
 31
0.0
  0
LINE
  5
1A3
330
1D
100
AcDbEntity
  8
CUT
100
AcDbLine
 10
116.23742795
 20
-61.716210097
 30
0.0
 11
116.208564401
 21
-61.711121351
 31
0.0
  0
LINE
  5
1A4
330
1D
100
AcDbEntity
  8
CUT
100
AcDbLine
 10
105.062570333
 20
-71.454755962
 30
0.0
 11
116.162571967
 21
-73.411986232
 31
0.0
  0
ARC
  5
1A5
330
1D
100
AcDbEntity
  8
CUT
100
AcDbCircle
 10
105.1
 20
-71.242487391
 30
0.0
 40
0.21554549
100
AcDbArc
 50
180.0
 51
260.0
  0
LINE
  5
1A6
330
1D
100
AcDbEntity
  8
CUT
100
AcDbLine
 10
104.884453028
 20
-71.220584214
 30
0.0
 11
104.884453028
 21
-71.242488921
 31
0.0
  0
LINE
  5
1A7
330
1D
100
AcDbEntity
  8
CUT
100
AcDbLine
 10
116.061080158
 20
-73.987565935
 30
0.0
 11
104.96108225
 21
-72.030335665
 31
0.0
  0
ARC
  5
1A8
330
1D
100
AcDbEntity
  8
CUT
100
AcDbCircle
 10
105.1
 20
-71.242487391
 30
0.0
 40
0.8
100
AcDbArc
 50
180.0
 51
260.0
  0
ARC
  5
1AA
330
1D
100
AcDbEntity
  8
1
100
AcDbCircle
 10
111.455256184
 20
64.627020253
 30
0.0
 40
0.7
100
AcDbArc
 50
63.384161806
 51
176.615838194
  0
ARC
  5
1AB
330
1D
100
AcDbEntity
  8
1
100
AcDbCircle
 10
111.903262424
 20
65.521050682
 30
0.0
 40
0.3
100
AcDbArc
 50
243.384161806
 51
56.61583819400001
  0
ARC
  5
1AD
330
1D
100
AcDbEntity
  8
1
100
AcDbCircle
 10
109.458743816
 20
64.627020253
 30
0.0
 40
0.7
100
AcDbArc
 50
3.384161806
 51
116.615838194
  0
ARC
  5
1AE
330
1D
100
AcDbEntity
  8
1
100
AcDbCircle
 10
110.457
 20
64.686050682
 30
0.0
 40
0.3
100
AcDbArc
 50
183.384161806
 51
356.615838194
  0
ARC
  5
1B0
330
1D
100
AcDbEntity
  8
1
100
AcDbCircle
 10
108.460487632
 20
66.356050682
 30
0.0
 40
0.7
100
AcDbArc
 50
303.384161806
 51
56.615838194
  0
ARC
  5
1B1
330
1D
100
AcDbEntity
  8
1
100
AcDbCircle
 10
109.010737576
 20
65.521050682
 30
0.0
 40
0.3
100
AcDbArc
 50
123.384161806
 51
296.615838194
  0
ARC
  5
1B3
330
1D
100
AcDbEntity
  8
1
100
AcDbCircle
 10
112.453512367
 20
66.356050682
 30
0.0
 40
0.7
100
AcDbArc
 50
123.384161806
 51
236.615838194
  0
ARC
  5
1B4
330
1D
100
AcDbEntity
  8
1
100
AcDbCircle
 10
111.903262424
 20
67.191050682
 30
0.0
 40
0.3
100
AcDbArc
 50
303.384161806
 51
116.615838194
  0
ARC
  5
1B5
330
1D
100
AcDbEntity
  8
1
100
AcDbCircle
 10
111.455256184
 20
68.085081111
 30
0.0
 40
0.7
100
AcDbArc
 50
183.384161806
 51
296.615838194
  0
ARC
  5
1B6
330
1D
100
AcDbEntity
  8
1
100
AcDbCircle
 10
110.457
 20
68.026050682
 30
0.0
 40
0.3
100
AcDbArc
 50
3.384161806
 51
176.615838194
  0
ARC
  5
1B8
330
1D
100
AcDbEntity
  8
1
100
AcDbCircle
 10
109.458743816
 20
68.085081111
 30
0.0
 40
0.7
100
AcDbArc
 50
243.384161806
 51
356.615838194
  0
ARC
  5
1BA
330
1D
100
AcDbEntity
  8
1
100
AcDbCircle
 10
109.010737576
 20
67.191050682
 30
0.0
 40
0.3
100
AcDbArc
 50
63.384161806
 51
236.615838194
  0
LINE
  5
1BB
330
1D
100
AcDbEntity
  8
1
100
AcDbLine
 10
115.269642234
 20
-73.054850101
 30
0.0
 11
115.10482794
 21
-72.912804782
 31
0.0
  0
LINE
  5
1BC
330
1D
100
AcDbEntity
  8
1
100
AcDbLine
 10
115.10482794
 20
-72.912804782
 30
0.0
 11
114.776257336
 21
-72.525538504
 31
0.0
  0
LINE
  5
1BD
330
1D
100
AcDbEntity
  8
1
100
AcDbLine
 10
114.776257336
 20
-72.525538504
 30
0.0
 11
114.449124694
 21
-72.000257671
 31
0.0
  0
LINE
  5
1BE
330
1D
100
AcDbEntity
  8
1
100
AcDbLine
 10
114.449124694
 20
-72.000257671
 30
0.0
 11
114.043418229
 21
-71.150131524
 31
0.0
  0
LINE
  5
1BF
330
1D
100
AcDbEntity
  8
1
100
AcDbLine
 10
114.043418229
 20
-71.150131524
 30
0.0
 11
113.642778158
 21
-70.088021457
 31
0.0
  0
LINE
  5
1C0
330
1D
100
AcDbEntity
  8
1
100
AcDbLine
 10
113.642778158
 20
-70.088021457
 30
0.0
 11
113.248977721
 21
-68.818509579
 31
0.0
  0
LINE
  5
1C1
330
1D
100
AcDbEntity
  8
1
100
AcDbLine
 10
113.248977721
 20
-68.818509579
 30
0.0
 11
112.852293909
 21
-67.299664021
 31
0.0
  0
LINE
  5
1C2
330
1D
100
AcDbEntity
  8
1
100
AcDbLine
 10
112.852293909
 20
-67.299664021
 30
0.0
 11
112.464677453
 21
-65.567977726
 31
0.0
  0
LINE
  5
1C3
330
1D
100
AcDbEntity
  8
1
100
AcDbLine
 10
112.464677453
 20
-65.567977726
 30
0.0
 11
112.087961197
 21
-63.631393015
 31
0.0
  0
ARC
  5
1C4
330
1D
100
AcDbEntity
  8
1
100
AcDbCircle
 10
235.992668255
 20
-39.936987496
 30
0.0
 40
125.104304104
100
AcDbArc
 50
190.783297569
 51
192.474884001
  0
ARC
  5
1C5
330
1D
100
AcDbEntity
  8
1
100
AcDbCircle
 10
133.088530767
 20
-62.702812876
 30
0.0
 40
19.671525299
100
AcDbArc
 50
192.475314839
 51
202.812008309
  0
ARC
  5
1C6
330
1D
100
AcDbEntity
  8
1
100
AcDbCircle
 10
121.642548526
 20
-67.517083815
 30
0.0
 40
7.254290739
100
AcDbArc
 50
202.812008309
 51
219.574065791
  0
ARC
  5
1C7
330
1D
100
AcDbEntity
  8
1
100
AcDbCircle
 10
116.80346311
 20
-71.516630486
 30
0.0
 40
0.976303701
100
AcDbArc
 50
219.574289152
 51
231.765037451
  0
LINE
  5
1C8
330
1D
100
AcDbEntity
  8
CUT
100
AcDbLine
 10
116.41554898
 20
-73.199719191
 30
0.0
 11
117.000002324
 21
-73.199719191
 31
0.0
  0
LINE
  5
1C9
330
1D
100
AcDbEntity
  8
CUT
100
AcDbLine
 10
116.162571967
 20
-73.411986232
 30
0.0
 11
116.061080158
 21
-73.987565935
 31
0.0
  0
LINE
  5
1CA
330
1D
100
AcDbEntity
  8
CUT
100
AcDbLine
 10
116.23742795
 20
-61.716210097
 30
0.0
 11
116.297457278
 21
-61.375778168
 31
0.0
  0
LINE
  5
1CB
330
1D
100
AcDbEntity
  8
CUT
100
AcDbLine
 10
116.41554898
 20
-61.928480864
 30
0.0
 11
117.000002324
 21
-61.928480864
 31
0.0
  0
LINE
  5
1CC
330
1D
100
AcDbEntity
  8
CUT
100
AcDbLine
 10
105.062570333
 20
-71.454755962
 30
0.0
 11
104.96108225
 21
-72.030335665
 31
0.0
  0
LINE
  5
1CD
330
1D
100
AcDbEntity
  8
CUT
100
AcDbLine
 10
104.884453028
 20
-71.242488921
 30
0.0
 11
104.534707874
 21
-71.242488921
 31
0.0
  0
LINE
  5
1CF
330
1D
100
AcDbEntity
  8
SK2
100
AcDbLine
 10
132.316028786
 20
-73.999716877
 30
0.0
 11
116.2
 21
-73.999716877
 31
0.0
  0
LINE
  5
1D0
330
1D
100
AcDbEntity
  8
SK2
100
AcDbLine
 10
130.316028786
 20
-73.999716877
 30
0.0
 11
129.866028786
 21
-70.499716877
 31
0.0
  0
LINE
  5
1D1
330
1D
100
AcDbEntity
  8
SK2
100
AcDbLine
 10
129.866028786
 20
-70.499716877
 30
0.0
 11
130.766028786
 21
-70.499716877
 31
0.0
  0
LINE
  5
1D2
330
1D
100
AcDbEntity
  8
SK2
100
AcDbLine
 10
130.766028786
 20
-70.499716877
 30
0.0
 11
130.316028786
 21
-73.999716877
 31
0.0
  0
LINE
  5
1D3
330
1D
100
AcDbEntity
  8
SK2
100
AcDbLine
 10
132.316028786
 20
74.000283121
 30
0.0
 11
116.2
 21
74.000283121
 31
0.0
  0
LINE
  5
1D4
330
1D
100
AcDbEntity
  8
SK2
100
AcDbLine
 10
130.316028786
 20
74.000283121
 30
0.0
 11
130.766028786
 21
70.500283121
 31
0.0
  0
LINE
  5
1D5
330
1D
100
AcDbEntity
  8
SK2
100
AcDbLine
 10
130.766028786
 20
70.500283121
 30
0.0
 11
129.866028786
 21
70.500283121
 31
0.0
  0
LINE
  5
1D6
330
1D
100
AcDbEntity
  8
SK2
100
AcDbLine
 10
129.866028786
 20
70.500283121
 30
0.0
 11
130.316028786
 21
74.000283121
 31
0.0
  0
LINE
  5
1D7
330
1D
100
AcDbEntity
  8
SK2
100
AcDbLine
 10
130.316028786
 20
-70.499716877
 30
0.0
 11
130.316028786
 21
70.500283121
 31
0.0
  0
TEXT
  5
1D8
330
1D
100
AcDbEntity
  8
SK2
100
AcDbText
 10
128.816028786
 20
-5.008781032
 30
0.0
 40
3.5
  1
148
 50
90.0
  7
BMG_Text
100
AcDbText
  0
CIRCLE
  5
1D9
330
1D
100
AcDbEntity
  8
SK2
100
AcDbCircle
 10
127.566028786
 20
-7.258781032
 30
0.0
 40
1.25
  0
LINE
  5
1DA
330
1D
100
AcDbEntity
  8
SK2
100
AcDbLine
 10
128.816028786
 20
-8.508781032
 30
0.0
 11
126.316028786
 21
-6.008781032
 31
0.0
  0
TEXT
  5
1DB
330
1D
100
AcDbEntity
  8
SK2
100
AcDbText
 10
128.816028786
 20
1.297156468
 30
0.0
 40
3.5
  1
-203
 50
90.0
  7
BMG_Text
100
AcDbText
  0
LINE
  5
287
330
1D
100
AcDbEntity
  8
1
100
AcDbLine
 10
108.283430248
 20
59.720803052
 30
0.0
 11
116.3389185421335
 21
61.14120152659023
 31
0.0
  0
LINE
  5
288
330
1D
100
AcDbEntity
  8
1
100
AcDbLine
 10
116.3389185421335
 20
61.14120152659023
 30
0.0
 11
116.6499964
 21
61.14120152659023
 31
0.0
  0
LINE
  5
28A
330
1D
100
AcDbEntity
  8
3
100
AcDbLine
 10
116.6499964
 20
61.2676074520384
 30
0.0
 11
116.2
 21
61.929047729
 31
0.0
  0
LINE
  5
28B
330
1D
100
AcDbEntity
  8
3
100
AcDbLine
 10
116.2
 20
61.929047729
 30
0.0
 11
116.2
 21
73.200283121
 31
0.0
  0
LINE
  5
28C
330
1D
100
AcDbEntity
  8
3
100
AcDbLine
 10
116.2
 20
73.200283121
 30
0.0
 11
105.1121176116474
 21
71.243053635
 31
0.0
  0
LINE
  5
28D
330
1D
100
AcDbEntity
  8
3
100
AcDbLine
 10
105.1121176116474
 20
71.243053635
 30
0.0
 11
104.3
 21
71.243053635
 31
0.0
  0
LINE
  5
291
330
1D
100
AcDbEntity
  8
1
100
AcDbLine
 10
105.2389185421335
 20
59.18397204059023
 30
0.0
 11
116.3389185421335
 21
61.14120152659023
 31
0.0
  0
LINE
  5
292
330
1D
100
AcDbEntity
  8
1
100
AcDbLine
 10
104.3
 20
59.971818243
 30
0.0
 11
104.3
 21
71.25030697237915
 31
0.0
  0
LINE
  5
2AB
330
1D
100
AcDbEntity
  8
NOCUT
100
AcDbLine
 10
0.0
 20
44.500000775
 30
0.0
 11
0.500000024
 21
45.000001788
 31
0.0
  0
LINE
  5
2AC
330
1D
100
AcDbEntity
  8
NOCUT
100
AcDbLine
 10
0.500000024
 20
45.000001788
 30
0.0
 11
17.999999225
 21
45.000001788
 31
0.0
  0
LINE
  5
2AD
330
1D
100
AcDbEntity
  8
NOCUT
100
AcDbLine
 10
17.999999225
 20
45.000001788
 30
0.0
 11
61.301268637
 21
70.000000298
 31
0.0
  0
LINE
  5
2AE
330
1D
100
AcDbEntity
  8
NOCUT
100
AcDbLine
 10
61.301268637
 20
70.000000298
 30
0.0
 11
97.190469414
 21
70.000000298
 31
0.0
  0
LINE
  5
2AF
330
1D
100
AcDbEntity
  8
NOCUT
100
AcDbLine
 10
97.190469414
 20
70.000000298
 30
0.0
 11
104.3
 21
71.25030697237915
 31
0.0
  0
LINE
  5
2B5
330
1D
100
AcDbEntity
  8
NOCUT
100
AcDbLine
 10
116.6499964
 20
61.2676074520384
 30
0.0
 11
116.6499964
 21
32.5672701
 31
0.0
  0
LINE
  5
2B6
330
1D
100
AcDbEntity
  8
NOCUT
100
AcDbLine
 10
116.6499964
 20
32.5672701
 30
0.0
 11
101.6397459621556
 21
6.568747791999999
 31
0.0
  0
ARC
  5
2B7
330
1D
100
AcDbEntity
  8
NOCUT
100
AcDbCircle
 10
110.2999784691843
 20
1.568750626585684
 30
0.0
 40
9.999978469184667
100
AcDbArc
 50
149.9999489788735
 51
180.0000162410146
  0
LINE
  5
2B8
330
1D
100
AcDbEntity
  8
NOCUT
100
AcDbLine
 10
0.0
 20
0.0
 30
0.0
 11
100.299999028
 21
0.0
 31
0.0
  0
LINE
  5
2B9
330
1D
100
AcDbEntity
  8
NOCUT
100
AcDbLine
 10
100.299999028
 20
0.0
 30
0.0
 11
100.299999028
 21
1.552511779436139
 31
0.0
  0
LWPOLYLINE
  5
2BB
330
1D
100
AcDbEntity
  8
INFTOTAL
100
AcDbPolyline
 90
        4
 70
     1
 43
0.0
 10
180.9045355089699
 20
103.5596999743516
 10
180.9045355089699
 20
-86.83677909627363
 10
-94.95880750002499
 20
-86.83677909627363
 10
-94.95880750002499
 20
103.5596999743516
  0
LINE
  5
2C3
330
1D
100
AcDbEntity
  8
SK2
100
AcDbLine
 10
-53.449810034
 20
0.0
 30
0.0
 11
113.1116973937081
 21
0.0
 31
0.0
  0
LINE
  5
2C7
330
1D
100
AcDbEntity
  8
SK3
100
AcDbLine
 10
0.0
 20
11.000015259
 30
0.0
 11
-46.220573077
 21
11.000015259
 31
0.0
  0
LINE
  5
2C8
330
1D
100
AcDbEntity
  8
SK3
100
AcDbLine
 10
-46.220573077
 20
-11.0
 30
0.0
 11
0.0000000000000071
 21
-11.0
 31
0.0
  0
LINE
  5
2CF
330
1D
100
AcDbEntity
  8
NOCUT
100
AcDbLine
 10
104.3
 20
71.243053635
 30
0.0
 11
105.1121176116474
 21
71.243053635
 31
0.0
  0
LINE
  5
2D0
330
1D
100
AcDbEntity
  8
NOCUT
100
AcDbLine
 10
105.1121176116474
 20
71.243053635
 30
0.0
 11
116.2
 21
73.200283121
 31
0.0
  0
LINE
  5
2D1
330
1D
100
AcDbEntity
  8
NOCUT
100
AcDbLine
 10
116.2
 20
73.200283121
 30
0.0
 11
116.2
 21
61.929047729
 31
0.0
  0
LINE
  5
2D2
330
1D
100
AcDbEntity
  8
NOCUT
100
AcDbLine
 10
116.2
 20
61.929047729
 30
0.0
 11
116.6499964
 21
61.2676074520384
 31
0.0
  0
LINE
  5
540
330
1D
100
AcDbEntity
  8
SK1
100
AcDbLine
 10
-0.0000000001909417
 20
22.89993287183274
 30
0.0
 11
-0.0000000001909414
 21
-22.89993287183274
 31
0.0
  0
LINE
  5
542
330
1D
100
AcDbEntity
  8
NOCUT
100
AcDbLine
 10
0.0
 20
44.500000775
 30
0.0
 11
0.0
 21
0.0
 31
0.0
  0
ARC
  5
54E
330
1D
100
AcDbEntity
  8
CUT
100
AcDbCircle
 10
105.1
 20
71.243053635
 30
0.0
 40
0.8
100
AcDbArc
 50
99.99999999999858
 51
180.0
  0
LINE
  5
54F
330
1D
100
AcDbEntity
  8
CUT
100
AcDbLine
 10
116.061080158
 20
73.988132179
 30
0.0
 11
104.96108225
 21
72.030901909
 31
0.0
  0
ARC
  5
550
330
1D
100
AcDbEntity
  8
CUT
100
AcDbCircle
 10
116.2
 20
73.200283121
 30
0.0
 40
0.8
100
AcDbArc
 50
0.0
 51
99.99999999999858
  0
LINE
  5
551
330
1D
100
AcDbEntity
  8
CUT
100
AcDbLine
 10
117.000002324
 20
61.929047108
 30
0.0
 11
117.000002324
 21
73.200285435
 31
0.0
  0
ARC
  5
552
330
1D
100
AcDbEntity
  8
CUT
100
AcDbCircle
 10
116.2
 20
61.929047729
 30
0.0
 40
0.8
100
AcDbArc
 50
279.9999999999986
 51
0.0
  0
ARC
  5
553
330
1D
100
AcDbEntity
  8
CUT
100
AcDbCircle
 10
105.1
 20
59.971818243
 30
0.0
 40
0.8
100
AcDbArc
 50
180.0
 51
280.0000000000006
  0
CIRCLE
  5
554
330
1D
100
AcDbEntity
  8
1
100
AcDbCircle
 10
110.457
 20
66.356050682
 30
0.0
 40
3.640250390999995
  0
LINE
  5
555
330
1D
100
AcDbEntity
  8
CUT
100
AcDbLine
 10
105.2389185421335
 20
59.18397204059023
 30
0.0
 11
116.3389185421335
 21
61.14120152659023
 31
0.0
  0
LINE
  5
556
330
1D
100
AcDbEntity
  8
CUT
100
AcDbLine
 10
104.3
 20
59.971818243
 30
0.0
 11
104.3
 21
71.25030697237915
 31
0.0
  0
HATCH
  5
57B
330
1D
100
AcDbEntity
  8
7
100
AcDbHatch
 10
0.0
 20
0.0
 30
0.0
210
0.0
220
0.0
230
1.0
  2
ANSI37
 70
     0
 71
     0
 91
        2
 92
        7
 72
     1
 73
     1
 93
        8
 10
117.000000581
 20
61.92904757375
 42
0.0
 10
117.000000581
 20
73.2002836995
 42
0.4663064189853708
 10
116.0610811328999
 20
73.98813003730733
 42
0.0
 10
104.9610816558998
 20
72.03090035530731
 42
0.3639698726330948
 10
104.3
 20
71.24305363499998
 42
0.0
 10
104.3
 20
59.971818243
 42
0.4663076581574129
 10
105.2389185421398
 20
59.18397204059133
 42
0.0
 10
116.3389185421398
 20
61.14120152659132
 42
0.3639696143993101
 97
        0
 92
       22
 72
     1
 73
     1
 93
        2
 10
106.816749609
 20
66.356050682
 42
-1.0
 10
114.097250391
 20
66.356050682
 42
-1.0
 97
        0
 75
     0
 76
     1
 52
90.0
 41
5.0
 77
     0
 78
     2
 53
135.0
 43
-90.62236557788006
 44
3.798143607273687
 45
-0.4419417382415922
 46
-0.4419417382415922
 79
     0
 53
225.0
 43
-90.62236557788006
 44
3.798143607273687
 45
0.4419417382415922
 46
-0.4419417382415923
 79
     0
 47
0.0
 98
        2
 10
115.5492086558391
 20
63.53317851002011
 10
115.5492086558391
 20
63.53317851002011
1001
ACAD
1010
0.0
1020
0.0
1030
0.0
1001
PE_URL
1000

  0
ENDSEC
  0
SECTION
  2
OBJECTS
  0
DICTIONARY
  5
C
330
0
100
AcDbDictionary
281
     1
  3
ACAD_COLOR
350
301
  3
ACAD_DETAILVIEWSTYLE
350
2BF
  3
ACAD_GROUP
350
D
  3
ACAD_LAYOUT
350
1A
  3
ACAD_MATERIAL
350
21A
  3
ACAD_MLEADERSTYLE
350
228
  3
ACAD_MLINESTYLE
350
17
  3
ACAD_PLOTSETTINGS
350
19
  3
ACAD_PLOTSTYLENAME
350
E
  3
ACAD_SCALELIST
350
1E3
  3
ACAD_SECTIONVIEWSTYLE
350
2C0
  3
ACAD_TABLESTYLE
350
271
  3
ACAD_VISUALSTYLE
350
209
  3
ACDB_RECOMPOSE_DATA
350
580
  3
AcDbVariableDictionary
350
226
  3
APPDATA
350
274
  0
SUN
  5
2C1
330
1DC
100
AcDbSun
 90
        1
290
     0
 63
     7
421
 16777215
 40
1.0
291
     1
 91
  2455826
 92
 54000000
292
     0
 70
     2
 71
   256
280
     1
  0
DICTIONARY
  5
275
330
2
100
AcDbDictionary
280
     1
281
     1
  3
ACAD_LAYERSTATES
360
276
  0
DICTIONARY
  5
579
330
1D
100
AcDbDictionary
280
     1
281
     1
  3
ACAD_SORTENTS
360
57A
  0
DICTIONARY
  5
301
102
{ACAD_REACTORS
330
C
102
}
330
C
100
AcDbDictionary
281
     1
  0
DICTIONARY
  5
2BF
102
{ACAD_REACTORS
330
C
102
}
330
C
100
AcDbDictionary
281
     1
  0
DICTIONARY
  5
D
102
{ACAD_REACTORS
330
C
102
}
330
C
100
AcDbDictionary
281
     1
  0
DICTIONARY
  5
1A
102
{ACAD_REACTORS
330
C
102
}
330
C
100
AcDbDictionary
281
     1
  3
Layout1
350
1C
  3
Model
350
1E
  0
DICTIONARY
  5
21A
102
{ACAD_REACTORS
330
C
102
}
330
C
100
AcDbDictionary
281
     1
  3
ByBlock
350
21C
  3
ByLayer
350
21B
  3
Global
350
21D
  0
DICTIONARY
  5
228
102
{ACAD_REACTORS
330
C
102
}
330
C
100
AcDbDictionary
281
     1
  3
Standard
350
273
  0
DICTIONARY
  5
17
102
{ACAD_REACTORS
330
C
102
}
330
C
100
AcDbDictionary
281
     1
  3
Standard
350
18
  0
DICTIONARY
  5
19
102
{ACAD_REACTORS
330
C
102
}
330
C
100
AcDbDictionary
281
     1
  0
ACDBDICTIONARYWDFLT
  5
E
102
{ACAD_REACTORS
330
C
102
}
330
C
100
AcDbDictionary
281
     1
  3
Normal
350
F
100
AcDbDictionaryWithDefault
340
F
  0
DICTIONARY
  5
1E3
102
{ACAD_REACTORS
330
C
102
}
330
C
100
AcDbDictionary
281
     1
  3
A0
350
1E4
  3
A1
350
1E5
  3
A2
350
1E6
  3
A3
350
1E7
  3
A4
350
1E8
  3
A5
350
1E9
  3
A6
350
1EA
  3
A7
350
1EB
  3
A8
350
1EC
  3
A9
350
1ED
  3
B0
350
1EE
  3
B1
350
1EF
  3
B2
350
1F0
  3
B3
350
1F1
  3
B4
350
1F2
  3
B5
350
1F3
  3
B6
350
1F4
  3
B7
350
1F5
  3
B8
350
1F6
  3
B9
350
1F7
  3
C0
350
1F8
  3
C1
350
1F9
  3
C2
350
1FA
  3
C3
350
1FB
  3
C4
350
1FC
  3
C5
350
1FD
  3
C6
350
1FE
  3
C7
350
1FF
  3
C8
350
200
  3
C9
350
201
  3
D0
350
202
  3
D1
350
203
  3
D2
350
204
  0
DICTIONARY
  5
2C0
102
{ACAD_REACTORS
330
C
102
}
330
C
100
AcDbDictionary
281
     1
  0
DICTIONARY
  5
271
102
{ACAD_REACTORS
330
C
102
}
330
C
100
AcDbDictionary
281
     1
  3
Standard
350
272
  0
DICTIONARY
  5
209
102
{ACAD_REACTORS
330
C
102
}
330
C
100
AcDbDictionary
281
     1
  3
2dWireframe
350
20E
  3
3D Hidden
350
210
  3
3dWireframe
350
20F
  3
Basic
350
211
  3
Brighten
350
215
  3
ColorChange
350
219
  3
Conceptual
350
213
  3
Dim
350
214
  3
EdgeColorOff
350
26B
  3
Facepattern
350
218
  3
Flat
350
20A
  3
FlatWithEdges
350
20B
  3
Gouraud
350
20C
  3
GouraudWithEdges
350
20D
  3
Hidden
350
268
  3
JitterOff
350
269
  3
Linepattern
350
217
  3
OverhangOff
350
26A
  3
Realistic
350
212
  3
Shaded
350
270
  3
Shaded with edges
350
26F
  3
Shades of Gray
350
26C
  3
Sketchy
350
26D
  3
Thicken
350
216
  3
Wireframe
350
267
  3
X-Ray
350
26E
  0
XRECORD
  5
580
102
{ACAD_REACTORS
330
C
102
}
330
C
100
AcDbXrecord
280
     1
 90
        1
330
272
  0
DICTIONARY
  5
226
102
{ACAD_REACTORS
330
C
102
}
330
C
100
AcDbDictionary
281
     1
  3
CANNOSCALE
350
2BC
  3
CMLEADERSTYLE
350
2BE
  3
CTABLESTYLE
350
2BD
  3
DIMASSOC
350
22A
  3
HIDETEXT
350
22B
  3
MSLTSCALE
350
229
  0
DICTIONARY
  5
274
102
{ACAD_REACTORS
330
C
102
}
330
C
100
AcDbDictionary
281
     1
  0
DICTIONARY
  5
276
102
{ACAD_REACTORS
330
275
102
}
330
275
100
AcDbDictionary
281
     1
  0
SORTENTSTABLE
  5
57A
102
{ACAD_REACTORS
330
579
102
}
330
579
100
AcDbSortentsTable
330
1D
331
54E
  5
550
331
54F
  5
551
331
550
  5
552
331
551
  5
553
331
552
  5
554
331
553
  5
555
331
554
  5
556
331
555
  5
575
331
556
  5
576
331
0
  5
577
331
0
  5
578
331
0
  5
57B
331
0
  5
54E
331
57B
  5
54F
  0
LAYOUT
  5
1C
102
{ACAD_REACTORS
330
1A
102
}
330
1A
100
AcDbPlotSettings
  1

  2
none_device
  4

  6

 40
0.0
 41
0.0
 42
0.0
 43
0.0
 44
0.0
 45
0.0
 46
0.0
 47
0.0
 48
0.0
 49
0.0
140
0.0
141
0.0
142
1.0
143
1.0
 70
   688
 72
     0
 73
     0
 74
     5
  7

 75
    16
 76
     0
 77
     2
 78
   300
147
1.0
148
0.0
149
0.0
100
AcDbLayout
  1
Layout1
 70
     1
 71
     1
 10
0.0
 20
0.0
 11
12.0
 21
9.0
 12
0.0
 22
0.0
 32
0.0
 14
1.000000000000000E+20
 24
1.000000000000000E+20
 34
1.000000000000000E+20
 15
-1.000000000000000E+20
 25
-1.000000000000000E+20
 35
-1.000000000000000E+20
146
0.0
 13
0.0
 23
0.0
 33
0.0
 16
1.0
 26
0.0
 36
0.0
 17
0.0
 27
1.0
 37
0.0
 76
     0
330
1B
  0
LAYOUT
  5
1E
102
{ACAD_REACTORS
330
1A
102
}
330
1A
100
AcDbPlotSettings
  1

  2
none_device
  4

  6

 40
0.0
 41
0.0
 42
0.0
 43
0.0
 44
0.0
 45
0.0
 46
0.0
 47
0.0
 48
0.0
 49
0.0
140
0.0
141
0.0
142
1.0
143
1.0
 70
  1712
 72
     0
 73
     0
 74
     0
  7

 75
     0
 76
     0
 77
     2
 78
   300
147
1.0
148
0.0
149
0.0
100
AcDbLayout
  1
Model
 70
     1
 71
     0
 10
0.0
 20
0.0
 11
12.0
 21
9.0
 12
0.0
 22
0.0
 32
0.0
 14
-94.95880750002499
 24
-86.83677909627363
 34
0.0
 15
180.9045355089699
 25
103.5596999743516
 35
0.0
146
0.0
 13
0.0
 23
0.0
 33
0.0
 16
1.0
 26
0.0
 36
0.0
 17
0.0
 27
1.0
 37
0.0
 76
     0
330
1D
331
1DC
  0
MATERIAL
  5
21C
102
{ACAD_REACTORS
330
21A
102
}
330
21A
100
AcDbMaterial
  1
ByBlock
 72
     1
 94
      127
  0
MATERIAL
  5
21B
102
{ACAD_REACTORS
330
21A
102
}
330
21A
100
AcDbMaterial
  1
ByLayer
 72
     1
 94
      127
  0
MATERIAL
  5
21D
102
{ACAD_REACTORS
330
21A
102
}
330
21A
100
AcDbMaterial
  1
Global
 72
     1
 94
      127
  0
MLEADERSTYLE
  5
273
102
{ACAD_REACTORS
330
228
102
}
330
228
100
AcDbMLeaderStyle
179
     2
170
     2
171
     1
172
     0
 90
        2
 40
0.0
 41
0.0
173
     1
 91
-1056964608
340
14
 92
       -2
290
     1
 42
0.09
291
     1
 43
0.36
  3
Standard
341
0
 44
0.18
300

342
11
174
     1
178
     1
175
     1
176
     0
 93
-1056964608
 45
0.18
292
     0
297
     0
 46
0.18
343
0
 94
-1056964608
 47
1.0
 49
1.0
140
1.0
293
     1
141
0.0
294
     1
177
     0
142
1.0
295
     0
296
     0
143
0.125
271
     0
272
     9
273
     9
298
     0
  0
MLINESTYLE
  5
18
102
{ACAD_REACTORS
330
17
102
}
330
17
100
AcDbMlineStyle
  2
Standard
 70
     0
  3

 62
   256
 51
90.0
 52
90.0
 71
     2
 49
0.5
 62
   256
  6
BYLAYER
 49
-0.5
 62
   256
  6
BYLAYER
  0
ACDBPLACEHOLDER
  5
F
102
{ACAD_REACTORS
330
E
102
}
330
E
  0
SCALE
  5
1E4
102
{ACAD_REACTORS
330
1E3
102
}
330
1E3
100
AcDbScale
 70
     0
300
1:1
140
1.0
141
1.0
290
     1
  0
SCALE
  5
1E5
102
{ACAD_REACTORS
330
1E3
102
}
330
1E3
100
AcDbScale
 70
     0
300
1:2
140
1.0
141
2.0
290
     0
  0
SCALE
  5
1E6
102
{ACAD_REACTORS
330
1E3
102
}
330
1E3
100
AcDbScale
 70
     0
300
1:4
140
1.0
141
4.0
290
     0
  0
SCALE
  5
1E7
102
{ACAD_REACTORS
330
1E3
102
}
330
1E3
100
AcDbScale
 70
     0
300
1:5
140
1.0
141
5.0
290
     0
  0
SCALE
  5
1E8
102
{ACAD_REACTORS
330
1E3
102
}
330
1E3
100
AcDbScale
 70
     0
300
1:8
140
1.0
141
8.0
290
     0
  0
SCALE
  5
1E9
102
{ACAD_REACTORS
330
1E3
102
}
330
1E3
100
AcDbScale
 70
     0
300
1:10
140
1.0
141
10.0
290
     0
  0
SCALE
  5
1EA
102
{ACAD_REACTORS
330
1E3
102
}
330
1E3
100
AcDbScale
 70
     0
300
1:16
140
1.0
141
16.0
290
     0
  0
SCALE
  5
1EB
102
{ACAD_REACTORS
330
1E3
102
}
330
1E3
100
AcDbScale
 70
     0
300
1:20
140
1.0
141
20.0
290
     0
  0
SCALE
  5
1EC
102
{ACAD_REACTORS
330
1E3
102
}
330
1E3
100
AcDbScale
 70
     0
300
1:30
140
1.0
141
30.0
290
     0
  0
SCALE
  5
1ED
102
{ACAD_REACTORS
330
1E3
102
}
330
1E3
100
AcDbScale
 70
     0
300
1:40
140
1.0
141
40.0
290
     0
  0
SCALE
  5
1EE
102
{ACAD_REACTORS
330
1E3
102
}
330
1E3
100
AcDbScale
 70
     0
300
1:50
140
1.0
141
50.0
290
     0
  0
SCALE
  5
1EF
102
{ACAD_REACTORS
330
1E3
102
}
330
1E3
100
AcDbScale
 70
     0
300
1:100
140
1.0
141
100.0
290
     0
  0
SCALE
  5
1F0
102
{ACAD_REACTORS
330
1E3
102
}
330
1E3
100
AcDbScale
 70
     0
300
2:1
140
2.0
141
1.0
290
     0
  0
SCALE
  5
1F1
102
{ACAD_REACTORS
330
1E3
102
}
330
1E3
100
AcDbScale
 70
     0
300
4:1
140
4.0
141
1.0
290
     0
  0
SCALE
  5
1F2
102
{ACAD_REACTORS
330
1E3
102
}
330
1E3
100
AcDbScale
 70
     0
300
8:1
140
8.0
141
1.0
290
     0
  0
SCALE
  5
1F3
102
{ACAD_REACTORS
330
1E3
102
}
330
1E3
100
AcDbScale
 70
     0
300
10:1
140
10.0
141
1.0
290
     0
  0
SCALE
  5
1F4
102
{ACAD_REACTORS
330
1E3
102
}
330
1E3
100
AcDbScale
 70
     0
300
100:1
140
100.0
141
1.0
290
     0
  0
SCALE
  5
1F5
102
{ACAD_REACTORS
330
1E3
102
}
330
1E3
100
AcDbScale
 70
     0
300
1/128" = 1'-0"
140
0.0078125
141
12.0
290
     0
  0
SCALE
  5
1F6
102
{ACAD_REACTORS
330
1E3
102
}
330
1E3
100
AcDbScale
 70
     0
300
1/64" = 1'-0"
140
0.015625
141
12.0
290
     0
  0
SCALE
  5
1F7
102
{ACAD_REACTORS
330
1E3
102
}
330
1E3
100
AcDbScale
 70
     0
300
1/32" = 1'-0"
140
0.03125
141
12.0
290
     0
  0
SCALE
  5
1F8
102
{ACAD_REACTORS
330
1E3
102
}
330
1E3
100
AcDbScale
 70
     0
300
1/16" = 1'-0"
140
0.0625
141
12.0
290
     0
  0
SCALE
  5
1F9
102
{ACAD_REACTORS
330
1E3
102
}
330
1E3
100
AcDbScale
 70
     0
300
3/32" = 1'-0"
140
0.09375
141
12.0
290
     0
  0
SCALE
  5
1FA
102
{ACAD_REACTORS
330
1E3
102
}
330
1E3
100
AcDbScale
 70
     0
300
1/8" = 1'-0"
140
0.125
141
12.0
290
     0
  0
SCALE
  5
1FB
102
{ACAD_REACTORS
330
1E3
102
}
330
1E3
100
AcDbScale
 70
     0
300
3/16" = 1'-0"
140
0.1875
141
12.0
290
     0
  0
SCALE
  5
1FC
102
{ACAD_REACTORS
330
1E3
102
}
330
1E3
100
AcDbScale
 70
     0
300
1/4" = 1'-0"
140
0.25
141
12.0
290
     0
  0
SCALE
  5
1FD
102
{ACAD_REACTORS
330
1E3
102
}
330
1E3
100
AcDbScale
 70
     0
300
3/8" = 1'-0"
140
0.375
141
12.0
290
     0
  0
SCALE
  5
1FE
102
{ACAD_REACTORS
330
1E3
102
}
330
1E3
100
AcDbScale
 70
     0
300
1/2" = 1'-0"
140
0.5
141
12.0
290
     0
  0
SCALE
  5
1FF
102
{ACAD_REACTORS
330
1E3
102
}
330
1E3
100
AcDbScale
 70
     0
300
3/4" = 1'-0"
140
0.75
141
12.0
290
     0
  0
SCALE
  5
200
102
{ACAD_REACTORS
330
1E3
102
}
330
1E3
100
AcDbScale
 70
     0
300
1" = 1'-0"
140
1.0
141
12.0
290
     0
  0
SCALE
  5
201
102
{ACAD_REACTORS
330
1E3
102
}
330
1E3
100
AcDbScale
 70
     0
300
1-1/2" = 1'-0"
140
1.5
141
12.0
290
     0
  0
SCALE
  5
202
102
{ACAD_REACTORS
330
1E3
102
}
330
1E3
100
AcDbScale
 70
     0
300
3" = 1'-0"
140
3.0
141
12.0
290
     0
  0
SCALE
  5
203
102
{ACAD_REACTORS
330
1E3
102
}
330
1E3
100
AcDbScale
 70
     0
300
6" = 1'-0"
140
6.0
141
12.0
290
     0
  0
SCALE
  5
204
102
{ACAD_REACTORS
330
1E3
102
}
330
1E3
100
AcDbScale
 70
     0
300
1'-0" = 1'-0"
140
12.0
141
12.0
290
     0
  0
TABLESTYLE
  5
272
102
{ACAD_REACTORS
330
271
102
}
102
{ACAD_XDICTIONARY
360
57E
102
}
330
271
100
AcDbTableStyle
  3
Standard
 70
     0
 71
     0
 40
0.06
 41
0.06
280
     0
281
     0
  7
Standard
140
0.18
170
     2
 62
     0
 63
   257
283
     0
 90
        4
 91
        0
  1

274
    -2
284
     1
 64
     0
275
    -2
285
     1
 65
     0
276
    -2
286
     1
 66
     0
277
    -2
287
     1
 67
     0
278
    -2
288
     1
 68
     0
279
    -2
289
     1
 69
     0
  7
Standard
140
0.25
170
     5
 62
     0
 63
   257
283
     0
 90
        4
 91
        0
  1

274
    -2
284
     1
 64
     0
275
    -2
285
     1
 65
     0
276
    -2
286
     1
 66
     0
277
    -2
287
     1
 67
     0
278
    -2
288
     1
 68
     0
279
    -2
289
     1
 69
     0
  7
Standard
140
0.18
170
     5
 62
     0
 63
   257
283
     0
 90
        4
 91
        0
  1

274
    -2
284
     1
 64
     0
275
    -2
285
     1
 65
     0
276
    -2
286
     1
 66
     0
277
    -2
287
     1
 67
     0
278
    -2
288
     1
 68
     0
279
    -2
289
     1
 69
     0
  0
VISUALSTYLE
  5
20E
102
{ACAD_REACTORS
330
209
102
}
330
209
100
AcDbVisualStyle
  2
2dWireframe
 70
     4
177
     3
291
     0
 70
    58
 90
        0
176
     1
 90
        2
176
     1
 90
        0
176
     1
 90
        0
176
     1
 40
-0.6
176
     1
 40
-30.0
176
     1
 62
     7
176
     1
 90
        1
176
     1
 90
        4
176
     1
 62
     7
176
     1
 62
   257
176
     1
 90
        1
176
     1
 90
        1
176
     1
 40
1.0
176
     1
 90
        0
176
     1
 62
   257
176
     1
 40
1.0
176
     1
 90
        1
176
     1
 90
        6
176
     1
 90
        2
176
     1
 62
     7
176
     1
 90
        5
176
     1
 90
        0
176
     1
 90
        0
176
     1
290
     0
176
     1
 90
        1
176
     1
 40
0.0
176
     1
 90
        0
176
     1
290
     1
176
     1
290
     1
176
     1
290
     0
176
     1
290
     0
176
     1
290
     0
176
     1
290
     0
176
     1
290
     0
176
     1
290
     0
176
     1
290
     0
176
     1
 90
       50
176
     1
 40
0.0
176
     1
 40
1.0
176
     1
 90
        0
176
     1
 62
    18
420
        0
176
     1
 90
       50
176
     1
 90
        3
176
     1
 62
     5
420
      255
176
     1
290
     0
176
     1
 90
       50
176
     1
 90
       50
176
     1
 90
       50
176
     1
290
     0
176
     1
 90
       50
176
     1
 62
   256
176
     0
 40
1.0
176
     0
 90
        2
176
     1
  1
strokes_ogs.tif
176
     1
290
     0
176
     1
 40
1.0
176
     1
 40
1.0
176
     1
  0
VISUALSTYLE
  5
210
102
{ACAD_REACTORS
330
209
102
}
330
209
100
AcDbVisualStyle
  2
3D Hidden
 70
     6
177
     3
291
     0
 70
    58
 90
        1
176
     1
 90
        2
176
     1
 90
        2
176
     1
 90
        0
176
     1
 40
-0.6
176
     1
 40
-30.0
176
     1
 62
     7
176
     1
 90
        2
176
     1
 90
        2
176
     1
 62
     7
176
     1
 62
   257
176
     1
 90
        2
176
     1
 90
        1
176
     1
 40
40.0
176
     1
 90
        0
176
     1
 62
   257
176
     1
 40
1.0
176
     1
 90
        1
176
     1
 90
        6
176
     1
 90
        2
176
     1
 62
     7
176
     1
 90
        3
176
     1
 90
        0
176
     1
 90
        0
176
     1
290
     0
176
     1
 90
        1
176
     1
 40
0.0
176
     1
 90
        0
176
     1
290
     0
176
     1
290
     1
176
     1
290
     1
176
     1
290
     0
176
     1
290
     0
176
     1
290
     0
176
     1
290
     0
176
     1
290
     0
176
     1
290
     0
176
     1
 90
       50
176
     1
 40
0.0
176
     1
 40
1.0
176
     1
 90
        0
176
     1
 62
    18
420
        0
176
     1
 90
       50
176
     1
 90
        3
176
     1
 62
     5
420
      255
176
     1
290
     0
176
     1
 90
       50
176
     1
 90
       50
176
     1
 90
       50
176
     1
290
     0
176
     1
 90
       50
176
     1
 62
   256
176
     0
 40
1.0
176
     0
 90
        2
176
     1
  1
strokes_ogs.tif
176
     1
290
     0
176
     1
 40
1.0
176
     1
 40
1.0
176
     1
  0
VISUALSTYLE
  5
20F
102
{ACAD_REACTORS
330
209
102
}
330
209
100
AcDbVisualStyle
  2
3dWireframe
 70
     5
177
     3
291
     0
 70
    58
 90
        0
176
     1
 90
        2
176
     1
 90
        0
176
     1
 90
        0
176
     1
 40
-0.6
176
     1
 40
-30.0
176
     1
 62
     7
176
     1
 90
        1
176
     1
 90
        4
176
     1
 62
     7
176
     1
 62
   257
176
     1
 90
        1
176
     1
 90
        1
176
     1
 40
1.0
176
     1
 90
        0
176
     1
 62
   257
176
     1
 40
1.0
176
     1
 90
        1
176
     1
 90
        6
176
     1
 90
        2
176
     1
 62
     7
176
     1
 90
        5
176
     1
 90
        0
176
     1
 90
        0
176
     1
290
     0
176
     1
 90
        1
176
     1
 40
0.0
176
     1
 90
        0
176
     1
290
     0
176
     1
290
     1
176
     1
290
     1
176
     1
290
     0
176
     1
290
     0
176
     1
290
     0
176
     1
290
     0
176
     1
290
     0
176
     1
290
     0
176
     1
 90
       50
176
     1
 40
0.0
176
     1
 40
1.0
176
     1
 90
        0
176
     1
 62
    18
420
        0
176
     1
 90
       50
176
     1
 90
        3
176
     1
 62
     5
420
      255
176
     1
290
     0
176
     1
 90
       50
176
     1
 90
       50
176
     1
 90
       50
176
     1
290
     0
176
     1
 90
       50
176
     1
 62
   256
176
     0
 40
1.0
176
     0
 90
        2
176
     1
  1
strokes_ogs.tif
176
     1
290
     0
176
     1
 40
1.0
176
     1
 40
1.0
176
     1
  0
VISUALSTYLE
  5
211
102
{ACAD_REACTORS
330
209
102
}
330
209
100
AcDbVisualStyle
  2
Basic
 70
     7
177
     3
291
     1
 70
    58
 90
        1
176
     1
 90
        0
176
     1
 90
        1
176
     1
 90
        0
176
     1
 40
-0.6
176
     1
 40
-30.0
176
     1
 62
     7
176
     1
 90
        0
176
     1
 90
        4
176
     1
 62
     7
176
     1
 62
   257
176
     1
 90
        1
176
     1
 90
        1
176
     1
 40
1.0
176
     1
 90
        8
176
     1
 62
     7
176
     1
 40
1.0
176
     1
 90
        1
176
     1
 90
        6
176
     1
 90
        2
176
     1
 62
     7
176
     1
 90
        5
176
     1
 90
        0
176
     1
 90
        0
176
     1
290
     0
176
     1
 90
        1
176
     1
 40
0.0
176
     1
 90
        0
176
     1
290
     0
176
     1
290
     1
176
     1
290
     1
176
     1
290
     0
176
     1
290
     0
176
     1
290
     0
176
     1
290
     0
176
     1
290
     0
176
     1
290
     0
176
     1
 90
       50
176
     1
 40
0.0
176
     1
 40
1.0
176
     1
 90
        0
176
     1
 62
    18
420
        0
176
     1
 90
       50
176
     1
 90
        3
176
     1
 62
     5
420
      255
176
     1
290
     0
176
     1
 90
       50
176
     1
 90
       50
176
     1
 90
       50
176
     1
290
     0
176
     1
 90
       50
176
     1
 62
   256
176
     0
 40
1.0
176
     0
 90
        2
176
     1
  1
strokes_ogs.tif
176
     1
290
     0
176
     1
 40
1.0
176
     1
 40
1.0
176
     1
  0
VISUALSTYLE
  5
215
102
{ACAD_REACTORS
330
209
102
}
330
209
100
AcDbVisualStyle
  2
Brighten
 70
    12
177
     3
291
     1
 70
    58
 90
        2
176
     1
 90
        2
176
     1
 90
        0
176
     1
 90
        0
176
     1
 40
-0.6
176
     1
 40
-30.0
176
     1
 62
     7
176
     1
 90
        1
176
     1
 90
        4
176
     1
 62
     7
176
     1
 62
   257
176
     1
 90
        1
176
     1
 90
        1
176
     1
 40
1.0
176
     1
 90
        8
176
     1
 62
     7
176
     1
 40
1.0
176
     1
 90
        1
176
     1
 90
        6
176
     1
 90
        2
176
     1
 62
     7
176
     1
 90
        5
176
     1
 90
        0
176
     1
 90
        0
176
     1
290
     0
176
     1
 90
        1
176
     1
 40
50.0
176
     1
 90
        0
176
     1
290
     0
176
     1
290
     1
176
     1
290
     1
176
     1
290
     0
176
     1
290
     0
176
     1
290
     0
176
     1
290
     0
176
     1
290
     0
176
     1
290
     0
176
     1
 90
       50
176
     1
 40
0.0
176
     1
 40
1.0
176
     1
 90
        0
176
     1
 62
    18
420
        0
176
     1
 90
       50
176
     1
 90
        3
176
     1
 62
     5
420
      255
176
     1
290
     0
176
     1
 90
       50
176
     1
 90
       50
176
     1
 90
       50
176
     1
290
     0
176
     1
 90
       50
176
     1
 62
   256
176
     0
 40
1.0
176
     0
 90
        2
176
     1
  1
strokes_ogs.tif
176
     1
290
     0
176
     1
 40
1.0
176
     1
 40
1.0
176
     1
  0
VISUALSTYLE
  5
219
102
{ACAD_REACTORS
330
209
102
}
330
209
100
AcDbVisualStyle
  2
ColorChange
 70
    16
177
     3
291
     1
 70
    58
 90
        2
176
     1
 90
        2
176
     1
 90
        3
176
     1
 90
        0
176
     1
 40
-0.6
176
     1
 40
-30.0
176
     1
 62
     8
176
     1
 90
        1
176
     1
 90
        4
176
     1
 62
     7
176
     1
 62
   257
176
     1
 90
        1
176
     1
 90
        1
176
     1
 40
1.0
176
     1
 90
        8
176
     1
 62
     8
176
     1
 40
1.0
176
     1
 90
        1
176
     1
 90
        6
176
     1
 90
        2
176
     1
 62
     7
176
     1
 90
        5
176
     1
 90
        0
176
     1
 90
        0
176
     1
290
     0
176
     1
 90
        1
176
     1
 40
0.0
176
     1
 90
        0
176
     1
290
     0
176
     1
290
     1
176
     1
290
     1
176
     1
290
     0
176
     1
290
     0
176
     1
290
     0
176
     1
290
     0
176
     1
290
     0
176
     1
290
     0
176
     1
 90
       50
176
     1
 40
0.0
176
     1
 40
1.0
176
     1
 90
        0
176
     1
 62
    18
420
        0
176
     1
 90
       50
176
     1
 90
        3
176
     1
 62
     5
420
      255
176
     1
290
     0
176
     1
 90
       50
176
     1
 90
       50
176
     1
 90
       50
176
     1
290
     0
176
     1
 90
       50
176
     1
 62
   256
176
     0
 40
1.0
176
     0
 90
        2
176
     1
  1
strokes_ogs.tif
176
     1
290
     0
176
     1
 40
1.0
176
     1
 40
1.0
176
     1
  0
VISUALSTYLE
  5
213
102
{ACAD_REACTORS
330
209
102
}
330
209
100
AcDbVisualStyle
  2
Conceptual
 70
     9
177
     3
291
     0
 70
    58
 90
        3
176
     1
 90
        2
176
     1
 90
        0
176
     1
 90
        0
176
     1
 40
-0.6
176
     1
 40
-30.0
176
     1
 62
     7
176
     1
 90
        2
176
     1
 90
        2
176
     1
 62
     7
176
     1
 62
   257
176
     1
 90
        1
176
     1
 90
        1
176
     1
 40
40.0
176
     1
 90
        8
176
     1
 62
     7
176
     1
 40
1.0
176
     1
 90
        1
176
     1
 90
        6
176
     1
 90
        2
176
     1
 62
     7
176
     1
 90
        3
176
     1
 90
        0
176
     1
 90
        0
176
     1
290
     0
176
     1
 90
        1
176
     1
 40
0.0
176
     1
 90
        0
176
     1
290
     0
176
     1
290
     1
176
     1
290
     1
176
     1
290
     0
176
     1
290
     0
176
     1
290
     0
176
     1
290
     0
176
     1
290
     0
176
     1
290
     0
176
     1
 90
       50
176
     1
 40
0.0
176
     1
 40
1.0
176
     1
 90
        0
176
     1
 62
    18
420
        0
176
     1
 90
       50
176
     1
 90
        3
176
     1
 62
     5
420
      255
176
     1
290
     0
176
     1
 90
       50
176
     1
 90
       50
176
     1
 90
       50
176
     1
290
     0
176
     1
 90
       50
176
     1
 62
   256
176
     0
 40
1.0
176
     0
 90
        2
176
     1
  1
strokes_ogs.tif
176
     1
290
     0
176
     1
 40
1.0
176
     1
 40
1.0
176
     1
  0
VISUALSTYLE
  5
214
102
{ACAD_REACTORS
330
209
102
}
330
209
100
AcDbVisualStyle
  2
Dim
 70
    11
177
     3
291
     1
 70
    58
 90
        2
176
     1
 90
        2
176
     1
 90
        0
176
     1
 90
        0
176
     1
 40
-0.6
176
     1
 40
-30.0
176
     1
 62
     7
176
     1
 90
        1
176
     1
 90
        4
176
     1
 62
     7
176
     1
 62
   257
176
     1
 90
        1
176
     1
 90
        1
176
     1
 40
1.0
176
     1
 90
        8
176
     1
 62
     7
176
     1
 40
1.0
176
     1
 90
        1
176
     1
 90
        6
176
     1
 90
        2
176
     1
 62
     7
176
     1
 90
        5
176
     1
 90
        0
176
     1
 90
        0
176
     1
290
     0
176
     1
 90
        1
176
     1
 40
-50.0
176
     1
 90
        0
176
     1
290
     0
176
     1
290
     1
176
     1
290
     1
176
     1
290
     0
176
     1
290
     0
176
     1
290
     0
176
     1
290
     0
176
     1
290
     0
176
     1
290
     0
176
     1
 90
       50
176
     1
 40
0.0
176
     1
 40
1.0
176
     1
 90
        0
176
     1
 62
    18
420
        0
176
     1
 90
       50
176
     1
 90
        3
176
     1
 62
     5
420
      255
176
     1
290
     0
176
     1
 90
       50
176
     1
 90
       50
176
     1
 90
       50
176
     1
290
     0
176
     1
 90
       50
176
     1
 62
   256
176
     0
 40
1.0
176
     0
 90
        2
176
     1
  1
strokes_ogs.tif
176
     1
290
     0
176
     1
 40
1.0
176
     1
 40
1.0
176
     1
  0
VISUALSTYLE
  5
26B
102
{ACAD_REACTORS
330
209
102
}
330
209
100
AcDbVisualStyle
  2
EdgeColorOff
 70
    22
177
     3
291
     1
 70
    58
 90
        2
176
     0
 90
        2
176
     0
 90
        0
176
     0
 90
        0
176
     0
 40
0.6
176
     0
 40
30.0
176
     0
 62
     7
420
 16777215
176
     0
 90
        1
176
     0
 90
        4
176
     0
 62
     7
176
     0
 62
   257
176
     0
 90
        1
176
     0
 90
        1
176
     0
 40
1.0
176
     0
 90
        8
176
     2
 62
     7
176
     0
 40
1.0
176
     0
 90
        1
176
     0
 90
        6
176
     0
 90
        2
176
     0
 62
     7
176
     0
 90
        5
176
     0
 90
        0
176
     0
 90
        0
176
     0
290
     0
176
     0
 90
        1
176
     0
 40
0.0
176
     0
 90
        0
176
     0
290
     0
176
     0
290
     1
176
     0
290
     1
176
     0
290
     0
176
     0
290
     0
176
     0
290
     0
176
     0
290
     0
176
     0
290
     0
176
     0
290
     0
176
     0
 90
       50
176
     0
 40
0.0
176
     0
 40
1.0
176
     0
 90
        0
176
     0
 62
    18
420
        0
176
     0
 90
       50
176
     0
 90
        3
176
     0
 62
     5
420
      255
176
     0
290
     0
176
     0
 90
       50
176
     0
 90
       50
176
     0
 90
       50
176
     0
290
     0
176
     0
 90
       50
176
     0
 62
   256
176
     0
 40
1.0
176
     0
 90
        2
176
     0
  1
strokes_ogs.tif
176
     0
290
     0
176
     0
 40
1.0
176
     0
 40
1.0
176
     0
  0
VISUALSTYLE
  5
218
102
{ACAD_REACTORS
330
209
102
}
330
209
100
AcDbVisualStyle
  2
Facepattern
 70
    15
177
     3
291
     1
 70
    58
 90
        2
176
     1
 90
        2
176
     1
 90
        0
176
     1
 90
        0
176
     1
 40
-0.6
176
     1
 40
-30.0
176
     1
 62
     7
176
     1
 90
        1
176
     1
 90
        4
176
     1
 62
     7
176
     1
 62
   257
176
     1
 90
        1
176
     1
 90
        1
176
     1
 40
1.0
176
     1
 90
        8
176
     1
 62
     7
176
     1
 40
1.0
176
     1
 90
        1
176
     1
 90
        6
176
     1
 90
        2
176
     1
 62
     7
176
     1
 90
        5
176
     1
 90
        0
176
     1
 90
        0
176
     1
290
     0
176
     1
 90
        1
176
     1
 40
0.0
176
     1
 90
        0
176
     1
290
     0
176
     1
290
     1
176
     1
290
     1
176
     1
290
     0
176
     1
290
     0
176
     1
290
     0
176
     1
290
     0
176
     1
290
     0
176
     1
290
     0
176
     1
 90
       50
176
     1
 40
0.0
176
     1
 40
1.0
176
     1
 90
        0
176
     1
 62
    18
420
        0
176
     1
 90
       50
176
     1
 90
        3
176
     1
 62
     5
420
      255
176
     1
290
     0
176
     1
 90
       50
176
     1
 90
       50
176
     1
 90
       50
176
     1
290
     0
176
     1
 90
       50
176
     1
 62
   256
176
     0
 40
1.0
176
     0
 90
        2
176
     1
  1
strokes_ogs.tif
176
     1
290
     0
176
     1
 40
1.0
176
     1
 40
1.0
176
     1
  0
VISUALSTYLE
  5
20A
102
{ACAD_REACTORS
330
209
102
}
330
209
100
AcDbVisualStyle
  2
Flat
 70
     0
177
     3
291
     1
 70
    58
 90
        2
176
     1
 90
        1
176
     1
 90
        1
176
     1
 90
        2
176
     1
 40
-0.6
176
     1
 40
30.0
176
     1
 62
     7
176
     1
 90
        0
176
     1
 90
        4
176
     1
 62
     7
176
     1
 62
   257
176
     1
 90
        1
176
     1
 90
        1
176
     1
 40
1.0
176
     1
 90
        8
176
     1
 62
     7
176
     1
 40
1.0
176
     1
 90
        1
176
     1
 90
        6
176
     1
 90
        2
176
     1
 62
     7
176
     1
 90
        5
176
     1
 90
        0
176
     1
 90
        0
176
     1
290
     0
176
     1
 90
       13
176
     1
 40
0.0
176
     1
 90
        0
176
     1
290
     0
176
     1
290
     1
176
     1
290
     1
176
     1
290
     0
176
     1
290
     0
176
     1
290
     0
176
     1
290
     0
176
     1
290
     0
176
     1
290
     0
176
     1
 90
       50
176
     1
 40
0.0
176
     1
 40
1.0
176
     1
 90
        0
176
     1
 62
    18
420
        0
176
     1
 90
       50
176
     1
 90
        3
176
     1
 62
     5
420
      255
176
     1
290
     0
176
     1
 90
       50
176
     1
 90
       50
176
     1
 90
       50
176
     1
290
     0
176
     1
 90
       50
176
     1
 62
   256
176
     0
 40
1.0
176
     0
 90
        2
176
     1
  1
strokes_ogs.tif
176
     1
290
     0
176
     1
 40
1.0
176
     1
 40
1.0
176
     1
  0
VISUALSTYLE
  5
20B
102
{ACAD_REACTORS
330
209
102
}
330
209
100
AcDbVisualStyle
  2
FlatWithEdges
 70
     1
177
     3
291
     1
 70
    58
 90
        2
176
     1
 90
        1
176
     1
 90
        1
176
     1
 90
        2
176
     1
 40
-0.6
176
     1
 40
30.0
176
     1
 62
     7
176
     1
 90
        1
176
     1
 90
        4
176
     1
 62
     7
176
     1
 62
   257
176
     1
 90
        1
176
     1
 90
        1
176
     1
 40
1.0
176
     1
 90
        0
176
     1
 62
   257
176
     1
 40
1.0
176
     1
 90
        1
176
     1
 90
        6
176
     1
 90
        2
176
     1
 62
     7
176
     1
 90
        5
176
     1
 90
        0
176
     1
 90
        0
176
     1
290
     0
176
     1
 90
       13
176
     1
 40
0.0
176
     1
 90
        0
176
     1
290
     0
176
     1
290
     1
176
     1
290
     1
176
     1
290
     0
176
     1
290
     0
176
     1
290
     0
176
     1
290
     0
176
     1
290
     0
176
     1
290
     0
176
     1
 90
       50
176
     1
 40
0.0
176
     1
 40
1.0
176
     1
 90
        0
176
     1
 62
    18
420
        0
176
     1
 90
       50
176
     1
 90
        3
176
     1
 62
     5
420
      255
176
     1
290
     0
176
     1
 90
       50
176
     1
 90
       50
176
     1
 90
       50
176
     1
290
     0
176
     1
 90
       50
176
     1
 62
   256
176
     0
 40
1.0
176
     0
 90
        2
176
     1
  1
strokes_ogs.tif
176
     1
290
     0
176
     1
 40
1.0
176
     1
 40
1.0
176
     1
  0
VISUALSTYLE
  5
20C
102
{ACAD_REACTORS
330
209
102
}
330
209
100
AcDbVisualStyle
  2
Gouraud
 70
     2
177
     3
291
     1
 70
    58
 90
        2
176
     1
 90
        2
176
     1
 90
        1
176
     1
 90
        2
176
     1
 40
-0.6
176
     1
 40
30.0
176
     1
 62
     7
176
     1
 90
        0
176
     1
 90
        4
176
     1
 62
     7
176
     1
 62
   257
176
     1
 90
        1
176
     1
 90
        1
176
     1
 40
1.0
176
     1
 90
        0
176
     1
 62
     7
176
     1
 40
1.0
176
     1
 90
        1
176
     1
 90
        6
176
     1
 90
        2
176
     1
 62
     7
176
     1
 90
        5
176
     1
 90
        0
176
     1
 90
        0
176
     1
290
     0
176
     1
 90
       13
176
     1
 40
0.0
176
     1
 90
        0
176
     1
290
     0
176
     1
290
     1
176
     1
290
     1
176
     1
290
     0
176
     1
290
     0
176
     1
290
     0
176
     1
290
     0
176
     1
290
     0
176
     1
290
     0
176
     1
 90
       50
176
     1
 40
0.0
176
     1
 40
1.0
176
     1
 90
        0
176
     1
 62
    18
420
        0
176
     1
 90
       50
176
     1
 90
        3
176
     1
 62
     5
420
      255
176
     1
290
     0
176
     1
 90
       50
176
     1
 90
       50
176
     1
 90
       50
176
     1
290
     0
176
     1
 90
       50
176
     1
 62
   256
176
     0
 40
1.0
176
     0
 90
        2
176
     1
  1
strokes_ogs.tif
176
     1
290
     0
176
     1
 40
1.0
176
     1
 40
1.0
176
     1
  0
VISUALSTYLE
  5
20D
102
{ACAD_REACTORS
330
209
102
}
330
209
100
AcDbVisualStyle
  2
GouraudWithEdges
 70
     3
177
     3
291
     1
 70
    58
 90
        2
176
     1
 90
        2
176
     1
 90
        1
176
     1
 90
        2
176
     1
 40
-0.6
176
     1
 40
30.0
176
     1
 62
     7
176
     1
 90
        1
176
     1
 90
        4
176
     1
 62
     7
176
     1
 62
   257
176
     1
 90
        1
176
     1
 90
        1
176
     1
 40
1.0
176
     1
 90
        0
176
     1
 62
   257
176
     1
 40
1.0
176
     1
 90
        1
176
     1
 90
        6
176
     1
 90
        2
176
     1
 62
     7
176
     1
 90
        5
176
     1
 90
        0
176
     1
 90
        0
176
     1
290
     0
176
     1
 90
       13
176
     1
 40
0.0
176
     1
 90
        0
176
     1
290
     0
176
     1
290
     1
176
     1
290
     1
176
     1
290
     0
176
     1
290
     0
176
     1
290
     0
176
     1
290
     0
176
     1
290
     0
176
     1
290
     0
176
     1
 90
       50
176
     1
 40
0.0
176
     1
 40
1.0
176
     1
 90
        0
176
     1
 62
    18
420
        0
176
     1
 90
       50
176
     1
 90
        3
176
     1
 62
     5
420
      255
176
     1
290
     0
176
     1
 90
       50
176
     1
 90
       50
176
     1
 90
       50
176
     1
290
     0
176
     1
 90
       50
176
     1
 62
   256
176
     0
 40
1.0
176
     0
 90
        2
176
     1
  1
strokes_ogs.tif
176
     1
290
     0
176
     1
 40
1.0
176
     1
 40
1.0
176
     1
  0
VISUALSTYLE
  5
268
102
{ACAD_REACTORS
330
209
102
}
330
209
100
AcDbVisualStyle
  2
Hidden
 70
     6
177
     3
291
     0
 70
    58
 90
        1
176
     1
 90
        2
176
     1
 90
        2
176
     1
 90
        0
176
     1
 40
0.6
176
     1
 40
30.0
176
     1
 62
     7
420
 16777215
176
     1
 90
        2
176
     1
 90
        2
176
     1
 62
     7
176
     1
 62
   257
176
     1
 90
        2
176
     1
 90
        1
176
     1
 40
40.0
176
     1
 90
        0
176
     1
 62
   257
176
     1
 40
1.0
176
     1
 90
        1
176
     1
 90
        6
176
     1
 90
        2
176
     1
 62
     7
176
     1
 90
        3
176
     1
 90
        0
176
     1
 90
        0
176
     1
290
     0
176
     1
 90
        1
176
     1
 40
0.0
176
     1
 90
        0
176
     1
290
     0
176
     1
290
     1
176
     1
290
     1
176
     1
290
     0
176
     1
290
     0
176
     1
290
     0
176
     1
290
     0
176
     1
290
     0
176
     1
290
     0
176
     1
 90
       50
176
     1
 40
0.0
176
     1
 40
1.0
176
     1
 90
        0
176
     1
 62
    18
420
        0
176
     1
 90
       50
176
     1
 90
        3
176
     1
 62
     5
420
      255
176
     1
290
     0
176
     1
 90
       50
176
     1
 90
       50
176
     1
 90
       50
176
     1
290
     0
176
     1
 90
       50
176
     1
 62
   256
176
     0
 40
1.0
176
     0
 90
        2
176
     1
  1
strokes_ogs.tif
176
     1
290
     0
176
     1
 40
1.0
176
     1
 40
1.0
176
     1
  0
VISUALSTYLE
  5
269
102
{ACAD_REACTORS
330
209
102
}
330
209
100
AcDbVisualStyle
  2
JitterOff
 70
    20
177
     3
291
     1
 70
    58
 90
        2
176
     0
 90
        2
176
     0
 90
        0
176
     0
 90
        0
176
     0
 40
0.6
176
     0
 40
30.0
176
     0
 62
     7
420
 16777215
176
     0
 90
        1
176
     0
 90
        4
176
     0
 62
     7
176
     0
 62
   257
176
     0
 90
        1
176
     0
 90
        1
176
     0
 40
1.0
176
     0
 90
       10
176
     2
 62
     7
176
     0
 40
1.0
176
     0
 90
        1
176
     0
 90
        6
176
     0
 90
        2
176
     0
 62
     7
176
     0
 90
        5
176
     0
 90
        0
176
     0
 90
        0
176
     0
290
     0
176
     0
 90
        1
176
     0
 40
0.0
176
     0
 90
        0
176
     0
290
     0
176
     0
290
     1
176
     0
290
     1
176
     0
290
     0
176
     0
290
     0
176
     0
290
     0
176
     0
290
     0
176
     0
290
     0
176
     0
290
     0
176
     0
 90
       50
176
     0
 40
0.0
176
     0
 40
1.0
176
     0
 90
        0
176
     0
 62
    18
420
        0
176
     0
 90
       50
176
     0
 90
        3
176
     0
 62
     5
420
      255
176
     0
290
     0
176
     0
 90
       50
176
     0
 90
       50
176
     0
 90
       50
176
     0
290
     0
176
     0
 90
       50
176
     0
 62
   256
176
     0
 40
1.0
176
     0
 90
        2
176
     0
  1
strokes_ogs.tif
176
     0
290
     0
176
     0
 40
1.0
176
     0
 40
1.0
176
     0
  0
VISUALSTYLE
  5
217
102
{ACAD_REACTORS
330
209
102
}
330
209
100
AcDbVisualStyle
  2
Linepattern
 70
    14
177
     3
291
     1
 70
    58
 90
        2
176
     1
 90
        2
176
     1
 90
        0
176
     1
 90
        0
176
     1
 40
-0.6
176
     1
 40
-30.0
176
     1
 62
     7
176
     1
 90
        1
176
     1
 90
        4
176
     1
 62
     7
176
     1
 62
   257
176
     1
 90
        7
176
     1
 90
        7
176
     1
 40
1.0
176
     1
 90
        8
176
     1
 62
     7
176
     1
 40
1.0
176
     1
 90
        1
176
     1
 90
        6
176
     1
 90
        2
176
     1
 62
     7
176
     1
 90
        5
176
     1
 90
        0
176
     1
 90
        0
176
     1
290
     0
176
     1
 90
        1
176
     1
 40
0.0
176
     1
 90
        0
176
     1
290
     0
176
     1
290
     1
176
     1
290
     1
176
     1
290
     0
176
     1
290
     0
176
     1
290
     0
176
     1
290
     0
176
     1
290
     0
176
     1
290
     0
176
     1
 90
       50
176
     1
 40
0.0
176
     1
 40
1.0
176
     1
 90
        0
176
     1
 62
    18
420
        0
176
     1
 90
       50
176
     1
 90
        3
176
     1
 62
     5
420
      255
176
     1
290
     0
176
     1
 90
       50
176
     1
 90
       50
176
     1
 90
       50
176
     1
290
     0
176
     1
 90
       50
176
     1
 62
   256
176
     0
 40
1.0
176
     0
 90
        2
176
     1
  1
strokes_ogs.tif
176
     1
290
     0
176
     1
 40
1.0
176
     1
 40
1.0
176
     1
  0
VISUALSTYLE
  5
26A
102
{ACAD_REACTORS
330
209
102
}
330
209
100
AcDbVisualStyle
  2
OverhangOff
 70
    21
177
     3
291
     1
 70
    58
 90
        2
176
     0
 90
        2
176
     0
 90
        0
176
     0
 90
        0
176
     0
 40
0.6
176
     0
 40
30.0
176
     0
 62
     7
420
 16777215
176
     0
 90
        1
176
     0
 90
        4
176
     0
 62
     7
176
     0
 62
   257
176
     0
 90
        1
176
     0
 90
        1
176
     0
 40
1.0
176
     0
 90
        9
176
     2
 62
     7
176
     0
 40
1.0
176
     0
 90
        1
176
     0
 90
        6
176
     0
 90
        2
176
     0
 62
     7
176
     0
 90
        5
176
     0
 90
        0
176
     0
 90
        0
176
     0
290
     0
176
     0
 90
        1
176
     0
 40
0.0
176
     0
 90
        0
176
     0
290
     0
176
     0
290
     1
176
     0
290
     1
176
     0
290
     0
176
     0
290
     0
176
     0
290
     0
176
     0
290
     0
176
     0
290
     0
176
     0
290
     0
176
     0
 90
       50
176
     0
 40
0.0
176
     0
 40
1.0
176
     0
 90
        0
176
     0
 62
    18
420
        0
176
     0
 90
       50
176
     0
 90
        3
176
     0
 62
     5
420
      255
176
     0
290
     0
176
     0
 90
       50
176
     0
 90
       50
176
     0
 90
       50
176
     0
290
     0
176
     0
 90
       50
176
     0
 62
   256
176
     0
 40
1.0
176
     0
 90
        2
176
     0
  1
strokes_ogs.tif
176
     0
290
     0
176
     0
 40
1.0
176
     0
 40
1.0
176
     0
  0
VISUALSTYLE
  5
212
102
{ACAD_REACTORS
330
209
102
}
330
209
100
AcDbVisualStyle
  2
Realistic
 70
     8
177
     3
291
     0
 70
    58
 90
        2
176
     1
 90
        2
176
     1
 90
        0
176
     1
 90
        0
176
     1
 40
-0.6
176
     1
 40
-30.0
176
     1
 62
     7
176
     1
 90
        1
176
     1
 90
        0
176
     1
 62
     7
176
     1
 62
   257
176
     1
 90
        1
176
     1
 90
        1
176
     1
 40
1.0
176
     1
 90
        8
176
     1
 62
     8
176
     1
 40
1.0
176
     1
 90
        1
176
     1
 90
        6
176
     1
 90
        2
176
     1
 62
     7
176
     1
 90
        5
176
     1
 90
        0
176
     1
 90
        0
176
     1
290
     0
176
     1
 90
       13
176
     1
 40
0.0
176
     1
 90
        0
176
     1
290
     0
176
     1
290
     1
176
     1
290
     1
176
     1
290
     0
176
     1
290
     0
176
     1
290
     0
176
     1
290
     0
176
     1
290
     0
176
     1
290
     0
176
     1
 90
       50
176
     1
 40
0.0
176
     1
 40
1.0
176
     1
 90
        0
176
     1
 62
    18
420
        0
176
     1
 90
       50
176
     1
 90
        3
176
     1
 62
     5
420
      255
176
     1
290
     0
176
     1
 90
       50
176
     1
 90
       50
176
     1
 90
       50
176
     1
290
     0
176
     1
 90
       50
176
     1
 62
   256
176
     0
 40
1.0
176
     0
 90
        2
176
     1
  1
strokes_ogs.tif
176
     1
290
     0
176
     1
 40
1.0
176
     1
 40
1.0
176
     1
  0
VISUALSTYLE
  5
270
102
{ACAD_REACTORS
330
209
102
}
330
209
100
AcDbVisualStyle
  2
Shaded
 70
    27
177
     3
291
     0
 70
    58
 90
        2
176
     1
 90
        2
176
     1
 90
        1
176
     1
 90
        2
176
     1
 40
0.6
176
     1
 40
30.0
176
     1
 62
     7
420
 16777215
176
     1
 90
        0
176
     1
 90
        4
176
     1
 62
     7
176
     1
 62
   257
176
     1
 90
        1
176
     1
 90
        1
176
     1
 40
1.0
176
     1
 90
        8
176
     1
 62
   257
176
     1
 40
1.0
176
     1
 90
        1
176
     1
 90
        6
176
     1
 90
        2
176
     1
 62
     8
420
  7895160
176
     1
 90
        3
176
     1
 90
        0
176
     1
 90
        0
176
     1
290
     0
176
     1
 90
        5
176
     1
 40
0.0
176
     1
 90
        0
176
     1
290
     0
176
     1
290
     1
176
     1
290
     1
176
     1
290
     0
176
     1
290
     0
176
     1
290
     0
176
     1
290
     0
176
     1
290
     0
176
     1
290
     0
176
     1
 90
       50
176
     1
 40
0.0
176
     1
 40
1.0
176
     1
 90
        0
176
     1
 62
    18
420
        0
176
     1
 90
       50
176
     1
 90
        3
176
     1
 62
     5
420
      255
176
     1
290
     0
176
     1
 90
       50
176
     1
 90
       50
176
     1
 90
       50
176
     1
290
     0
176
     1
 90
       50
176
     1
 62
   256
176
     0
 40
1.0
176
     0
 90
        2
176
     1
  1
strokes_ogs.tif
176
     1
290
     0
176
     1
 40
1.0
176
     1
 40
1.0
176
     1
  0
VISUALSTYLE
  5
26F
102
{ACAD_REACTORS
330
209
102
}
330
209
100
AcDbVisualStyle
  2
Shaded with edges
 70
    26
177
     3
291
     0
 70
    58
 90
        2
176
     1
 90
        2
176
     1
 90
        1
176
     1
 90
        2
176
     1
 40
0.6
176
     1
 40
30.0
176
     1
 62
     7
420
 16777215
176
     1
 90
        1
176
     1
 90
       10
176
     1
 62
     7
176
     1
 62
   257
176
     1
 90
        2
176
     1
 90
        1
176
     1
 40
1.0
176
     1
 90
        8
176
     1
 62
   257
176
     1
 40
1.0
176
     1
 90
        1
176
     1
 90
        6
176
     1
 90
        2
176
     1
 62
     7
176
     1
 90
        3
176
     1
 90
        0
176
     1
 90
        0
176
     1
290
     0
176
     1
 90
        5
176
     1
 40
0.0
176
     1
 90
        0
176
     1
290
     0
176
     1
290
     1
176
     1
290
     1
176
     1
290
     0
176
     1
290
     0
176
     1
290
     0
176
     1
290
     0
176
     1
290
     0
176
     1
290
     0
176
     1
 90
       50
176
     1
 40
0.0
176
     1
 40
1.0
176
     1
 90
        0
176
     1
 62
    18
420
        0
176
     1
 90
       50
176
     1
 90
        3
176
     1
 62
     5
420
      255
176
     1
290
     0
176
     1
 90
       50
176
     1
 90
       50
176
     1
 90
       50
176
     1
290
     0
176
     1
 90
       50
176
     1
 62
   256
176
     0
 40
1.0
176
     0
 90
        2
176
     1
  1
strokes_ogs.tif
176
     1
290
     0
176
     1
 40
1.0
176
     1
 40
1.0
176
     1
  0
VISUALSTYLE
  5
26C
102
{ACAD_REACTORS
330
209
102
}
330
209
100
AcDbVisualStyle
  2
Shades of Gray
 70
    23
177
     3
291
     0
 70
    58
 90
        2
176
     1
 90
        2
176
     1
 90
        3
176
     1
 90
        0
176
     1
 40
0.6
176
     1
 40
30.0
176
     1
 62
     7
420
 16777215
176
     1
 90
        2
176
     1
 90
        2
176
     1
 62
     7
176
     1
 62
     7
176
     1
 90
        1
176
     1
 90
        1
176
     1
 40
40.0
176
     1
 90
        8
176
     1
 62
     7
176
     1
 40
1.0
176
     1
 90
        1
176
     1
 90
        6
176
     1
 90
        2
176
     1
 62
     7
176
     1
 90
        3
176
     1
 90
        0
176
     1
 90
        0
176
     1
290
     0
176
     1
 90
        1
176
     1
 40
0.0
176
     1
 90
        0
176
     1
290
     0
176
     1
290
     1
176
     1
290
     1
176
     1
290
     0
176
     1
290
     0
176
     1
290
     0
176
     1
290
     0
176
     1
290
     0
176
     1
290
     0
176
     1
 90
       50
176
     1
 40
0.0
176
     1
 40
1.0
176
     1
 90
        0
176
     1
 62
    18
420
        0
176
     1
 90
       50
176
     1
 90
        3
176
     1
 62
     5
420
      255
176
     1
290
     0
176
     1
 90
       50
176
     1
 90
       50
176
     1
 90
       50
176
     1
290
     0
176
     1
 90
       50
176
     1
 62
   256
176
     0
 40
1.0
176
     0
 90
        2
176
     1
  1
strokes_ogs.tif
176
     1
290
     0
176
     1
 40
1.0
176
     1
 40
1.0
176
     1
  0
VISUALSTYLE
  5
26D
102
{ACAD_REACTORS
330
209
102
}
330
209
100
AcDbVisualStyle
  2
Sketchy
 70
    24
177
     3
291
     0
 70
    58
 90
        1
176
     1
 90
        2
176
     1
 90
        2
176
     1
 90
        0
176
     1
 40
0.6
176
     1
 40
30.0
176
     1
 62
     7
420
 16777215
176
     1
 90
        2
176
     1
 90
        2
176
     1
 62
     7
176
     1
 62
     7
176
     1
 90
        1
176
     1
 90
        1
176
     1
 40
40.0
176
     1
 90
       11
176
     1
 62
     7
176
     1
 40
1.0
176
     1
 90
        1
176
     1
 90
        6
176
     1
 90
        2
176
     1
 62
     7
176
     1
 90
        6
176
     1
 90
        0
176
     1
 90
        0
176
     1
290
     0
176
     1
 90
        1
176
     1
 40
0.0
176
     1
 90
        0
176
     1
290
     0
176
     1
290
     1
176
     1
290
     1
176
     1
290
     0
176
     1
290
     0
176
     1
290
     0
176
     1
290
     0
176
     1
290
     0
176
     1
290
     0
176
     1
 90
       50
176
     1
 40
0.0
176
     1
 40
1.0
176
     1
 90
        0
176
     1
 62
    18
420
        0
176
     1
 90
       50
176
     1
 90
        3
176
     1
 62
     5
420
      255
176
     1
290
     0
176
     1
 90
       50
176
     1
 90
       50
176
     1
 90
       50
176
     1
290
     0
176
     1
 90
       50
176
     1
 62
   256
176
     0
 40
1.0
176
     0
 90
        2
176
     1
  1
strokes_ogs.tif
176
     1
290
     0
176
     1
 40
1.0
176
     1
 40
1.0
176
     1
  0
VISUALSTYLE
  5
216
102
{ACAD_REACTORS
330
209
102
}
330
209
100
AcDbVisualStyle
  2
Thicken
 70
    13
177
     3
291
     1
 70
    58
 90
        2
176
     1
 90
        2
176
     1
 90
        0
176
     1
 90
        0
176
     1
 40
-0.6
176
     1
 40
-30.0
176
     1
 62
     7
176
     1
 90
        1
176
     1
 90
        4
176
     1
 62
     7
176
     1
 62
   257
176
     1
 90
        1
176
     1
 90
        1
176
     1
 40
1.0
176
     1
 90
       12
176
     1
 62
     7
176
     1
 40
1.0
176
     1
 90
        1
176
     1
 90
        6
176
     1
 90
        2
176
     1
 62
     7
176
     1
 90
        5
176
     1
 90
        0
176
     1
 90
        0
176
     1
290
     0
176
     1
 90
        1
176
     1
 40
0.0
176
     1
 90
        0
176
     1
290
     0
176
     1
290
     1
176
     1
290
     1
176
     1
290
     0
176
     1
290
     0
176
     1
290
     0
176
     1
290
     0
176
     1
290
     0
176
     1
290
     0
176
     1
 90
       50
176
     1
 40
0.0
176
     1
 40
1.0
176
     1
 90
        0
176
     1
 62
    18
420
        0
176
     1
 90
       50
176
     1
 90
        3
176
     1
 62
     5
420
      255
176
     1
290
     0
176
     1
 90
       50
176
     1
 90
       50
176
     1
 90
       50
176
     1
290
     0
176
     1
 90
       50
176
     1
 62
   256
176
     0
 40
1.0
176
     0
 90
        2
176
     1
  1
strokes_ogs.tif
176
     1
290
     0
176
     1
 40
1.0
176
     1
 40
1.0
176
     1
  0
VISUALSTYLE
  5
267
102
{ACAD_REACTORS
330
209
102
}
330
209
100
AcDbVisualStyle
  2
Wireframe
 70
     5
177
     3
291
     0
 70
    58
 90
        0
176
     1
 90
        2
176
     1
 90
        0
176
     1
 90
        0
176
     1
 40
0.6
176
     1
 40
30.0
176
     1
 62
     7
420
 16777215
176
     1
 90
        1
176
     1
 90
        4
176
     1
 62
     7
176
     1
 62
   257
176
     1
 90
        1
176
     1
 90
        1
176
     1
 40
1.0
176
     1
 90
        0
176
     1
 62
   257
176
     1
 40
1.0
176
     1
 90
        1
176
     1
 90
        6
176
     1
 90
        2
176
     1
 62
     7
176
     1
 90
        3
176
     1
 90
        0
176
     1
 90
        0
176
     1
290
     0
176
     1
 90
        1
176
     1
 40
0.0
176
     1
 90
        0
176
     1
290
     0
176
     1
290
     1
176
     1
290
     1
176
     1
290
     0
176
     1
290
     0
176
     1
290
     0
176
     1
290
     0
176
     1
290
     0
176
     1
290
     0
176
     1
 90
       50
176
     1
 40
0.0
176
     1
 40
1.0
176
     1
 90
        0
176
     1
 62
    18
420
        0
176
     1
 90
       50
176
     1
 90
        3
176
     1
 62
     5
420
      255
176
     1
290
     0
176
     1
 90
       50
176
     1
 90
       50
176
     1
 90
       50
176
     1
290
     0
176
     1
 90
       50
176
     1
 62
   256
176
     0
 40
1.0
176
     0
 90
        2
176
     1
  1
strokes_ogs.tif
176
     1
290
     0
176
     1
 40
1.0
176
     1
 40
1.0
176
     1
  0
VISUALSTYLE
  5
26E
102
{ACAD_REACTORS
330
209
102
}
330
209
100
AcDbVisualStyle
  2
X-Ray
 70
    25
177
     3
291
     0
 70
    58
 90
        2
176
     1
 90
        2
176
     1
 90
        1
176
     1
 90
        1
176
     1
 40
0.5
176
     1
 40
30.0
176
     1
 62
     7
420
 16777215
176
     1
 90
        1
176
     1
 90
        0
176
     1
 62
     7
176
     1
 62
   257
176
     1
 90
        1
176
     1
 90
        1
176
     1
 40
1.0
176
     1
 90
        8
176
     1
 62
     7
176
     1
 40
1.0
176
     1
 90
        1
176
     1
 90
        6
176
     1
 90
        2
176
     1
 62
     7
176
     1
 90
        3
176
     1
 90
        0
176
     1
 90
        0
176
     1
290
     0
176
     1
 90
       13
176
     1
 40
0.0
176
     1
 90
        0
176
     1
290
     0
176
     1
290
     1
176
     1
290
     1
176
     1
290
     0
176
     1
290
     0
176
     1
290
     0
176
     1
290
     0
176
     1
290
     0
176
     1
290
     0
176
     1
 90
       50
176
     1
 40
0.0
176
     1
 40
1.0
176
     1
 90
        0
176
     1
 62
    18
420
        0
176
     1
 90
       50
176
     1
 90
        3
176
     1
 62
     5
420
      255
176
     1
290
     0
176
     1
 90
       50
176
     1
 90
       50
176
     1
 90
       50
176
     1
290
     0
176
     1
 90
       50
176
     1
 62
   256
176
     0
 40
1.0
176
     0
 90
        2
176
     1
  1
strokes_ogs.tif
176
     1
290
     0
176
     1
 40
1.0
176
     1
 40
1.0
176
     1
  0
DICTIONARYVAR
  5
2BC
102
{ACAD_REACTORS
330
226
102
}
330
226
100
DictionaryVariables
280
     0
  1
1:1
  0
DICTIONARYVAR
  5
2BE
102
{ACAD_REACTORS
330
226
102
}
330
226
100
DictionaryVariables
280
     0
  1
Standard
  0
DICTIONARYVAR
  5
2BD
102
{ACAD_REACTORS
330
226
102
}
330
226
100
DictionaryVariables
280
     0
  1
Standard
  0
DICTIONARYVAR
  5
22A
102
{ACAD_REACTORS
330
226
102
}
330
226
100
DictionaryVariables
280
     0
  1
2
  0
DICTIONARYVAR
  5
22B
102
{ACAD_REACTORS
330
226
102
}
330
226
100
DictionaryVariables
280
     0
  1
1
  0
DICTIONARYVAR
  5
229
102
{ACAD_REACTORS
330
226
102
}
330
226
100
DictionaryVariables
280
     0
  1
0
  0
DICTIONARY
  5
57E
330
272
100
AcDbDictionary
280
     1
281
     1
  3
ACAD_ROUNDTRIP_2008_TABLESTYLE_CELLSTYLEMAP
360
57F
  0
CELLSTYLEMAP
  5
57F
102
{ACAD_REACTORS
330
57E
102
}
330
57E
100
AcDbCellStyleMap
 90
        3
300
CELLSTYLE
  1
TABLEFORMAT_BEGIN
 90
        5
170
     1
 91
        0
 92
    32768
 62
   257
 93
        1
300
CONTENTFORMAT
  1
CONTENTFORMAT_BEGIN
 90
        0
 91
        0
 92
        4
 93
        0
300

 40
0.0
140
1.0
 94
        5
 62
     0
340
11
144
0.25
309
CONTENTFORMAT_END
171
     1
301
MARGIN
  1
CELLMARGIN_BEGIN
 40
0.06
 40
0.06
 40
0.06
 40
0.06
 40
0.06
 40
0.06
309
CELLMARGIN_END
 94
        6
 95
        1
302
GRIDFORMAT
  1
GRIDFORMAT_BEGIN
 90
        0
 91
        1
 62
     0
 92
       -2
340
14
 93
        0
 40
0.045
309
GRIDFORMAT_END
 95
        2
302
GRIDFORMAT
  1
GRIDFORMAT_BEGIN
 90
        0
 91
        1
 62
     0
 92
       -2
340
14
 93
        0
 40
0.045
309
GRIDFORMAT_END
 95
        4
302
GRIDFORMAT
  1
GRIDFORMAT_BEGIN
 90
        0
 91
        1
 62
     0
 92
       -2
340
14
 93
        0
 40
0.045
309
GRIDFORMAT_END
 95
        8
302
GRIDFORMAT
  1
GRIDFORMAT_BEGIN
 90
        0
 91
        1
 62
     0
 92
       -2
340
14
 93
        0
 40
0.045
309
GRIDFORMAT_END
 95
       16
302
GRIDFORMAT
  1
GRIDFORMAT_BEGIN
 90
        0
 91
        1
 62
     0
 92
       -2
340
14
 93
        0
 40
0.045
309
GRIDFORMAT_END
 95
       32
302
GRIDFORMAT
  1
GRIDFORMAT_BEGIN
 90
        0
 91
        1
 62
     0
 92
       -2
340
14
 93
        0
 40
0.045
309
GRIDFORMAT_END
309
TABLEFORMAT_END
  1
CELLSTYLE_BEGIN
 90
        1
 91
        1
300
_TITLE
309
CELLSTYLE_END
300
CELLSTYLE
  1
TABLEFORMAT_BEGIN
 90
        5
170
     1
 91
        0
 92
        0
 62
   257
 93
        1
300
CONTENTFORMAT
  1
CONTENTFORMAT_BEGIN
 90
        0
 91
        0
 92
        4
 93
        0
300

 40
0.0
140
1.0
 94
        5
 62
     0
340
11
144
0.18
309
CONTENTFORMAT_END
171
     1
301
MARGIN
  1
CELLMARGIN_BEGIN
 40
0.06
 40
0.06
 40
0.06
 40
0.06
 40
0.06
 40
0.06
309
CELLMARGIN_END
 94
        6
 95
        1
302
GRIDFORMAT
  1
GRIDFORMAT_BEGIN
 90
        0
 91
        1
 62
     0
 92
       -2
340
14
 93
        0
 40
0.045
309
GRIDFORMAT_END
 95
        2
302
GRIDFORMAT
  1
GRIDFORMAT_BEGIN
 90
        0
 91
        1
 62
     0
 92
       -2
340
14
 93
        0
 40
0.045
309
GRIDFORMAT_END
 95
        4
302
GRIDFORMAT
  1
GRIDFORMAT_BEGIN
 90
        0
 91
        1
 62
     0
 92
       -2
340
14
 93
        0
 40
0.045
309
GRIDFORMAT_END
 95
        8
302
GRIDFORMAT
  1
GRIDFORMAT_BEGIN
 90
        0
 91
        1
 62
     0
 92
       -2
340
14
 93
        0
 40
0.045
309
GRIDFORMAT_END
 95
       16
302
GRIDFORMAT
  1
GRIDFORMAT_BEGIN
 90
        0
 91
        1
 62
     0
 92
       -2
340
14
 93
        0
 40
0.045
309
GRIDFORMAT_END
 95
       32
302
GRIDFORMAT
  1
GRIDFORMAT_BEGIN
 90
        0
 91
        1
 62
     0
 92
       -2
340
14
 93
        0
 40
0.045
309
GRIDFORMAT_END
309
TABLEFORMAT_END
  1
CELLSTYLE_BEGIN
 90
        2
 91
        1
300
_HEADER
309
CELLSTYLE_END
300
CELLSTYLE
  1
TABLEFORMAT_BEGIN
 90
        5
170
     1
 91
        0
 92
        0
 62
   257
 93
        1
300
CONTENTFORMAT
  1
CONTENTFORMAT_BEGIN
 90
        0
 91
        0
 92
        4
 93
        0
300

 40
0.0
140
1.0
 94
        2
 62
     0
340
11
144
0.18
309
CONTENTFORMAT_END
171
     1
301
MARGIN
  1
CELLMARGIN_BEGIN
 40
0.06
 40
0.06
 40
0.06
 40
0.06
 40
0.06
 40
0.06
309
CELLMARGIN_END
 94
        6
 95
        1
302
GRIDFORMAT
  1
GRIDFORMAT_BEGIN
 90
        0
 91
        1
 62
     0
 92
       -2
340
14
 93
        0
 40
0.045
309
GRIDFORMAT_END
 95
        2
302
GRIDFORMAT
  1
GRIDFORMAT_BEGIN
 90
        0
 91
        1
 62
     0
 92
       -2
340
14
 93
        0
 40
0.045
309
GRIDFORMAT_END
 95
        4
302
GRIDFORMAT
  1
GRIDFORMAT_BEGIN
 90
        0
 91
        1
 62
     0
 92
       -2
340
14
 93
        0
 40
0.045
309
GRIDFORMAT_END
 95
        8
302
GRIDFORMAT
  1
GRIDFORMAT_BEGIN
 90
        0
 91
        1
 62
     0
 92
       -2
340
14
 93
        0
 40
0.045
309
GRIDFORMAT_END
 95
       16
302
GRIDFORMAT
  1
GRIDFORMAT_BEGIN
 90
        0
 91
        1
 62
     0
 92
       -2
340
14
 93
        0
 40
0.045
309
GRIDFORMAT_END
 95
       32
302
GRIDFORMAT
  1
GRIDFORMAT_BEGIN
 90
        0
 91
        1
 62
     0
 92
       -2
340
14
 93
        0
 40
0.045
309
GRIDFORMAT_END
309
TABLEFORMAT_END
  1
CELLSTYLE_BEGIN
 90
        3
 91
        2
300
_DATA
309
CELLSTYLE_END
  0
ENDSEC
  0
EOF
