  0
SECTION
  2
HEADER
  9
$ACADVER
  1
AC1027
  9
$ACADMAINTVER
 70
   105
  9
$DWGCODEPAGE
  3
ANSI_1252
  9
$REQUIREDVERSIONS
160
                 0
  9
$LASTSAVEDBY
  1
matthias.ochs
  9
$INSBASE
 10
0.0
 20
0.0
 30
0.0
  9
$EXTMIN
 10
-115.3017574082349
 20
-80.53315333977191
 30
0.0
  9
$EXTMAX
 10
135.9877467020445
 20
88.8706330518129
 30
0.0
  9
$LIMMIN
 10
-120.023499719
 20
-55.876672972
  9
$LIMMAX
 10
144.712648813
 20
61.409713833
  9
$ORTHOMODE
 70
     0
  9
$REGENMODE
 70
     1
  9
$FILLMODE
 70
     1
  9
$QTEXTMODE
 70
     0
  9
$MIRRTEXT
 70
     1
  9
$LTSCALE
 40
1.0
  9
$ATTMODE
 70
     1
  9
$TEXTSIZE
 40
0.2
  9
$TRACEWID
 40
0.05
  9
$TEXTSTYLE
  7
Standard
  9
$CLAYER
  8
0
  9
$CELTYPE
  6
ByLayer
  9
$CECOLOR
 62
   256
  9
$CELTSCALE
 40
1.0
  9
$DISPSILH
 70
     0
  9
$DIMSCALE
 40
1.0
  9
$DIMASZ
 40
0.18
  9
$DIMEXO
 40
0.0625
  9
$DIMDLI
 40
0.38
  9
$DIMRND
 40
0.0
  9
$DIMDLE
 40
0.0
  9
$DIMEXE
 40
0.18
  9
$DIMTP
 40
0.0
  9
$DIMTM
 40
0.0
  9
$DIMTXT
 40
0.18
  9
$DIMCEN
 40
0.09
  9
$DIMTSZ
 40
0.0
  9
$DIMTOL
 70
     0
  9
$DIMLIM
 70
     0
  9
$DIMTIH
 70
     1
  9
$DIMTOH
 70
     1
  9
$DIMSE1
 70
     0
  9
$DIMSE2
 70
     0
  9
$DIMTAD
 70
     0
  9
$DIMZIN
 70
     0
  9
$DIMBLK
  1

  9
$DIMASO
 70
     1
  9
$DIMSHO
 70
     1
  9
$DIMPOST
  1

  9
$DIMAPOST
  1

  9
$DIMALT
 70
     0
  9
$DIMALTD
 70
     2
  9
$DIMALTF
 40
25.4
  9
$DIMLFAC
 40
1.0
  9
$DIMTOFL
 70
     0
  9
$DIMTVP
 40
0.0
  9
$DIMTIX
 70
     0
  9
$DIMSOXD
 70
     0
  9
$DIMSAH
 70
     0
  9
$DIMBLK1
  1

  9
$DIMBLK2
  1

  9
$DIMSTYLE
  2
Standard
  9
$DIMCLRD
 70
     0
  9
$DIMCLRE
 70
     0
  9
$DIMCLRT
 70
     0
  9
$DIMTFAC
 40
1.0
  9
$DIMGAP
 40
0.09
  9
$DIMJUST
 70
     0
  9
$DIMSD1
 70
     0
  9
$DIMSD2
 70
     0
  9
$DIMTOLJ
 70
     1
  9
$DIMTZIN
 70
     0
  9
$DIMALTZ
 70
     0
  9
$DIMALTTZ
 70
     0
  9
$DIMUPT
 70
     0
  9
$DIMDEC
 70
     4
  9
$DIMTDEC
 70
     4
  9
$DIMALTU
 70
     2
  9
$DIMALTTD
 70
     2
  9
$DIMTXSTY
  7
Standard
  9
$DIMAUNIT
 70
     0
  9
$DIMADEC
 70
     0
  9
$DIMALTRND
 40
0.0
  9
$DIMAZIN
 70
     0
  9
$DIMDSEP
 70
    46
  9
$DIMATFIT
 70
     3
  9
$DIMFRAC
 70
     0
  9
$DIMLDRBLK
  1

  9
$DIMLUNIT
 70
     2
  9
$DIMLWD
 70
    -2
  9
$DIMLWE
 70
    -2
  9
$DIMTMOVE
 70
     2
  9
$DIMFXL
 40
1.0
  9
$DIMFXLON
 70
     0
  9
$DIMJOGANG
 40
0.7853981633974483
  9
$DIMTFILL
 70
     0
  9
$DIMTFILLCLR
 70
     0
  9
$DIMARCSYM
 70
     0
  9
$DIMLTYPE
  6

  9
$DIMLTEX1
  6

  9
$DIMLTEX2
  6

  9
$DIMTXTDIRECTION
 70
     0
  9
$LUNITS
 70
     2
  9
$LUPREC
 70
     4
  9
$SKETCHINC
 40
0.1
  9
$FILLETRAD
 40
0.5
  9
$AUNITS
 70
     2
  9
$AUPREC
 70
     0
  9
$MENU
  1
.
  9
$ELEVATION
 40
0.0
  9
$PELEVATION
 40
0.0
  9
$THICKNESS
 40
0.0
  9
$LIMCHECK
 70
     0
  9
$CHAMFERA
 40
0.5
  9
$CHAMFERB
 40
0.5
  9
$CHAMFERC
 40
1.0
  9
$CHAMFERD
 40
0.0
  9
$SKPOLY
 70
     0
  9
$TDCREATE
 40
2458327.502747789
  9
$TDUCREATE
 40
2458327.461081123
  9
$TDUPDATE
 40
2458507.493509502
  9
$TDUUPDATE
 40
2458507.451842836
  9
$TDINDWG
 40
0.0030731944
  9
$TDUSRTIMER
 40
0.0041988657
  9
$USRTIMER
 70
     1
  9
$ANGBASE
 50
0.0
  9
$ANGDIR
 70
     0
  9
$PDMODE
 70
     0
  9
$PDSIZE
 40
0.0
  9
$PLINEWID
 40
0.0
  9
$SPLFRAME
 70
     0
  9
$SPLINETYPE
 70
     6
  9
$SPLINESEGS
 70
     8
  9
$HANDSEED
  5
2EF
  9
$SURFTAB1
 70
     6
  9
$SURFTAB2
 70
     6
  9
$SURFTYPE
 70
     6
  9
$SURFU
 70
     6
  9
$SURFV
 70
     6
  9
$UCSBASE
  2

  9
$UCSNAME
  2

  9
$UCSORG
 10
0.0
 20
0.0
 30
0.0
  9
$UCSXDIR
 10
1.0
 20
0.0
 30
0.0
  9
$UCSYDIR
 10
0.0
 20
1.0
 30
0.0
  9
$UCSORTHOREF
  2

  9
$UCSORTHOVIEW
 70
     0
  9
$UCSORGTOP
 10
0.0
 20
0.0
 30
0.0
  9
$UCSORGBOTTOM
 10
0.0
 20
0.0
 30
0.0
  9
$UCSORGLEFT
 10
0.0
 20
0.0
 30
0.0
  9
$UCSORGRIGHT
 10
0.0
 20
0.0
 30
0.0
  9
$UCSORGFRONT
 10
0.0
 20
0.0
 30
0.0
  9
$UCSORGBACK
 10
0.0
 20
0.0
 30
0.0
  9
$PUCSBASE
  2

  9
$PUCSNAME
  2

  9
$PUCSORG
 10
0.0
 20
0.0
 30
0.0
  9
$PUCSXDIR
 10
1.0
 20
0.0
 30
0.0
  9
$PUCSYDIR
 10
0.0
 20
1.0
 30
0.0
  9
$PUCSORTHOREF
  2

  9
$PUCSORTHOVIEW
 70
     0
  9
$PUCSORGTOP
 10
0.0
 20
0.0
 30
0.0
  9
$PUCSORGBOTTOM
 10
0.0
 20
0.0
 30
0.0
  9
$PUCSORGLEFT
 10
0.0
 20
0.0
 30
0.0
  9
$PUCSORGRIGHT
 10
0.0
 20
0.0
 30
0.0
  9
$PUCSORGFRONT
 10
0.0
 20
0.0
 30
0.0
  9
$PUCSORGBACK
 10
0.0
 20
0.0
 30
0.0
  9
$USERI1
 70
     0
  9
$USERI2
 70
     0
  9
$USERI3
 70
     0
  9
$USERI4
 70
     0
  9
$USERI5
 70
     0
  9
$USERR1
 40
0.0
  9
$USERR2
 40
0.0
  9
$USERR3
 40
0.0
  9
$USERR4
 40
0.0
  9
$USERR5
 40
0.0
  9
$WORLDVIEW
 70
     1
  9
$SHADEDGE
 70
     3
  9
$SHADEDIF
 70
    70
  9
$TILEMODE
 70
     1
  9
$MAXACTVP
 70
    64
  9
$PINSBASE
 10
0.0
 20
0.0
 30
0.0
  9
$PLIMCHECK
 70
     0
  9
$PEXTMIN
 10
1.000000000000000E+20
 20
1.000000000000000E+20
 30
1.000000000000000E+20
  9
$PEXTMAX
 10
-1.000000000000000E+20
 20
-1.000000000000000E+20
 30
-1.000000000000000E+20
  9
$PLIMMIN
 10
0.0
 20
0.0
  9
$PLIMMAX
 10
0.0
 20
0.0
  9
$UNITMODE
 70
     0
  9
$VISRETAIN
 70
     1
  9
$PLINEGEN
 70
     0
  9
$PSLTSCALE
 70
     1
  9
$TREEDEPTH
 70
  3020
  9
$CMLSTYLE
  2
Standard
  9
$CMLJUST
 70
     0
  9
$CMLSCALE
 40
1.0
  9
$PROXYGRAPHICS
 70
     1
  9
$MEASUREMENT
 70
     0
  9
$CELWEIGHT
370
    -1
  9
$ENDCAPS
280
     0
  9
$JOINSTYLE
280
     0
  9
$LWDISPLAY
290
     0
  9
$INSUNITS
 70
     0
  9
$HYPERLINKBASE
  1

  9
$STYLESHEET
  1

  9
$XEDIT
290
     1
  9
$CEPSNTYPE
380
     0
  9
$PSTYLEMODE
290
     1
  9
$FINGERPRINTGUID
  2
{93430327-EFA4-4C65-B524-F42B5E07EE4C}
  9
$VERSIONGUID
  2
{FAEB1C32-E019-11D5-929B-00C0DF256EC4}
  9
$EXTNAMES
290
     1
  9
$PSVPSCALE
 40
0.0
  9
$OLESTARTUP
290
     0
  9
$SORTENTS
280
   127
  9
$INDEXCTL
280
     0
  9
$HIDETEXT
280
     1
  9
$XCLIPFRAME
280
     2
  9
$HALOGAP
280
     0
  9
$OBSCOLOR
 70
   257
  9
$OBSLTYPE
280
     0
  9
$INTERSECTIONDISPLAY
280
     0
  9
$INTERSECTIONCOLOR
 70
   257
  9
$DIMASSOC
280
     2
  9
$PROJECTNAME
  1

  9
$CAMERADISPLAY
290
     0
  9
$LENSLENGTH
 40
50.0
  9
$CAMERAHEIGHT
 40
0.0
  9
$STEPSPERSEC
 40
2.0
  9
$STEPSIZE
 40
6.0
  9
$3DDWFPREC
 40
2.0
  9
$PSOLWIDTH
 40
0.25
  9
$PSOLHEIGHT
 40
4.0
  9
$LOFTANG1
 40
1.570796326794897
  9
$LOFTANG2
 40
1.570796326794897
  9
$LOFTMAG1
 40
0.0
  9
$LOFTMAG2
 40
0.0
  9
$LOFTPARAM
 70
     7
  9
$LOFTNORMALS
280
     1
  9
$LATITUDE
 40
37.795
  9
$LONGITUDE
 40
-122.394
  9
$NORTHDIRECTION
 40
0.0
  9
$TIMEZONE
 70
 -8000
  9
$LIGHTGLYPHDISPLAY
280
     1
  9
$TILEMODELIGHTSYNCH
280
     1
  9
$SOLIDHIST
280
     0
  9
$SHOWHIST
280
     1
  9
$DWFFRAME
280
     2
  9
$DGNFRAME
280
     2
  9
$REALWORLDSCALE
290
     1
  9
$INTERFERECOLOR
 62
   256
  9
$CSHADOW
280
     0
  9
$SHADOWPLANELOCATION
 40
0.0
  0
ENDSEC
  0
SECTION
  2
CLASSES
  0
CLASS
  1
ACDBDICTIONARYWDFLT
  2
AcDbDictionaryWithDefault
  3
ObjectDBX Classes
 90
        0
 91
        5
280
     0
281
     0
  0
CLASS
  1
SCALE
  2
AcDbScale
  3
ObjectDBX Classes
 90
     1153
 91
        5
280
     0
281
     0
  0
CLASS
  1
VISUALSTYLE
  2
AcDbVisualStyle
  3
ObjectDBX Classes
 90
     4095
 91
        5
280
     0
281
     0
  0
CLASS
  1
MATERIAL
  2
AcDbMaterial
  3
ObjectDBX Classes
 90
     1153
 91
        5
280
     0
281
     0
  0
CLASS
  1
DICTIONARYVAR
  2
AcDbDictionaryVar
  3
ObjectDBX Classes
 90
        0
 91
        5
280
     0
281
     0
  0
CLASS
  1
ACDBPLACEHOLDER
  2
AcDbPlaceHolder
  3
ObjectDBX Classes
 90
        0
 91
        1
280
     0
281
     0
  0
CLASS
  1
LAYOUT
  2
AcDbLayout
  3
ObjectDBX Classes
 90
        0
 91
        1
280
     0
281
     0
  0
CLASS
  1
TABLESTYLE
  2
AcDbTableStyle
  3
ObjectDBX Classes
 90
     4095
 91
        5
280
     0
281
     0
  0
CLASS
  1
MLEADERSTYLE
  2
AcDbMLeaderStyle
  3
ACDB_MLEADERSTYLE_CLASS
 90
     4095
 91
        5
280
     0
281
     0
  0
CLASS
  1
SUN
  2
AcDbSun
  3
SCENEOE
 90
     1153
 91
        5
280
     0
281
     0
  0
CLASS
  1
CELLSTYLEMAP
  2
AcDbCellStyleMap
  3
ObjectDBX Classes
 90
     1152
 91
        5
280
     0
281
     0
  0
ENDSEC
  0
SECTION
  2
TABLES
  0
TABLE
  2
VPORT
  5
8
330
0
100
AcDbSymbolTable
 70
     1
  0
VPORT
  5
1C3
330
8
100
AcDbSymbolTableRecord
100
AcDbViewportTableRecord
  2
*Active
 70
     0
 10
0.0
 20
0.0
 11
1.0
 21
1.0
 12
60.72877033538171
 22
-10.83152981027905
 13
0.0
 23
0.0
 14
0.5
 24
0.5
 15
0.5
 25
0.5
 16
0.0
 26
0.0
 36
1.0
 17
0.0
 27
0.0
 37
0.0
 40
276.6561809338074
 41
1.941903584672435
 42
50.0
 43
0.0
 44
0.0
 50
0.0
 51
0.0
 71
    16
 72
   100
 73
     1
 74
     3
 75
     0
 76
     0
 77
     0
 78
     0
281
     0
 65
     1
110
0.0
120
0.0
130
0.0
111
1.0
121
0.0
131
0.0
112
0.0
122
1.0
132
0.0
 79
     0
146
0.0
348
1F5
 60
     3
 61
     5
292
     1
282
     1
141
0.0
142
0.0
 63
   256
361
298
  0
ENDTAB
  0
TABLE
  2
LTYPE
  5
5
330
0
100
AcDbSymbolTable
 70
     8
  0
LTYPE
  5
14
330
5
100
AcDbSymbolTableRecord
100
AcDbLinetypeTableRecord
  2
ByBlock
 70
     0
  3

 72
    65
 73
     0
 40
0.0
  0
LTYPE
  5
15
330
5
100
AcDbSymbolTableRecord
100
AcDbLinetypeTableRecord
  2
ByLayer
 70
     0
  3

 72
    65
 73
     0
 40
0.0
  0
LTYPE
  5
16
330
5
100
AcDbSymbolTableRecord
100
AcDbLinetypeTableRecord
  2
Continuous
 70
     0
  3
Solid line
 72
    65
 73
     0
 40
0.0
  0
LTYPE
  5
20
330
5
100
AcDbSymbolTableRecord
100
AcDbLinetypeTableRecord
  2
PUNKT
 70
     0
  3
..............
 72
    65
 73
     2
 40
1.5
 49
0.7
 74
     0
 49
-0.8
 74
     0
  0
LTYPE
  5
21
330
5
100
AcDbSymbolTableRecord
100
AcDbLinetypeTableRecord
  2
GESTRICHELT
 70
     0
  3
-- -- -- -- --
 72
    65
 73
     7
 40
2.8
 49
0.9
 74
     0
 49
0.0
 74
     0
 49
0.9
 74
     0
 49
0.0
 74
     0
 49
0.2
 74
     0
 49
0.0
 74
     0
 49
-0.8
 74
     0
  0
LTYPE
  5
22
330
5
100
AcDbSymbolTableRecord
100
AcDbLinetypeTableRecord
  2
STRICHPUNKT
 70
     0
  3
--.--.--.--.--
 72
    65
 73
     4
 40
8.8
 49
5.5
 74
     0
 49
-1.3
 74
     0
 49
0.7
 74
     0
 49
-1.3
 74
     0
  0
LTYPE
  5
25
330
5
100
AcDbSymbolTableRecord
100
AcDbLinetypeTableRecord
  2
PHANTOM
 70
     0
  3
--..--..--..--
 72
    65
 73
     6
 40
14.2
 49
7.0
 74
     0
 49
-1.8
 74
     0
 49
0.9
 74
     0
 49
-1.8
 74
     0
 49
0.9
 74
     0
 49
-1.8
 74
     0
  0
LTYPE
  5
23D
330
5
100
AcDbSymbolTableRecord
100
AcDbLinetypeTableRecord
  2
DASH
 70
     0
  3
DASH _ _ _ _ _
 72
    65
 73
     2
 40
0.75
 49
0.4
 74
     0
 49
-0.35
 74
     0
  0
LTYPE
  5
23E
330
5
100
AcDbSymbolTableRecord
100
AcDbLinetypeTableRecord
  2
LONGDASH_DASH
 70
     0
  3
LONGDASH_DASH __ . __ . __
 72
    65
 73
     4
 40
0.85
 49
0.4
 74
     0
 49
-0.2
 74
     0
 49
0.05
 74
     0
 49
-0.2
 74
     0
  0
LTYPE
  5
23F
330
5
100
AcDbSymbolTableRecord
100
AcDbLinetypeTableRecord
  2
LONGDASH_DASH_DASH
 70
     0
  3
LONGDASH_DASH_DASH __ . . __ . . __
 72
    65
 73
     6
 40
1.1
 49
0.4
 74
     0
 49
-0.2
 74
     0
 49
0.05
 74
     0
 49
-0.2
 74
     0
 49
0.05
 74
     0
 49
-0.2
 74
     0
  0
ENDTAB
  0
TABLE
  2
LAYER
  5
2
102
{ACAD_XDICTIONARY
360
25C
102
}
330
0
100
AcDbSymbolTable
 70
    15
  0
LAYER
  5
206
330
2
100
AcDbSymbolTableRecord
100
AcDbLayerTableRecord
  2
200
 70
     0
 62
     2
  6
Continuous
370
    50
390
F
347
204
348
0
  0
LAYER
  5
240
330
2
100
AcDbSymbolTableRecord
100
AcDbLayerTableRecord
  2
0
 70
     0
 62
    -1
  6
Continuous
370
    -3
390
F
347
204
348
0
  0
LAYER
  5
241
330
2
100
AcDbSymbolTableRecord
100
AcDbLayerTableRecord
  2
1
 70
     0
 62
     4
  6
Continuous
370
    50
390
F
347
204
348
0
  0
LAYER
  5
242
330
2
100
AcDbSymbolTableRecord
100
AcDbLayerTableRecord
  2
2
 70
     0
 62
     7
  6
Continuous
370
    25
390
F
347
204
348
0
  0
LAYER
  5
243
330
2
100
AcDbSymbolTableRecord
100
AcDbLayerTableRecord
  2
3
 70
     0
 62
     1
  6
DASH
370
    35
390
F
347
204
348
0
  0
LAYER
  5
244
330
2
100
AcDbSymbolTableRecord
100
AcDbLayerTableRecord
  2
4
 70
     0
 62
     2
  6
LONGDASH_DASH
370
    25
390
F
347
204
348
0
  0
LAYER
  5
245
330
2
100
AcDbSymbolTableRecord
100
AcDbLayerTableRecord
  2
6
 70
     0
 62
     5
  6
Continuous
370
    -3
390
F
347
204
348
0
  0
LAYER
  5
246
330
2
100
AcDbSymbolTableRecord
100
AcDbLayerTableRecord
  2
CUT
 70
     0
 62
     1
  6
Continuous
370
    25
390
F
347
204
348
0
  0
LAYER
  5
247
330
2
100
AcDbSymbolTableRecord
100
AcDbLayerTableRecord
  2
NOCUT
 70
     0
 62
     7
  6
Continuous
370
    25
390
F
347
204
348
0
  0
LAYER
  5
248
330
2
100
AcDbSymbolTableRecord
100
AcDbLayerTableRecord
  2
SK1
 70
     0
 62
     4
  6
Continuous
370
    50
390
F
347
204
348
0
  0
LAYER
  5
249
330
2
100
AcDbSymbolTableRecord
100
AcDbLayerTableRecord
  2
SK2
 70
     0
 62
     7
  6
Continuous
370
    25
390
F
347
204
348
0
  0
LAYER
  5
24A
330
2
100
AcDbSymbolTableRecord
100
AcDbLayerTableRecord
  2
SK3
 70
     0
 62
     1
  6
DASH
370
    35
390
F
347
204
348
0
  0
LAYER
  5
24B
330
2
100
AcDbSymbolTableRecord
100
AcDbLayerTableRecord
  2
SK4
 70
     0
 62
     2
  6
LONGDASH_DASH
370
    25
390
F
347
204
348
0
  0
LAYER
  5
24C
330
2
100
AcDbSymbolTableRecord
100
AcDbLayerTableRecord
  2
SK6
 70
     0
 62
     5
  6
Continuous
370
    -3
390
F
347
204
348
0
  0
LAYER
  5
24D
330
2
100
AcDbSymbolTableRecord
100
AcDbLayerTableRecord
  2
INFTOTAL
 70
     0
 62
     9
  6
Continuous
370
    18
390
F
347
204
348
0
  0
ENDTAB
  0
TABLE
  2
STYLE
  5
3
330
0
100
AcDbSymbolTable
 70
     2
  0
STYLE
  5
11
330
3
100
AcDbSymbolTableRecord
100
AcDbTextStyleTableRecord
  2
Standard
 70
     0
 40
0.0
 41
1.0
 50
0.0
 71
     0
 42
0.2
  3
txt
  4

  0
STYLE
  5
205
330
3
100
AcDbSymbolTableRecord
100
AcDbTextStyleTableRecord
  2
BMG_Text
 70
     0
 40
3.5
 41
1.0
 50
0.0
 71
     0
 42
0.2
  3
monos.ttf
  4

1001
ACAD
1000
Monospac821 BT
1071
       49
  0
ENDTAB
  0
TABLE
  2
VIEW
  5
6
330
0
100
AcDbSymbolTable
 70
     0
  0
ENDTAB
  0
TABLE
  2
UCS
  5
7
330
0
100
AcDbSymbolTable
 70
     0
  0
ENDTAB
  0
TABLE
  2
APPID
  5
9
330
0
100
AcDbSymbolTable
 70
     1
  0
APPID
  5
12
330
9
100
AcDbSymbolTableRecord
100
AcDbRegAppTableRecord
  2
ACAD
 70
     0
  0
ENDTAB
  0
TABLE
  2
DIMSTYLE
  5
A
330
0
100
AcDbSymbolTable
 70
     1
100
AcDbDimStyleTable
  0
DIMSTYLE
105
28
330
A
100
AcDbSymbolTableRecord
100
AcDbDimStyleTableRecord
  2
Standard
 70
     0
178
     0
340
11
  0
ENDTAB
  0
TABLE
  2
BLOCK_RECORD
  5
1
330
0
100
AcDbSymbolTable
 70
     0
  0
BLOCK_RECORD
  5
1D
330
1
100
AcDbSymbolTableRecord
100
AcDbBlockTableRecord
  2
*Model_Space
340
1E
 70
     0
280
     1
281
     0
  0
BLOCK_RECORD
  5
1B
330
1
100
AcDbSymbolTableRecord
100
AcDbBlockTableRecord
  2
*Paper_Space
340
1C
 70
     0
280
     1
281
     0
  0
ENDTAB
  0
ENDSEC
  0
SECTION
  2
BLOCKS
  0
BLOCK
  5
1EE
330
1D
100
AcDbEntity
  8
0
100
AcDbBlockBegin
  2
*Model_Space
 70
     0
 10
0.0
 20
0.0
 30
0.0
  3
*Model_Space
  1

  0
ENDBLK
  5
1EF
330
1D
100
AcDbEntity
  8
0
100
AcDbBlockEnd
  0
BLOCK
  5
1EC
330
1B
100
AcDbEntity
 67
     1
  8
0
100
AcDbBlockBegin
  2
*Paper_Space
 70
     0
 10
0.0
 20
0.0
 30
0.0
  3
*Paper_Space
  1

  0
ENDBLK
  5
1ED
330
1B
100
AcDbEntity
 67
     1
  8
0
100
AcDbBlockEnd
  0
ENDSEC
  0
SECTION
  2
ENTITIES
  0
LINE
  5
29
330
1D
100
AcDbEntity
  8
3
  6
DASH
370
    35
100
AcDbLine
 10
52.999999374
 20
-37.000000477
 30
0.0
 11
40.051478893
 21
-37.000000477
 31
0.0
  0
ARC
  5
2A
330
1D
100
AcDbEntity
  8
3
  6
DASH
370
    35
100
AcDbCircle
 10
40.040905639
 20
-51.982361939
 30
0.0
 40
14.982365193
100
AcDbArc
 50
89.959565605
 51
151.921729602
  0
LINE
  5
2B
330
1D
100
AcDbEntity
  8
3
  6
DASH
370
    35
100
AcDbLine
 10
29.10643753
 20
-41.739868397
 30
0.0
 11
21.207181737
 21
-38.025025278
 31
0.0
  0
LINE
  5
2C
330
1D
100
AcDbEntity
  8
3
  6
DASH
370
    35
100
AcDbLine
 10
21.207181737
 20
-38.025025278
 30
0.0
 11
21.664635299
 21
-32.98538049
 31
0.0
  0
LINE
  5
2D
330
1D
100
AcDbEntity
  8
4
100
AcDbLine
 10
21.787319956
 20
-31.667479696
 30
0.0
 11
36.67950421
 21
-38.670946118
 31
0.0
  0
LINE
  5
2E
330
1D
100
AcDbEntity
  8
3
  6
DASH
370
    35
100
AcDbLine
 10
21.664635299
 20
-32.98538049
 30
0.0
 11
24.636281654
 21
-28.860170394
 31
0.0
  0
LINE
  5
2F
330
1D
100
AcDbEntity
  8
3
  6
DASH
370
    35
100
AcDbLine
 10
26.313988492
 20
-27.165900916
 30
0.0
 11
21.207181737
 21
-38.025025278
 31
0.0
  0
LINE
  5
30
330
1D
100
AcDbEntity
  8
3
  6
DASH
370
    35
100
AcDbLine
 10
26.313988492
 20
-27.165900916
 30
0.0
 11
47.22523641
 21
-37.000000477
 31
0.0
  0
LINE
  5
31
330
1D
100
AcDbEntity
  8
3
  6
DASH
370
    35
100
AcDbLine
 10
24.636281654
 20
-28.860170394
 30
0.0
 11
26.313988492
 21
-27.165900916
 31
0.0
  0
LINE
  5
32
330
1D
100
AcDbEntity
  8
3
  6
DASH
370
    35
100
AcDbLine
 10
21.664635299
 20
-32.98538049
 30
0.0
 11
0.583856977
 21
-11.000015259
 31
0.0
  0
LINE
  5
33
330
1D
100
AcDbEntity
  8
4
100
AcDbLine
 10
1.701416627
 20
-8.553343574
 30
0.0
 11
24.821760888
 21
-32.665794858
 31
0.0
  0
LINE
  5
34
330
1D
100
AcDbEntity
  8
3
  6
DASH
370
    35
100
AcDbLine
 10
4.241181182
 20
-7.589904648
 30
0.0
 11
24.636281654
 21
-28.860170394
 31
0.0
  0
LINE
  5
35
330
1D
100
AcDbEntity
  8
SK1
  6
Continuous
370
    50
100
AcDbLine
 10
-1.112182617
 20
23.0
 30
0.0
 11
-44.0
 21
23.0
 31
0.0
  0
LINE
  5
36
330
1D
100
AcDbEntity
  8
SK1
  6
Continuous
370
    50
100
AcDbLine
 10
-44.0
 20
23.0
 30
0.0
 11
-46.605707514
 21
22.633791691
 31
0.0
  0
LINE
  5
37
330
1D
100
AcDbEntity
  8
SK1
  6
Continuous
370
    50
100
AcDbLine
 10
-46.605707514
 20
22.633791691
 30
0.0
 11
-48.579186621
 21
22.981769304
 31
0.0
  0
ARC
  5
38
330
1D
100
AcDbEntity
  8
SK1
  6
Continuous
370
    50
100
AcDbCircle
 10
-48.787564435
 20
21.8
 30
0.0
 40
1.2
100
AcDbArc
 50
80.0
 51
149.999999999
  0
LINE
  5
39
330
1D
100
AcDbEntity
  8
SK1
  6
Continuous
370
    50
100
AcDbLine
 10
-49.826794919
 20
22.4
 30
0.0
 11
-50.0
 21
22.1
 31
0.0
  0
LINE
  5
3A
330
1D
100
AcDbEntity
  8
SK1
  6
Continuous
370
    50
100
AcDbLine
 10
-50.0
 20
22.1
 30
0.0
 11
-50.0
 21
-22.1
 31
0.0
  0
LINE
  5
3B
330
1D
100
AcDbEntity
  8
SK1
  6
Continuous
370
    50
100
AcDbLine
 10
-50.0
 20
-22.1
 30
0.0
 11
-49.826794919
 21
-22.4
 31
0.0
  0
ARC
  5
3C
330
1D
100
AcDbEntity
  8
SK1
  6
Continuous
370
    50
100
AcDbCircle
 10
-48.787564435
 20
-21.8
 30
0.0
 40
1.2
100
AcDbArc
 50
210.0
 51
279.999999999
  0
LINE
  5
3D
330
1D
100
AcDbEntity
  8
SK1
  6
Continuous
370
    50
100
AcDbLine
 10
-48.579186622
 20
-22.981769304
 30
0.0
 11
-46.605707514
 21
-22.633791691
 31
0.0
  0
LINE
  5
3E
330
1D
100
AcDbEntity
  8
SK1
  6
Continuous
370
    50
100
AcDbLine
 10
-46.605707514
 20
-22.633791691
 30
0.0
 11
-44.0
 21
-23.0
 31
0.0
  0
LINE
  5
3F
330
1D
100
AcDbEntity
  8
SK1
  6
Continuous
370
    50
100
AcDbLine
 10
-44.0
 20
-23.0
 30
0.0
 11
-1.112182617
 21
-23.0
 31
0.0
  0
LINE
  5
40
330
1D
100
AcDbEntity
  8
SK1
  6
Continuous
370
    50
100
AcDbLine
 10
-1.112182617
 20
-23.0
 30
0.0
 11
-1.112182617
 21
23.0
 31
0.0
  0
LINE
  5
41
330
1D
100
AcDbEntity
  8
SK1
  6
Continuous
370
    50
100
AcDbLine
 10
-1.112182617
 20
23.0
 30
0.0
 11
-0.429334532
 21
22.817024411
 31
0.0
  0
ARC
  5
42
330
1D
100
AcDbEntity
  8
SK1
  6
Continuous
370
    50
100
AcDbCircle
 10
-0.299926758
 20
23.299987793
 30
0.0
 40
0.5
100
AcDbArc
 50
255.000207424
 51
306.859407195
  0
LINE
  5
43
330
1D
100
AcDbEntity
  8
SK3
  6
DASH
370
    35
100
AcDbLine
 10
-50.0
 20
-12.750004606
 30
0.0
 11
-49.307242999
 21
-12.350036621
 31
0.0
  0
LINE
  5
44
330
1D
100
AcDbEntity
  8
SK3
  6
DASH
370
    35
100
AcDbLine
 10
-49.307242999
 20
-12.350036621
 30
0.0
 11
-49.307120929
 21
12.349990845
 31
0.0
  0
LINE
  5
45
330
1D
100
AcDbEntity
  8
SK3
  6
DASH
370
    35
100
AcDbLine
 10
-49.307120929
 20
12.349990845
 30
0.0
 11
-50.0
 21
12.750019865
 31
0.0
  0
LINE
  5
46
330
1D
100
AcDbEntity
  8
SK3
  6
DASH
370
    35
100
AcDbLine
 10
-46.999992022
 20
-12.350036621
 30
0.0
 11
-46.220573077
 21
-11.0
 31
0.0
  0
LINE
  5
47
330
1D
100
AcDbEntity
  8
SK3
  6
DASH
370
    35
100
AcDbLine
 10
-46.220573077
 20
-11.0
 30
0.0
 11
-46.220573077
 21
11.000015259
 31
0.0
  0
LINE
  5
48
330
1D
100
AcDbEntity
  8
SK3
  6
DASH
370
    35
100
AcDbLine
 10
-46.220573077
 20
11.000015259
 30
0.0
 11
-46.999992022
 21
12.349990845
 31
0.0
  0
LINE
  5
49
330
1D
100
AcDbEntity
  8
SK3
  6
DASH
370
    35
100
AcDbLine
 10
-46.999992022
 20
12.349990845
 30
0.0
 11
-46.999992022
 21
-12.350036621
 31
0.0
  0
ARC
  5
4A
330
1D
100
AcDbEntity
  8
SK1
  6
Continuous
370
    50
100
AcDbCircle
 10
-0.299926758
 20
-23.299987793
 30
0.0
 40
0.5
100
AcDbArc
 50
53.140592805
 51
104.998095138
  0
LINE
  5
4B
330
1D
100
AcDbEntity
  8
SK1
  6
Continuous
370
    50
100
AcDbLine
 10
-0.429321289
 20
-22.817016602
 30
0.0
 11
-1.112182617
 21
-23.0
 31
0.0
  0
LINE
  5
4C
330
1D
100
AcDbEntity
  8
SK3
  6
DASH
370
    35
100
AcDbLine
 10
-21.999992022
 20
6.466059192
 30
0.0
 11
-21.999992022
 21
12.000015259
 31
0.0
  0
LINE
  5
4D
330
1D
100
AcDbEntity
  8
SK3
  6
DASH
370
    35
100
AcDbLine
 10
-21.999992022
 20
12.000015259
 30
0.0
 11
-46.797843585
 21
12.000015259
 31
0.0
  0
LINE
  5
4E
330
1D
100
AcDbEntity
  8
3
  6
DASH
370
    35
100
AcDbLine
 10
21.664635299
 20
32.98538049
 30
0.0
 11
24.636281654
 21
28.860170394
 31
0.0
  0
LINE
  5
4F
330
1D
100
AcDbEntity
  8
3
  6
DASH
370
    35
100
AcDbLine
 10
24.636281654
 20
28.860170394
 30
0.0
 11
26.313988492
 21
27.165900916
 31
0.0
  0
LINE
  5
50
330
1D
100
AcDbEntity
  8
3
  6
DASH
370
    35
100
AcDbLine
 10
26.313988492
 20
27.165900916
 30
0.0
 11
21.207181737
 21
38.025025278
 31
0.0
  0
LINE
  5
51
330
1D
100
AcDbEntity
  8
3
  6
DASH
370
    35
100
AcDbLine
 10
0.0
 20
11.00000093004025
 30
0.0
 11
3.000007977999999
 21
11.0
 31
0.0
  0
LINE
  5
52
330
1D
100
AcDbEntity
  8
3
  6
DASH
370
    35
100
AcDbLine
 10
3.000007978
 20
11.0
 30
0.0
 11
7.003680555
 21
0.0
 31
0.0
  0
LINE
  5
53
330
1D
100
AcDbEntity
  8
3
  6
DASH
370
    35
100
AcDbLine
 10
7.003680555
 20
0.0
 30
0.0
 11
3.000007978
 21
-11.0
 31
0.0
  0
LINE
  5
54
330
1D
100
AcDbEntity
  8
3
  6
DASH
370
    35
100
AcDbLine
 10
3.000007978
 20
-11.0
 30
0.0
 11
0.0000000000000009
 21
-11.0
 31
0.0
  0
LINE
  5
55
330
1D
100
AcDbEntity
  8
4
100
AcDbLine
 10
0.0000000000000142
 20
0.0
 30
0.0
 11
84.89720607700002
 21
0.0
 31
0.0
  0
LINE
  5
56
330
1D
100
AcDbEntity
  8
SK3
  6
DASH
370
    35
100
AcDbLine
 10
-21.999992022
 20
-6.466059192
 30
0.0
 11
-21.999992022
 21
-12.000015259
 31
0.0
  0
LINE
  5
57
330
1D
100
AcDbEntity
  8
SK3
  6
DASH
370
    35
100
AcDbLine
 10
-21.999992022
 20
-12.000015259
 30
0.0
 11
-18.267941215
 21
-11.000015259
 31
0.0
  0
LINE
  5
58
330
1D
100
AcDbEntity
  8
SK3
  6
DASH
370
    35
100
AcDbLine
 10
-49.307120929
 20
12.349990845
 30
0.0
 11
-46.999992022
 21
12.349990845
 31
0.0
  0
LINE
  5
59
330
1D
100
AcDbEntity
  8
SK3
  6
DASH
370
    35
100
AcDbLine
 10
-46.999992022
 20
-12.350036621
 30
0.0
 11
-49.307120929
 21
-12.350036621
 31
0.0
  0
LINE
  5
5A
330
1D
100
AcDbEntity
  8
3
  6
DASH
370
    35
100
AcDbLine
 10
3.000007978
 20
11.000015259
 30
0.0
 11
3.000007978
 21
-11.0
 31
0.0
  0
LINE
  5
5B
330
1D
100
AcDbEntity
  8
SK3
  6
DASH
370
    35
100
AcDbLine
 10
-46.797843585
 20
-12.0
 30
0.0
 11
-21.999992022
 21
-12.0
 31
0.0
  0
LINE
  5
5C
330
1D
100
AcDbEntity
  8
SK3
  6
DASH
370
    35
100
AcDbLine
 10
-21.999992022
 20
12.000015259
 30
0.0
 11
-18.267941215
 21
11.000015259
 31
0.0
  0
LINE
  5
5D
330
1D
100
AcDbEntity
  8
SK1
  6
Continuous
370
    50
100
AcDbLine
 10
-44.0
 20
-23.0
 30
0.0
 11
-44.0
 21
23.0
 31
0.0
  0
LINE
  5
5E
330
1D
100
AcDbEntity
  8
SK1
  6
Continuous
370
    50
100
AcDbLine
 10
-46.605707514
 20
-22.633791691
 30
0.0
 11
-46.605707514
 21
22.633791691
 31
0.0
  0
LINE
  5
60
330
1D
100
AcDbEntity
  8
2
  6
Continuous
370
    25
100
AcDbLine
 10
-70.0
 20
-45.0
 30
0.0
 11
1.0
 21
-45.0
 31
0.0
  0
LINE
  5
61
330
1D
100
AcDbEntity
  8
2
  6
Continuous
370
    25
100
AcDbLine
 10
-68.0
 20
-45.0
 30
0.0
 11
-68.45
 21
-41.5
 31
0.0
  0
LINE
  5
62
330
1D
100
AcDbEntity
  8
2
  6
Continuous
370
    25
100
AcDbLine
 10
-68.45
 20
-41.5
 30
0.0
 11
-67.55
 21
-41.5
 31
0.0
  0
LINE
  5
63
330
1D
100
AcDbEntity
  8
2
  6
Continuous
370
    25
100
AcDbLine
 10
-67.55
 20
-41.5
 30
0.0
 11
-68.0
 21
-45.0
 31
0.0
  0
LINE
  5
64
330
1D
100
AcDbEntity
  8
2
  6
Continuous
370
    25
100
AcDbLine
 10
-70.0
 20
45.0
 30
0.0
 11
1.0
 21
45.0
 31
0.0
  0
LINE
  5
65
330
1D
100
AcDbEntity
  8
2
  6
Continuous
370
    25
100
AcDbLine
 10
-68.0
 20
45.0
 30
0.0
 11
-67.55
 21
41.5
 31
0.0
  0
LINE
  5
66
330
1D
100
AcDbEntity
  8
2
  6
Continuous
370
    25
100
AcDbLine
 10
-67.55
 20
41.5
 30
0.0
 11
-68.45
 21
41.5
 31
0.0
  0
LINE
  5
67
330
1D
100
AcDbEntity
  8
2
  6
Continuous
370
    25
100
AcDbLine
 10
-68.45
 20
41.5
 30
0.0
 11
-68.0
 21
45.0
 31
0.0
  0
LINE
  5
68
330
1D
100
AcDbEntity
  8
2
  6
Continuous
370
    25
100
AcDbLine
 10
-68.0
 20
-41.5
 30
0.0
 11
-68.0
 21
41.5
 31
0.0
  0
TEXT
  5
69
330
1D
100
AcDbEntity
  8
2
  6
Continuous
370
    25
100
AcDbText
 10
-69.5
 20
0.139998994
 30
0.0
 40
3.5
  1
90
 50
90.0
  7
BMG_Text
100
AcDbText
  0
CIRCLE
  5
6A
330
1D
100
AcDbEntity
  8
2
  6
Continuous
370
    25
100
AcDbCircle
 10
-70.75
 20
-2.110001006
 30
0.0
 40
1.25
  0
LINE
  5
6B
330
1D
100
AcDbEntity
  8
2
  6
Continuous
370
    25
100
AcDbLine
 10
-69.5
 20
-3.360001006
 30
0.0
 11
-72.0
 21
-0.860001006
 31
0.0
  0
LINE
  5
6C
330
1D
100
AcDbEntity
  8
SK2
100
AcDbLine
 10
-62.0
 20
-23.0
 30
0.0
 11
-44.0
 21
-23.0
 31
0.0
  0
LINE
  5
6D
330
1D
100
AcDbEntity
  8
SK2
100
AcDbLine
 10
-60.0
 20
-23.0
 30
0.0
 11
-60.45
 21
-19.5
 31
0.0
  0
LINE
  5
6E
330
1D
100
AcDbEntity
  8
SK2
100
AcDbLine
 10
-60.45
 20
-19.5
 30
0.0
 11
-59.55
 21
-19.5
 31
0.0
  0
LINE
  5
6F
330
1D
100
AcDbEntity
  8
SK2
100
AcDbLine
 10
-59.55
 20
-19.5
 30
0.0
 11
-60.0
 21
-23.0
 31
0.0
  0
LINE
  5
70
330
1D
100
AcDbEntity
  8
SK2
100
AcDbLine
 10
-62.0
 20
23.0
 30
0.0
 11
-44.0
 21
23.0
 31
0.0
  0
LINE
  5
71
330
1D
100
AcDbEntity
  8
SK2
100
AcDbLine
 10
-60.0
 20
23.0
 30
0.0
 11
-59.55
 21
19.5
 31
0.0
  0
LINE
  5
72
330
1D
100
AcDbEntity
  8
SK2
100
AcDbLine
 10
-59.55
 20
19.5
 30
0.0
 11
-60.45
 21
19.5
 31
0.0
  0
LINE
  5
73
330
1D
100
AcDbEntity
  8
SK2
100
AcDbLine
 10
-60.45
 20
19.5
 30
0.0
 11
-60.0
 21
23.0
 31
0.0
  0
LINE
  5
74
330
1D
100
AcDbEntity
  8
SK2
100
AcDbLine
 10
-60.0
 20
-19.5
 30
0.0
 11
-60.0
 21
19.5
 31
0.0
  0
TEXT
  5
75
330
1D
100
AcDbEntity
  8
SK2
100
AcDbText
 10
-61.5
 20
0.139999486
 30
0.0
 40
3.5
  1
46
 50
90.0
  7
BMG_Text
100
AcDbText
  0
CIRCLE
  5
76
330
1D
100
AcDbEntity
  8
SK2
100
AcDbCircle
 10
-62.75
 20
-2.110000514
 30
0.0
 40
1.25
  0
LINE
  5
77
330
1D
100
AcDbEntity
  8
SK2
100
AcDbLine
 10
-61.5
 20
-3.360000514
 30
0.0
 11
-64.0
 21
-0.860000514
 31
0.0
  0
TEXT
  5
78
330
1D
100
AcDbEntity
  8
SK6
  6
Continuous
370
    35
100
AcDbText
 10
-24.24291001911554
 20
-35.73197466877427
 30
0.0
 40
3.5
  1
319.701
  7
BMG_Text
100
AcDbText
  0
LINE
  5
79
330
1D
100
AcDbEntity
  8
1
  6
Continuous
370
    50
100
AcDbLine
 10
29.695320874
 20
45.000001788
 30
0.0
 11
0.500000024
 21
45.000001788
 31
0.0
  0
LINE
  5
7A
330
1D
100
AcDbEntity
  8
1
  6
Continuous
370
    50
100
AcDbLine
 10
0.500000024
 20
-45.000001788
 30
0.0
 11
29.695320874
 21
-45.000001788
 31
0.0
  0
LINE
  5
7B
330
1D
100
AcDbEntity
  8
1
  6
Continuous
370
    50
100
AcDbLine
 10
0.500000024
 20
45.000001788
 30
0.0
 11
0.0
 21
44.500000775
 31
0.0
  0
LINE
  5
7C
330
1D
100
AcDbEntity
  8
1
  6
Continuous
370
    50
100
AcDbLine
 10
0.0
 20
-44.500000775
 30
0.0
 11
0.500000024
 21
-45.000001788
 31
0.0
  0
LINE
  5
7D
330
1D
100
AcDbEntity
  8
1
  6
Continuous
370
    50
100
AcDbLine
 10
52.499998361
 20
45.000001788
 30
0.0
 11
29.695320874
 21
45.000001788
 31
0.0
  0
ARC
  5
7E
330
1D
100
AcDbEntity
  8
1
  6
Continuous
370
    50
100
AcDbCircle
 10
40.040905639
 20
51.982361939
 30
0.0
 40
14.982365193
100
AcDbArc
 50
208.078270398
 51
270.040434395
  0
LINE
  5
7F
330
1D
100
AcDbEntity
  8
1
  6
Continuous
370
    50
100
AcDbLine
 10
52.999999374
 20
37.000000477
 30
0.0
 11
40.051478893
 21
37.000000477
 31
0.0
  0
LINE
  5
80
330
1D
100
AcDbEntity
  8
1
  6
Continuous
370
    50
100
AcDbLine
 10
52.999999374
 20
27.0000007
 30
0.0
 11
19.999999553
 21
27.0000007
 31
0.0
  0
ARC
  5
81
330
1D
100
AcDbEntity
  8
1
  6
Continuous
370
    50
100
AcDbCircle
 10
62.725427383
 20
8.404431009
 30
0.0
 40
46.596752368
100
AcDbArc
 50
156.479675188
 51
157.461812867
  0
ARC
  5
82
330
1D
100
AcDbEntity
  8
1
  6
Continuous
370
    50
100
AcDbCircle
 10
72.977514812
 20
4.149869871
 30
0.0
 40
57.695826442
100
AcDbArc
 50
157.461812867
 51
166.864202143
  0
ARC
  5
83
330
1D
100
AcDbEntity
  8
1
  6
Continuous
370
    50
100
AcDbCircle
 10
90.758633798
 20
0.0
 30
0.0
 40
75.954786221
100
AcDbArc
 50
166.863936892
 51
180.0
  0
ARC
  5
84
330
1D
100
AcDbEntity
  8
1
  6
Continuous
370
    50
100
AcDbCircle
 10
90.758633798
 20
0.0
 30
0.0
 40
75.954786221
100
AcDbArc
 50
180.0
 51
193.136063108
  0
ARC
  5
85
330
1D
100
AcDbEntity
  8
1
  6
Continuous
370
    50
100
AcDbCircle
 10
72.977514812
 20
-4.149869871
 30
0.0
 40
57.695826442
100
AcDbArc
 50
193.135797857
 51
202.538187133
  0
ARC
  5
86
330
1D
100
AcDbEntity
  8
1
  6
Continuous
370
    50
100
AcDbCircle
 10
62.725427383
 20
-8.404431009
 30
0.0
 40
46.595980176
100
AcDbArc
 50
202.538187133
 51
203.520324812
  0
LINE
  5
87
330
1D
100
AcDbEntity
  8
1
  6
Continuous
370
    50
100
AcDbLine
 10
52.499998361
 20
-27.0000007
 30
0.0
 11
19.999999553
 21
-27.0000007
 31
0.0
  0
LINE
  5
88
330
1D
100
AcDbEntity
  8
1
  6
Continuous
370
    50
100
AcDbLine
 10
29.695320874
 20
-45.000001788
 30
0.0
 11
52.499998361
 21
-45.000001788
 31
0.0
  0
LINE
  5
89
330
1D
100
AcDbEntity
  8
1
  6
Continuous
370
    50
100
AcDbLine
 10
19.999999553
 20
-27.0000007
 30
0.0
 11
19.999999553
 21
27.0000007
 31
0.0
  0
LINE
  5
8A
330
1D
100
AcDbEntity
  8
1
  6
Continuous
370
    50
100
AcDbLine
 10
0.0
 20
-44.500000775
 30
0.0
 11
0.0
 21
44.500000775
 31
0.0
  0
LINE
  5
8B
330
1D
100
AcDbEntity
  8
1
  6
Continuous
370
    50
100
AcDbLine
 10
52.499998361
 20
-45.000001788
 30
0.0
 11
52.999999374
 21
-44.498343828
 31
0.0
  0
LINE
  5
8C
330
1D
100
AcDbEntity
  8
1
  6
Continuous
370
    50
100
AcDbLine
 10
52.499998361
 20
45.000001788
 30
0.0
 11
52.999999374
 21
44.498324398
 31
0.0
  0
LINE
  5
8D
330
1D
100
AcDbEntity
  8
1
  6
Continuous
370
    50
100
AcDbLine
 10
52.999999374
 20
44.498324398
 30
0.0
 11
52.999999374
 21
-44.498343828
 31
0.0
  0
LINE
  5
8E
330
1D
100
AcDbEntity
  8
3
  6
DASH
370
    35
100
AcDbLine
 10
21.207181737
 20
38.025025278
 30
0.0
 11
21.664635299
 21
32.98538049
 31
0.0
  0
LINE
  5
8F
330
1D
100
AcDbEntity
  8
3
  6
DASH
370
    35
100
AcDbLine
 10
26.313988492
 20
27.165900916
 30
0.0
 11
47.22523641
 21
37.000000477
 31
0.0
  0
LINE
  5
90
330
1D
100
AcDbEntity
  8
3
  6
DASH
370
    35
100
AcDbLine
 10
29.10643753
 20
41.739868397
 30
0.0
 11
21.207181737
 21
38.025025278
 31
0.0
  0
LINE
  5
91
330
1D
100
AcDbEntity
  8
3
  6
DASH
370
    35
100
AcDbLine
 10
21.664635299
 20
32.98538049
 30
0.0
 11
0.583856977
 21
11.000015259
 31
0.0
  0
LINE
  5
92
330
1D
100
AcDbEntity
  8
3
  6
DASH
370
    35
100
AcDbLine
 10
4.241181182
 20
7.589904648
 30
0.0
 11
24.636281654
 21
28.860170394
 31
0.0
  0
LINE
  5
93
330
1D
100
AcDbEntity
  8
4
100
AcDbLine
 10
1.701416627
 20
8.553343574
 30
0.0
 11
24.821760888
 21
32.665794858
 31
0.0
  0
LINE
  5
94
330
1D
100
AcDbEntity
  8
4
100
AcDbLine
 10
21.787319956
 20
31.667479696
 30
0.0
 11
36.67950421
 21
38.670946118
 31
0.0
  0
LINE
  5
95
330
1D
100
AcDbEntity
  8
2
  6
Continuous
370
    25
100
AcDbLine
 10
0.0
 20
-56.726806462
 30
0.0
 11
0.0
 21
-44.500000775
 31
0.0
  0
LINE
  5
96
330
1D
100
AcDbEntity
  8
2
  6
Continuous
370
    25
100
AcDbLine
 10
0.0
 20
-54.726806462
 30
0.0
 11
3.499999996
 21
-54.276806434
 31
0.0
  0
LINE
  5
97
330
1D
100
AcDbEntity
  8
2
  6
Continuous
370
    25
100
AcDbLine
 10
3.499999996
 20
-54.276806434
 30
0.0
 11
3.500000004
 21
-55.176806434
 31
0.0
  0
LINE
  5
98
330
1D
100
AcDbEntity
  8
2
  6
Continuous
370
    25
100
AcDbLine
 10
3.500000004
 20
-55.176806434
 30
0.0
 11
0.0
 21
-54.726806462
 31
0.0
  0
LINE
  5
99
330
1D
100
AcDbEntity
  8
2
  6
Continuous
370
    25
100
AcDbLine
 10
52.999999374
 20
-56.726806047
 30
0.0
 11
52.999999374
 21
-44.498343828
 31
0.0
  0
LINE
  5
9A
330
1D
100
AcDbEntity
  8
2
  6
Continuous
370
    25
100
AcDbLine
 10
52.999999374
 20
-54.726806047
 30
0.0
 11
49.499999378
 21
-55.176806075
 31
0.0
  0
LINE
  5
9B
330
1D
100
AcDbEntity
  8
2
  6
Continuous
370
    25
100
AcDbLine
 10
49.499999378
 20
-55.176806075
 30
0.0
 11
49.499999371
 21
-54.276806075
 31
0.0
  0
LINE
  5
9C
330
1D
100
AcDbEntity
  8
2
  6
Continuous
370
    25
100
AcDbLine
 10
49.499999371
 20
-54.276806075
 30
0.0
 11
52.999999374
 21
-54.726806047
 31
0.0
  0
LINE
  5
9D
330
1D
100
AcDbEntity
  8
2
  6
Continuous
370
    25
100
AcDbLine
 10
3.5
 20
-54.726806434
 30
0.0
 11
49.499999374
 21
-54.726806075
 31
0.0
  0
TEXT
  5
9E
330
1D
100
AcDbEntity
  8
2
  6
Continuous
370
    25
100
AcDbText
 10
25.136092833
 20
-53.226806265
 30
0.0
 40
3.5
  1
53
 50
0.000000448
  7
BMG_Text
100
AcDbText
  0
LINE
  5
9F
330
1D
100
AcDbEntity
  8
2
  6
Continuous
370
    25
100
AcDbLine
 10
0.0
 20
57.259847462
 30
0.0
 11
0.0
 21
44.500000775
 31
0.0
  0
LINE
  5
A0
330
1D
100
AcDbEntity
  8
2
  6
Continuous
370
    25
100
AcDbLine
 10
0.0
 20
55.259847462
 30
0.0
 11
3.500000002
 21
55.709847448
 31
0.0
  0
LINE
  5
A1
330
1D
100
AcDbEntity
  8
2
  6
Continuous
370
    25
100
AcDbLine
 10
3.500000002
 20
55.709847448
 30
0.0
 11
3.499999998
 21
54.809847448
 31
0.0
  0
LINE
  5
A2
330
1D
100
AcDbEntity
  8
2
  6
Continuous
370
    25
100
AcDbLine
 10
3.499999998
 20
54.809847448
 30
0.0
 11
0.0
 21
55.259847462
 31
0.0
  0
LINE
  5
A3
330
1D
100
AcDbEntity
  8
2
  6
Continuous
370
    25
100
AcDbLine
 10
87.0
 20
57.259847115
 30
0.0
 11
87.0
 21
48.200447034
 31
0.0
  0
LINE
  5
A4
330
1D
100
AcDbEntity
  8
2
  6
Continuous
370
    25
100
AcDbLine
 10
87.0
 20
55.259847115
 30
0.0
 11
83.499999998
 21
54.809847129
 31
0.0
  0
LINE
  5
A5
330
1D
100
AcDbEntity
  8
2
  6
Continuous
370
    25
100
AcDbLine
 10
83.499999998
 20
54.809847129
 30
0.0
 11
83.500000002
 21
55.709847129
 31
0.0
  0
LINE
  5
A6
330
1D
100
AcDbEntity
  8
2
  6
Continuous
370
    25
100
AcDbLine
 10
83.500000002
 20
55.709847129
 30
0.0
 11
87.0
 21
55.259847115
 31
0.0
  0
LINE
  5
A7
330
1D
100
AcDbEntity
  8
2
  6
Continuous
370
    25
100
AcDbLine
 10
3.5
 20
55.259847448
 30
0.0
 11
83.5
 21
55.259847129
 31
0.0
  0
TEXT
  5
A8
330
1D
100
AcDbEntity
  8
2
  6
Continuous
370
    25
100
AcDbText
 10
41.835311534
 20
56.759847295
 30
0.0
 40
3.5
  1
87
 50
359.999999772
  7
BMG_Text
100
AcDbText
  0
CIRCLE
  5
A9
330
1D
100
AcDbEntity
  8
SK1
  6
Continuous
370
    50
100
AcDbCircle
 10
-17.932
 20
0.0
 30
0.0
 40
7.5
  0
LINE
  5
AA
330
1D
100
AcDbEntity
  8
SK4
100
AcDbLine
 10
-12.0
 20
-29.330638858
 30
0.0
 11
-12.0
 21
-22.197623121
 31
0.0
  0
LINE
  5
AB
330
1D
100
AcDbEntity
  8
SK4
100
AcDbLine
 10
-12.0
 20
21.555180833
 30
0.0
 11
-12.0
 21
29.385230077
 31
0.0
  0
LINE
  5
AC
330
1D
100
AcDbEntity
  8
SK1
  6
Continuous
370
    50
100
AcDbLine
 10
-16.987426758
 20
-27.999996185
 30
0.0
 11
-7.012573242
 21
-27.999996185
 31
0.0
  0
LINE
  5
AD
330
1D
100
AcDbEntity
  8
SK1
  6
Continuous
370
    50
100
AcDbLine
 10
-16.987426758
 20
27.999996185
 30
0.0
 11
-7.012573242
 21
27.999996185
 31
0.0
  0
LINE
  5
AE
330
1D
100
AcDbEntity
  8
SK1
  6
Continuous
370
    50
100
AcDbLine
 10
-20.732055664
 20
-23.514095306
 30
0.0
 11
-18.719467163
 21
-27.000003815
 31
0.0
  0
LINE
  5
AF
330
1D
100
AcDbEntity
  8
SK1
  6
Continuous
370
    50
100
AcDbLine
 10
-3.267959595
 20
-23.514102936
 30
0.0
 11
-5.280532837
 21
-26.999996185
 31
0.0
  0
LINE
  5
B0
330
1D
100
AcDbEntity
  8
SK1
  6
Continuous
370
    50
100
AcDbLine
 10
-20.732040405
 20
23.514080048
 30
0.0
 11
-18.719467163
 21
26.999996185
 31
0.0
  0
LINE
  5
B1
330
1D
100
AcDbEntity
  8
SK1
  6
Continuous
370
    50
100
AcDbLine
 10
-3.267944336
 20
23.514080048
 30
0.0
 11
-5.280532837
 21
26.999996185
 31
0.0
  0
ARC
  5
B2
330
1D
100
AcDbEntity
  8
SK1
  6
Continuous
370
    50
100
AcDbCircle
 10
-19.0
 20
-22.514087677
 30
0.0
 40
2.0
100
AcDbArc
 50
194.061081335
 51
210.000121593
  0
ARC
  5
B3
330
1D
100
AcDbEntity
  8
SK1
  6
Continuous
370
    50
100
AcDbCircle
 10
-16.987426758
 20
-25.999996185
 30
0.0
 40
1.999994755
100
AcDbArc
 50
210.000335693
 51
269.999999523
  0
ARC
  5
B4
330
1D
100
AcDbEntity
  8
SK1
  6
Continuous
370
    50
100
AcDbCircle
 10
-7.012573242
 20
-25.999996185
 30
0.0
 40
2.0
100
AcDbArc
 50
270.0
 51
329.99984622
  0
ARC
  5
B5
330
1D
100
AcDbEntity
  8
SK1
  6
Continuous
370
    50
100
AcDbCircle
 10
-5.0
 20
-22.514095306
 30
0.0
 40
1.999994755
100
AcDbArc
 50
329.999664307
 51
345.939106347
  0
ARC
  5
B6
330
1D
100
AcDbEntity
  8
SK1
  6
Continuous
370
    50
100
AcDbCircle
 10
-19.0
 20
22.514080048
 30
0.0
 40
2.0
100
AcDbArc
 50
149.999851584
 51
165.938693347
  0
ARC
  5
B7
330
1D
100
AcDbEntity
  8
SK1
  6
Continuous
370
    50
100
AcDbCircle
 10
-16.987426758
 20
25.999996185
 30
0.0
 40
1.99999094
100
AcDbArc
 50
89.999999642
 51
149.999851227
  0
ARC
  5
B8
330
1D
100
AcDbEntity
  8
SK1
  6
Continuous
370
    50
100
AcDbCircle
 10
-7.012573242
 20
25.999996185
 30
0.0
 40
2.0
100
AcDbArc
 50
30.00015378
 51
90.0
  0
ARC
  5
B9
330
1D
100
AcDbEntity
  8
SK1
  6
Continuous
370
    50
100
AcDbCircle
 10
-5.0
 20
22.514095306
 30
0.0
 40
1.999996543
100
AcDbArc
 50
14.060880823
 51
29.999542236
  0
ARC
  5
BA
330
1D
100
AcDbEntity
  8
1
  6
Continuous
370
    25
100
AcDbCircle
 10
91.102698922
 20
-38.002163968
 30
0.0
 40
80.735831416
100
AcDbArc
 50
118.202290013
 51
120.846272818
  0
ARC
  5
BB
330
1D
100
AcDbEntity
  8
1
  6
Continuous
370
    25
100
AcDbCircle
 10
52.763283984
 20
33.536434173
 30
0.0
 40
0.429176676
100
AcDbArc
 50
295.503989644
 51
64.496010356
  0
ARC
  5
BC
330
1D
100
AcDbEntity
  8
1
  6
Continuous
370
    25
100
AcDbCircle
 10
16.293453501
 20
-38.002163968
 30
0.0
 40
80.727345779
100
AcDbArc
 50
62.995877974
 51
65.54984404900001
  0
ARC
  5
BD
330
1D
100
AcDbEntity
  8
1
  6
Continuous
370
    25
100
AcDbCircle
 10
88.079510132
 20
-55.759300279
 30
0.0
 40
99.929647607
100
AcDbArc
 50
111.052120891
 51
112.538187133
  0
ARC
  5
BE
330
1D
100
AcDbEntity
  8
1
  6
Continuous
370
    25
100
AcDbCircle
 10
80.710394077
 20
-38.002163968
 30
0.0
 40
80.706605093
100
AcDbArc
 50
112.538187133
 51
112.596325357
  0
LINE
  5
BF
330
1D
100
AcDbEntity
  8
1
  6
Continuous
370
    25
100
AcDbLine
 10
69.30000335
 20
37.500448525
 30
0.0
 11
52.183076739
 21
37.500448525
 31
0.0
  0
LINE
  5
C0
330
1D
100
AcDbEntity
  8
1
  6
Continuous
370
    25
100
AcDbLine
 10
70.299997926
 20
36.500446498
 30
0.0
 11
69.792941213
 21
37.007503211
 31
0.0
  0
LINE
  5
C1
330
1D
100
AcDbEntity
  8
1
  6
Continuous
370
    25
100
AcDbLine
 10
69.792941213
 20
37.007503211
 30
0.0
 11
69.30000335
 21
37.500448525
 31
0.0
  0
LINE
  5
C2
330
1D
100
AcDbEntity
  8
1
  6
Continuous
370
    25
100
AcDbLine
 10
70.299997926
 20
27.000447735
 30
0.0
 11
70.299997926
 21
36.500446498
 31
0.0
  0
LINE
  5
C3
330
1D
100
AcDbEntity
  8
1
  6
Continuous
370
    25
100
AcDbLine
 10
70.299997926
 20
27.000447735
 30
0.0
 11
53.198076785
 21
27.000447735
 31
0.0
  0
ARC
  5
C4
330
1D
100
AcDbEntity
  8
1
  6
Continuous
370
    25
100
AcDbCircle
 10
52.525982985
 20
27.043561809
 30
0.0
 40
0.67347524
100
AcDbArc
 50
356.3295683220001
 51
51.190050096
  0
ARC
  5
C5
330
1D
100
AcDbEntity
  8
1
  6
Continuous
370
    25
100
AcDbCircle
 10
25.649852208
 20
-10.309957043
 30
0.0
 40
46.690035034
100
AcDbArc
 50
54.220378214
 51
54.50520341899999
  0
ARC
  5
C6
330
1D
100
AcDbEntity
  8
1
  6
Continuous
370
    25
100
AcDbCircle
 10
5.901148655
 20
-38.002163968
 30
0.0
 40
80.706605093
100
AcDbArc
 50
54.505296738
 51
57.150322834
  0
ARC
  5
C7
330
1D
100
AcDbEntity
  8
1
  6
Continuous
370
    25
100
AcDbCircle
 10
52.48196194
 20
-27.02328902
 30
0.0
 40
0.716508086
100
AcDbArc
 50
310.5820297139999
 51
1.898351868
  0
LINE
  5
C8
330
1D
100
AcDbEntity
  8
1
  6
Continuous
370
    25
100
AcDbLine
 10
53.198076785
 20
27.000447735
 30
0.0
 11
53.198076785
 21
-26.999553666
 31
0.0
  0
ARC
  5
C9
330
1D
100
AcDbEntity
  8
1
  6
Continuous
370
    25
100
AcDbCircle
 10
22.521161675
 20
86.557995847
 30
0.0
 40
131.570814858
100
AcDbArc
 50
281.921534352
 51
283.136063108
  0
ARC
  5
CA
330
1D
100
AcDbEntity
  8
1
  6
Continuous
370
    25
100
AcDbCircle
 10
29.708947136
 20
55.760194348
 30
0.0
 40
99.932102782
100
AcDbArc
 50
283.135797857
 51
283.447627668
  0
LINE
  5
CB
330
1D
100
AcDbEntity
  8
1
  6
Continuous
370
    25
100
AcDbLine
 10
52.948076278
 20
-41.42902419
 30
0.0
 11
53.077984601
 21
-41.38308391
 31
0.0
  0
LINE
  5
CC
330
1D
100
AcDbEntity
  8
1
  6
Continuous
370
    25
100
AcDbLine
 10
53.077984601
 20
-41.38308391
 30
0.0
 11
53.162693977
 21
-41.322872043
 31
0.0
  0
LINE
  5
CD
330
1D
100
AcDbEntity
  8
1
  6
Continuous
370
    25
100
AcDbLine
 10
53.162693977
 20
-41.322872043
 30
0.0
 11
53.197771311
 21
-41.250359267
 31
0.0
  0
LINE
  5
CE
330
1D
100
AcDbEntity
  8
1
  6
Continuous
370
    25
100
AcDbLine
 10
53.197771311
 20
-41.250359267
 30
0.0
 11
53.171433508
 21
-41.172076017
 31
0.0
  0
LINE
  5
CF
330
1D
100
AcDbEntity
  8
1
  6
Continuous
370
    25
100
AcDbLine
 10
53.171433508
 20
-41.172076017
 30
0.0
 11
53.080048412
 21
-41.100412607
 31
0.0
  0
LINE
  5
D0
330
1D
100
AcDbEntity
  8
1
  6
Continuous
370
    25
100
AcDbLine
 10
53.080048412
 20
-41.100412607
 30
0.0
 11
52.948076278
 21
-41.051033884
 31
0.0
  0
ARC
  5
D1
330
1D
100
AcDbEntity
  8
1
  6
Continuous
370
    25
100
AcDbCircle
 10
77.687205287
 20
55.760194348
 30
0.0
 40
99.916360361
100
AcDbArc
 50
253.733448918
 51
255.665407909
  0
ARC
  5
D2
330
1D
100
AcDbEntity
  8
1
  6
Continuous
370
    25
100
AcDbCircle
 10
19.31664229
 20
55.760194348
 30
0.0
 40
99.918068416
100
AcDbArc
 50
287.7029864759999
 51
289.667891257
  0
LINE
  5
D3
330
1D
100
AcDbEntity
  8
1
  6
Continuous
370
    25
100
AcDbLine
 10
52.948076278
 20
-38.334876299
 30
0.0
 11
53.078714758
 21
-38.267780095
 31
0.0
  0
LINE
  5
D4
330
1D
100
AcDbEntity
  8
1
  6
Continuous
370
    25
100
AcDbLine
 10
53.078714758
 20
-38.267780095
 30
0.0
 11
53.16189304
 21
-38.182388991
 31
0.0
  0
LINE
  5
D5
330
1D
100
AcDbEntity
  8
1
  6
Continuous
370
    25
100
AcDbLine
 10
53.16189304
 20
-38.182388991
 30
0.0
 11
53.197838366
 21
-38.075000048
 31
0.0
  0
LINE
  5
D6
330
1D
100
AcDbEntity
  8
1
  6
Continuous
370
    25
100
AcDbLine
 10
53.197838366
 20
-38.075000048
 30
0.0
 11
53.166277707
 21
-37.954092026
 31
0.0
  0
LINE
  5
D7
330
1D
100
AcDbEntity
  8
1
  6
Continuous
370
    25
100
AcDbLine
 10
53.166277707
 20
-37.954092026
 30
0.0
 11
53.057011217
 21
-37.843581289
 31
0.0
  0
LINE
  5
D8
330
1D
100
AcDbEntity
  8
1
  6
Continuous
370
    25
100
AcDbLine
 10
53.057011217
 20
-37.843581289
 30
0.0
 11
52.948076278
 21
-37.788808346
 31
0.0
  0
ARC
  5
D9
330
1D
100
AcDbEntity
  8
1
  6
Continuous
370
    25
100
AcDbCircle
 10
80.710394077
 20
38.003058038
 30
0.0
 40
80.706610068
100
AcDbArc
 50
247.403674643
 51
247.461812867
  0
ARC
  5
DA
330
1D
100
AcDbEntity
  8
1
  6
Continuous
370
    25
100
AcDbCircle
 10
88.079510132
 20
55.760194348
 30
0.0
 40
99.932102782
100
AcDbArc
 50
247.461812867
 51
249.416812296
  0
ARC
  5
DB
330
1D
100
AcDbEntity
  8
1
  6
Continuous
370
    25
100
AcDbCircle
 10
16.293453501
 20
38.003058038
 30
0.0
 40
80.711349899
100
AcDbArc
 50
294.450155951
 51
297.004122026
  0
ARC
  5
DC
330
1D
100
AcDbEntity
  8
1
  6
Continuous
370
    25
100
AcDbCircle
 10
52.762938588
 20
-33.535540104
 30
0.0
 40
0.429325507
100
AcDbArc
 50
295.545592852
 51
64.45440714799999
  0
ARC
  5
DD
330
1D
100
AcDbEntity
  8
1
  6
Continuous
370
    25
100
AcDbCircle
 10
91.102698922
 20
38.003058038
 30
0.0
 40
80.748506479
100
AcDbArc
 50
239.153727182
 51
241.797709987
  0
ARC
  5
DE
330
1D
100
AcDbEntity
  8
1
  6
Continuous
370
    25
100
AcDbCircle
 10
5.901148655
 20
38.003058038
 30
0.0
 40
80.744615946
100
AcDbArc
 50
302.849677166
 51
305.494703262
  0
ARC
  5
DF
330
1D
100
AcDbEntity
  8
1
  6
Continuous
370
    25
100
AcDbCircle
 10
25.649852208
 20
10.310851113
 30
0.0
 40
46.69381902
100
AcDbArc
 50
305.4947965810001
 51
305.779621786
  0
LINE
  5
E0
330
1D
100
AcDbEntity
  8
1
  6
Continuous
370
    25
100
AcDbLine
 10
53.198076785
 20
-26.999553666
 30
0.0
 11
66.906906664
 21
-26.999553666
 31
0.0
  0
LINE
  5
E1
330
1D
100
AcDbEntity
  8
1
  6
Continuous
370
    25
100
AcDbLine
 10
66.906906664
 20
-26.999553666
 30
0.0
 11
66.906906664
 21
-44.999107718
 31
0.0
  0
LINE
  5
E2
330
1D
100
AcDbEntity
  8
1
  6
Continuous
370
    25
100
AcDbLine
 10
66.906906664
 20
-44.999107718
 30
0.0
 11
53.156334907
 21
-44.999107718
 31
0.0
  0
ARC
  5
E3
330
1D
100
AcDbEntity
  8
1
  6
Continuous
370
    25
100
AcDbCircle
 10
52.695759451
 20
-90.286390668
 30
0.0
 40
45.289624934
100
AcDbArc
 50
89.41731721799998
 51
89.68079302699999
  0
ARC
  5
E4
330
1D
100
AcDbEntity
  8
1
  6
Continuous
370
    25
100
AcDbCircle
 10
53.698076211
 20
86.557995847
 30
0.0
 40
131.559072287
100
AcDbArc
 50
268.258514872
 51
269.673359302
  0
ARC
  5
E5
330
1D
100
AcDbEntity
  8
1
  6
Continuous
370
    25
100
AcDbCircle
 10
43.305771366
 20
86.557995847
 30
0.0
 40
131.561343011
100
AcDbArc
 50
272.785823685
 51
274.202913096
  0
LINE
  5
E6
330
1D
100
AcDbEntity
  8
1
  6
Continuous
370
    25
100
AcDbLine
 10
52.948076278
 20
-44.653877616
 30
0.0
 11
53.077347577
 21
-44.640380889
 31
0.0
  0
LINE
  5
E7
330
1D
100
AcDbEntity
  8
1
  6
Continuous
370
    25
100
AcDbLine
 10
53.077347577
 20
-44.640380889
 30
0.0
 11
53.163640201
 21
-44.6219109
 31
0.0
  0
LINE
  5
E8
330
1D
100
AcDbEntity
  8
1
  6
Continuous
370
    25
100
AcDbLine
 10
53.163640201
 20
-44.6219109
 30
0.0
 11
53.19775641
 21
-44.600155205
 31
0.0
  0
LINE
  5
E9
330
1D
100
AcDbEntity
  8
1
  6
Continuous
370
    25
100
AcDbLine
 10
53.19775641
 20
-44.600155205
 30
0.0
 11
53.175155073
 21
-44.577371329
 31
0.0
  0
LINE
  5
EA
330
1D
100
AcDbEntity
  8
1
  6
Continuous
370
    25
100
AcDbLine
 10
53.175155073
 20
-44.577371329
 30
0.0
 11
53.097680211
 21
-44.556297362
 31
0.0
  0
LINE
  5
EB
330
1D
100
AcDbEntity
  8
1
  6
Continuous
370
    25
100
AcDbLine
 10
53.097680211
 20
-44.556297362
 30
0.0
 11
52.974380553
 21
-44.53971237
 31
0.0
  0
LINE
  5
EC
330
1D
100
AcDbEntity
  8
1
  6
Continuous
370
    25
100
AcDbLine
 10
52.974380553
 20
-44.53971237
 30
0.0
 11
52.948076278
 21
-44.537361711
 31
0.0
  0
ARC
  5
ED
330
1D
100
AcDbEntity
  8
1
  6
Continuous
370
    25
100
AcDbCircle
 10
64.090381057
 20
86.557995847
 30
0.0
 40
131.573241916
100
AcDbArc
 50
263.720905437
 51
265.141884429
  0
ARC
  5
EE
330
1D
100
AcDbEntity
  8
1
  6
Continuous
370
    25
100
AcDbCircle
 10
32.913466521
 20
86.557995847
 30
0.0
 40
131.576703739
100
AcDbArc
 50
277.329762228
 51
278.758042759
  0
LINE
  5
EF
330
1D
100
AcDbEntity
  8
1
  6
Continuous
370
    25
100
AcDbLine
 10
52.948076278
 20
-43.487537652
 30
0.0
 11
53.077559918
 21
-43.458815664
 31
0.0
  0
LINE
  5
F0
330
1D
100
AcDbEntity
  8
1
  6
Continuous
370
    25
100
AcDbLine
 10
53.077559918
 20
-43.458815664
 30
0.0
 11
53.163278848
 21
-43.420340866
 31
0.0
  0
LINE
  5
F1
330
1D
100
AcDbEntity
  8
1
  6
Continuous
370
    25
100
AcDbLine
 10
53.163278848
 20
-43.420340866
 30
0.0
 11
53.197752684
 21
-43.375011534
 31
0.0
  0
LINE
  5
F2
330
1D
100
AcDbEntity
  8
1
  6
Continuous
370
    25
100
AcDbLine
 10
53.197752684
 20
-43.375011534
 30
0.0
 11
53.173977882
 21
-43.327327818
 31
0.0
  0
LINE
  5
F3
330
1D
100
AcDbEntity
  8
1
  6
Continuous
370
    25
100
AcDbLine
 10
53.173977882
 20
-43.327327818
 30
0.0
 11
53.091913462
 21
-43.283637613
 31
0.0
  0
LINE
  5
F4
330
1D
100
AcDbEntity
  8
1
  6
Continuous
370
    25
100
AcDbLine
 10
53.091913462
 20
-43.283637613
 30
0.0
 11
52.948076278
 21
-43.247908354
 31
0.0
  0
ARC
  5
F5
330
1D
100
AcDbEntity
  8
1
  6
Continuous
370
    25
100
AcDbCircle
 10
74.482685902
 20
86.557995847
 30
0.0
 40
131.577200155
100
AcDbArc
 50
259.143438958
 51
260.580504153
  0
LINE
  5
F6
330
1D
100
AcDbEntity
  8
1
  6
Continuous
370
    25
100
AcDbLine
 10
74.534706771
 20
-46.135198325
 30
0.0
 11
74.537433684
 21
-46.135682613
 31
0.0
  0
LINE
  5
F7
330
1D
100
AcDbEntity
  8
1
  6
Continuous
370
    25
100
AcDbLine
 10
74.537433684
 20
-46.135682613
 30
0.0
 11
85.272789002
 21
-48.03685844
 31
0.0
  0
LINE
  5
F8
330
1D
100
AcDbEntity
  8
1
  6
Continuous
370
    25
100
AcDbLine
 10
74.534706771
 20
-46.313349158
 30
0.0
 11
74.534706771
 21
-46.135198325
 31
0.0
  0
ARC
  5
F9
330
1D
100
AcDbEntity
  8
1
  6
Continuous
370
    25
100
AcDbCircle
 10
74.44706315
 20
-45.594205556
 30
0.0
 40
0.724567496
100
AcDbArc
 50
263.401632993
 51
270.0
  0
ARC
  5
FA
330
1D
100
AcDbEntity
  8
1
  6
Continuous
370
    25
100
AcDbCircle
 10
74.44706315
 20
-45.594205556
 30
0.0
 40
0.725530307
100
AcDbArc
 50
270.0
 51
276.948529268
  0
LINE
  5
FB
330
1D
100
AcDbEntity
  8
1
  6
Continuous
370
    25
100
AcDbLine
 10
74.363805354
 20
-46.313975006
 30
0.0
 11
66.906906664
 21
-44.999107718
 31
0.0
  0
LINE
  5
FC
330
1D
100
AcDbEntity
  8
1
  6
Continuous
370
    25
100
AcDbLine
 10
66.906906664
 20
-26.999553666
 30
0.0
 11
72.718717158
 21
-28.674984351
 31
0.0
  0
LINE
  5
FD
330
1D
100
AcDbEntity
  8
1
  6
Continuous
370
    25
100
AcDbLine
 10
72.718717158
 20
-28.674984351
 30
0.0
 11
81.097476184
 21
-30.990796164
 31
0.0
  0
ARC
  5
FE
330
1D
100
AcDbEntity
  8
1
  6
Continuous
370
    25
100
AcDbCircle
 10
125.949709825
 20
0.321678324
 30
0.0
 40
54.700949449
100
AcDbArc
 50
214.919864422
 51
216.73363829
  0
LINE
  5
FF
330
1D
100
AcDbEntity
  8
1
  6
Continuous
370
    25
100
AcDbLine
 10
81.097476184
 20
2.050712006
 30
0.0
 11
81.097476184
 21
-30.990796164
 31
0.0
  0
LINE
  5
100
330
1D
100
AcDbEntity
  8
1
  6
Continuous
370
    25
100
AcDbLine
 10
83.097480238
 20
-1.413389691
 30
0.0
 11
83.097480238
 21
-32.395482063
 31
0.0
  0
LINE
  5
101
330
1D
100
AcDbEntity
  8
1
  6
Continuous
370
    25
100
AcDbLine
 10
83.097480238
 20
-32.395482063
 30
0.0
 11
83.082154393
 21
-32.59242326
 31
0.0
  0
LINE
  5
102
330
1D
100
AcDbEntity
  8
1
  6
Continuous
370
    25
100
AcDbLine
 10
83.082154393
 20
-32.59242326
 30
0.0
 11
83.039201796
 21
-32.740972936
 31
0.0
  0
LINE
  5
103
330
1D
100
AcDbEntity
  8
1
  6
Continuous
370
    25
100
AcDbLine
 10
83.039201796
 20
-32.740972936
 30
0.0
 11
82.982227206
 21
-32.832760364
 31
0.0
  0
LINE
  5
104
330
1D
100
AcDbEntity
  8
1
  6
Continuous
370
    25
100
AcDbLine
 10
82.982227206
 20
-32.832760364
 30
0.0
 11
82.906424999
 21
-32.891925424
 31
0.0
  0
LINE
  5
105
330
1D
100
AcDbEntity
  8
1
  6
Continuous
370
    25
100
AcDbLine
 10
82.906424999
 20
-32.891925424
 30
0.0
 11
82.803241909
 21
-32.91580081
 31
0.0
  0
LINE
  5
106
330
1D
100
AcDbEntity
  8
1
  6
Continuous
370
    25
100
AcDbLine
 10
82.803241909
 20
-32.91580081
 30
0.0
 11
82.642912865
 21
-32.879397273
 31
0.0
  0
LINE
  5
107
330
1D
100
AcDbEntity
  8
1
  6
Continuous
370
    25
100
AcDbLine
 10
82.642912865
 20
-32.879397273
 30
0.0
 11
82.365177572
 21
-32.684400678
 31
0.0
  0
LINE
  5
108
330
1D
100
AcDbEntity
  8
1
  6
Continuous
370
    25
100
AcDbLine
 10
82.365177572
 20
-32.684400678
 30
0.0
 11
82.111254335
 21
-32.394554466
 31
0.0
  0
LINE
  5
109
330
1D
100
AcDbEntity
  8
1
  6
Continuous
370
    25
100
AcDbLine
 10
83.097480238
 20
-1.413389691
 30
0.0
 11
81.097476184
 21
2.050712006
 31
0.0
  0
LINE
  5
10A
330
1D
100
AcDbEntity
  8
1
  6
Continuous
370
    25
100
AcDbLine
 10
70.299997926
 20
23.431982845
 30
0.0
 11
70.299997926
 21
27.000447735
 31
0.0
  0
ARC
  5
10B
330
1D
100
AcDbEntity
  8
1
  6
Continuous
370
    25
100
AcDbCircle
 10
80.3
 20
23.431982365
 30
0.0
 40
10.0
100
AcDbArc
 50
180.0
 51
210.0
  0
LINE
  5
10C
330
1D
100
AcDbEntity
  8
1
  6
Continuous
370
    25
100
AcDbLine
 10
81.097476184
 20
2.050712006
 30
0.0
 11
71.639746428
 21
18.431982025
 31
0.0
  0
LINE
  5
10D
330
1D
100
AcDbEntity
  8
1
  6
Continuous
370
    25
100
AcDbLine
 10
49.699999392
 20
-29.830219224
 30
0.0
 11
49.649998546
 21
-29.78739515
 31
0.0
  0
LINE
  5
10E
330
1D
100
AcDbEntity
  8
1
  6
Continuous
370
    25
100
AcDbLine
 10
49.649998546
 20
29.788289219
 30
0.0
 11
49.699999392
 21
29.831113294
 31
0.0
  0
ARC
  5
10F
330
1D
100
AcDbEntity
  8
1
  6
Continuous
370
    25
100
AcDbCircle
 10
85.405603387
 20
-47.242110024
 30
0.0
 40
0.802992964
100
AcDbArc
 50
260.252022024
 51
359.183762591
  0
LINE
  5
110
330
1D
100
AcDbEntity
  8
1
  6
Continuous
370
    25
100
AcDbLine
 10
83.825320006
 20
-2.674057381
 30
0.0
 11
83.825320006
 21
-19.499553368
 31
0.0
  0
ARC
  5
111
330
1D
100
AcDbEntity
  8
1
  6
Continuous
370
    25
100
AcDbCircle
 10
172.031164091
 20
-19.499552965
 30
0.0
 40
88.205840414
100
AcDbArc
 50
180.0
 51
185.344722231
  0
ARC
  5
112
330
1D
100
AcDbEntity
  8
1
  6
Continuous
370
    25
100
AcDbCircle
 10
98.590907451
 20
-26.370144457
 30
0.0
 40
14.444900054
100
AcDbArc
 50
185.345024151
 51
192.606993773
  0
ARC
  5
113
330
1D
100
AcDbEntity
  8
1
  6
Continuous
370
    25
100
AcDbCircle
 10
88.468366217
 20
-28.63409787
 30
0.0
 40
4.072276178
100
AcDbArc
 50
192.606993773
 51
207.00288411
  0
ARC
  5
114
330
1D
100
AcDbEntity
  8
1
  6
Continuous
370
    25
100
AcDbCircle
 10
84.989353083
 20
-30.40696505
 30
0.0
 40
0.167587915
100
AcDbArc
 50
207.002623801
 51
270.0
  0
ARC
  5
115
330
1D
100
AcDbEntity
  8
1
  6
Continuous
370
    25
100
AcDbCircle
 10
84.989353083
 20
-30.40696505
 30
0.0
 40
0.167587915
100
AcDbArc
 50
270.0
 51
332.997376199
  0
ARC
  5
116
330
1D
100
AcDbEntity
  8
1
  6
Continuous
370
    25
100
AcDbCircle
 10
81.510339949
 20
-28.63409787
 30
0.0
 40
4.072276178
100
AcDbArc
 50
332.9971158899999
 51
347.393006227
  0
ARC
  5
117
330
1D
100
AcDbEntity
  8
1
  6
Continuous
370
    25
100
AcDbCircle
 10
71.387798715
 20
-26.370144457
 30
0.0
 40
14.444900054
100
AcDbArc
 50
347.393006227
 51
354.654975849
  0
ARC
  5
118
330
1D
100
AcDbEntity
  8
1
  6
Continuous
370
    25
100
AcDbCircle
 10
-2.052457925
 20
-19.499552965
 30
0.0
 40
88.205840414
100
AcDbArc
 50
354.655277769
 51
0.0
  0
LINE
  5
119
330
1D
100
AcDbEntity
  8
1
  6
Continuous
370
    25
100
AcDbLine
 10
86.153380573
 20
-19.499553368
 30
0.0
 11
86.153380573
 21
-6.706373301
 31
0.0
  0
LINE
  5
11A
330
1D
100
AcDbEntity
  8
1
  6
Continuous
370
    25
100
AcDbLine
 10
86.153380573
 20
-6.706373301
 30
0.0
 11
86.649999023
 21
-7.566540036
 31
0.0
  0
LINE
  5
11B
330
1D
100
AcDbEntity
  8
1
  6
Continuous
370
    25
100
AcDbLine
 10
86.649999023
 20
-7.566540036
 30
0.0
 11
86.649999023
 21
-36.264527589
 31
0.0
  0
LINE
  5
11C
330
1D
100
AcDbEntity
  8
1
  6
Continuous
370
    25
100
AcDbLine
 10
86.649999023
 20
-36.264527589
 30
0.0
 11
86.492344737
 21
-36.410152912
 31
0.0
  0
LINE
  5
11D
330
1D
100
AcDbEntity
  8
1
  6
Continuous
370
    25
100
AcDbLine
 10
86.208559573
 20
-36.359857768
 30
0.0
 11
86.492344737
 21
-36.410152912
 31
0.0
  0
LINE
  5
11E
330
1D
100
AcDbEntity
  8
1
  6
Continuous
370
    25
100
AcDbLine
 10
86.208559573
 20
-47.245107591
 30
0.0
 11
86.208559573
 21
-36.359857768
 31
0.0
  0
LINE
  5
11F
330
1D
100
AcDbEntity
  8
1
  6
Continuous
370
    25
100
AcDbLine
 10
86.208559573
 20
-47.245107591
 30
0.0
 11
86.208514869
 21
-47.253549099
 31
0.0
  0
LINE
  5
120
330
1D
100
AcDbEntity
  8
1
  6
Continuous
370
    25
100
AcDbLine
 10
83.097480238
 20
-1.413389691
 30
0.0
 11
83.825320006
 21
-2.674057381
 31
0.0
  0
LINE
  5
121
330
1D
100
AcDbEntity
  8
1
  6
Continuous
370
    25
100
AcDbLine
 10
49.649998546
 20
-29.78739515
 30
0.0
 11
49.601845443
 21
-29.750479385
 31
0.0
  0
LINE
  5
122
330
1D
100
AcDbEntity
  8
1
  6
Continuous
370
    25
100
AcDbLine
 10
49.601845443
 20
-29.750479385
 30
0.0
 11
49.528177828
 21
-29.715131968
 31
0.0
  0
LINE
  5
123
330
1D
100
AcDbEntity
  8
1
  6
Continuous
370
    25
100
AcDbLine
 10
49.528177828
 20
-29.715131968
 30
0.0
 11
49.479532987
 21
-29.713688418
 31
0.0
  0
LINE
  5
124
330
1D
100
AcDbEntity
  8
1
  6
Continuous
370
    25
100
AcDbLine
 10
49.479532987
 20
-29.713688418
 30
0.0
 11
49.442920834
 21
-29.734993354
 31
0.0
  0
LINE
  5
125
330
1D
100
AcDbEntity
  8
1
  6
Continuous
370
    25
100
AcDbLine
 10
49.442920834
 20
-29.734993354
 30
0.0
 11
49.411233515
 21
-29.796488583
 31
0.0
  0
LINE
  5
126
330
1D
100
AcDbEntity
  8
1
  6
Continuous
370
    25
100
AcDbLine
 10
49.411233515
 20
-29.796488583
 30
0.0
 11
49.400001764
 21
-29.897185043
 31
0.0
  0
LINE
  5
127
330
1D
100
AcDbEntity
  8
1
  6
Continuous
370
    25
100
AcDbLine
 10
49.649998546
 20
-31.221512705
 30
0.0
 11
49.699999392
 21
-31.323257834
 31
0.0
  0
ARC
  5
128
330
1D
100
AcDbEntity
  8
1
  6
Continuous
370
    25
100
AcDbCircle
 10
51.513305117
 20
-30.205616924
 30
0.0
 40
2.122252487
100
AcDbArc
 50
185.26359344
 51
208.599716958
  0
LINE
  5
129
330
1D
100
AcDbEntity
  8
1
  6
Continuous
370
    25
100
AcDbLine
 10
49.400001764
 20
29.898079112
 30
0.0
 11
49.411013723
 21
29.798196629
 31
0.0
  0
LINE
  5
12A
330
1D
100
AcDbEntity
  8
1
  6
Continuous
370
    25
100
AcDbLine
 10
49.411013723
 20
29.798196629
 30
0.0
 11
49.43741113
 21
29.74211052
 31
0.0
  0
LINE
  5
12B
330
1D
100
AcDbEntity
  8
1
  6
Continuous
370
    25
100
AcDbLine
 10
49.43741113
 20
29.74211052
 30
0.0
 11
49.476649612
 21
29.715349898
 31
0.0
  0
LINE
  5
12C
330
1D
100
AcDbEntity
  8
1
  6
Continuous
370
    25
100
AcDbLine
 10
49.476649612
 20
29.715349898
 30
0.0
 11
49.531452358
 21
29.716890305
 31
0.0
  0
LINE
  5
12D
330
1D
100
AcDbEntity
  8
1
  6
Continuous
370
    25
100
AcDbLine
 10
49.531452358
 20
29.716890305
 30
0.0
 11
49.586784095
 21
29.741801321
 31
0.0
  0
LINE
  5
12E
330
1D
100
AcDbEntity
  8
1
  6
Continuous
370
    25
100
AcDbLine
 10
49.586784095
 20
29.741801321
 30
0.0
 11
49.649998546
 21
29.788289219
 31
0.0
  0
LINE
  5
12F
330
1D
100
AcDbEntity
  8
1
  6
Continuous
370
    25
100
AcDbLine
 10
49.649998546
 20
31.222406775
 30
0.0
 11
49.443162978
 21
30.681785196
 31
0.0
  0
LINE
  5
130
330
1D
100
AcDbEntity
  8
1
  6
Continuous
370
    25
100
AcDbLine
 10
49.443162978
 20
30.681785196
 30
0.0
 11
49.400001764
 21
30.401201919
 31
0.0
  0
LINE
  5
131
330
1D
100
AcDbEntity
  8
1
  6
Continuous
370
    25
100
AcDbLine
 10
49.699999392
 20
31.324151903
 30
0.0
 11
49.649998546
 21
31.222406775
 31
0.0
  0
LINE
  5
132
330
1D
100
AcDbEntity
  8
1
  6
Continuous
370
    25
100
AcDbLine
 10
49.699999392
 20
-35.470232368
 30
0.0
 11
49.649998546
 21
-35.429336131
 31
0.0
  0
LINE
  5
133
330
1D
100
AcDbEntity
  8
1
  6
Continuous
370
    25
100
AcDbLine
 10
49.649998546
 20
35.4302302
 30
0.0
 11
49.699999392
 21
35.471126437
 31
0.0
  0
LINE
  5
134
330
1D
100
AcDbEntity
  8
1
  6
Continuous
370
    25
100
AcDbLine
 10
49.400001764
 20
35.449374467
 30
0.0
 11
49.406029284
 21
35.397388041
 31
0.0
  0
LINE
  5
135
330
1D
100
AcDbEntity
  8
1
  6
Continuous
370
    25
100
AcDbLine
 10
49.406029284
 20
35.397388041
 30
0.0
 11
49.433659762
 21
35.352706909
 31
0.0
  0
LINE
  5
136
330
1D
100
AcDbEntity
  8
1
  6
Continuous
370
    25
100
AcDbLine
 10
49.433659762
 20
35.352706909
 30
0.0
 11
49.476716668
 21
35.340592265
 31
0.0
  0
LINE
  5
137
330
1D
100
AcDbEntity
  8
1
  6
Continuous
370
    25
100
AcDbLine
 10
49.476716668
 20
35.340592265
 30
0.0
 11
49.535140395
 21
35.355657339
 31
0.0
  0
LINE
  5
138
330
1D
100
AcDbEntity
  8
1
  6
Continuous
370
    25
100
AcDbLine
 10
49.535140395
 20
35.355657339
 30
0.0
 11
49.618661404
 21
35.405833274
 31
0.0
  0
LINE
  5
139
330
1D
100
AcDbEntity
  8
1
  6
Continuous
370
    25
100
AcDbLine
 10
49.618661404
 20
35.405833274
 30
0.0
 11
49.649998546
 21
35.4302302
 31
0.0
  0
ARC
  5
13A
330
1D
100
AcDbEntity
  8
1
  6
Continuous
370
    25
100
AcDbCircle
 10
50.679640118
 20
35.653012019
 30
0.0
 40
1.287799417
100
AcDbArc
 50
143.085785079
 51
173.546184618
  0
LINE
  5
13B
330
1D
100
AcDbEntity
  8
1
  6
Continuous
370
    25
100
AcDbLine
 10
49.699999392
 20
36.508992314
 30
0.0
 11
49.649998546
 21
36.42648831
 31
0.0
  0
LINE
  5
13C
330
1D
100
AcDbEntity
  8
1
  6
Continuous
370
    25
100
AcDbLine
 10
49.649998546
 20
-35.429336131
 30
0.0
 11
49.584694207
 21
-35.381589085
 31
0.0
  0
LINE
  5
13D
330
1D
100
AcDbEntity
  8
1
  6
Continuous
370
    25
100
AcDbLine
 10
49.584694207
 20
-35.381589085
 30
0.0
 11
49.511764199
 21
-35.346016288
 31
0.0
  0
LINE
  5
13E
330
1D
100
AcDbEntity
  8
1
  6
Continuous
370
    25
100
AcDbLine
 10
49.511764199
 20
-35.346016288
 30
0.0
 11
49.45236072
 21
-35.342577845
 31
0.0
  0
LINE
  5
13F
330
1D
100
AcDbEntity
  8
1
  6
Continuous
370
    25
100
AcDbLine
 10
49.45236072
 20
-35.342577845
 30
0.0
 11
49.419134855
 21
-35.367019475
 31
0.0
  0
LINE
  5
140
330
1D
100
AcDbEntity
  8
1
  6
Continuous
370
    25
100
AcDbLine
 10
49.419134855
 20
-35.367019475
 30
0.0
 11
49.400374293
 21
-35.434111953
 31
0.0
  0
LINE
  5
141
330
1D
100
AcDbEntity
  8
1
  6
Continuous
370
    25
100
AcDbLine
 10
49.400374293
 20
-35.434111953
 30
0.0
 11
49.400001764
 21
-35.448480398
 31
0.0
  0
LINE
  5
142
330
1D
100
AcDbEntity
  8
1
  6
Continuous
370
    25
100
AcDbLine
 10
49.649998546
 20
-36.425594241
 30
0.0
 11
49.699999392
 21
-36.508098245
 31
0.0
  0
ARC
  5
143
330
1D
100
AcDbEntity
  8
1
  6
Continuous
370
    25
100
AcDbCircle
 10
50.889608715
 20
-35.568629144
 30
0.0
 40
1.506991223
100
AcDbArc
 50
188.711218677
 51
214.656811626
  0
LINE
  5
144
330
1D
100
AcDbEntity
  8
1
  6
Continuous
370
    25
100
AcDbLine
 10
49.699999392
 20
-39.426315576
 30
0.0
 11
49.649998546
 21
-39.385132492
 31
0.0
  0
LINE
  5
145
330
1D
100
AcDbEntity
  8
1
  6
Continuous
370
    25
100
AcDbLine
 10
49.649998546
 20
37.450447678
 30
0.0
 11
49.699999392
 21
37.500448525
 31
0.0
  0
LINE
  5
146
330
1D
100
AcDbEntity
  8
1
  6
Continuous
370
    25
100
AcDbLine
 10
52.183076739
 20
37.500448525
 30
0.0
 11
49.699999392
 21
37.500448525
 31
0.0
  0
LINE
  5
147
330
1D
100
AcDbEntity
  8
1
  6
Continuous
370
    25
100
AcDbLine
 10
49.649998546
 20
-39.385132492
 30
0.0
 11
49.56990853
 21
-39.325322956
 31
0.0
  0
LINE
  5
148
330
1D
100
AcDbEntity
  8
1
  6
Continuous
370
    25
100
AcDbLine
 10
49.56990853
 20
-39.325322956
 30
0.0
 11
49.492973834
 21
-39.284288883
 31
0.0
  0
LINE
  5
149
330
1D
100
AcDbEntity
  8
1
  6
Continuous
370
    25
100
AcDbLine
 10
49.492973834
 20
-39.284288883
 30
0.0
 11
49.434605986
 21
-39.276584983
 31
0.0
  0
LINE
  5
14A
330
1D
100
AcDbEntity
  8
1
  6
Continuous
370
    25
100
AcDbLine
 10
49.434605986
 20
-39.276584983
 30
0.0
 11
49.406893551
 21
-39.299432188
 31
0.0
  0
LINE
  5
14B
330
1D
100
AcDbEntity
  8
1
  6
Continuous
370
    25
100
AcDbLine
 10
49.406893551
 20
-39.299432188
 30
0.0
 11
49.400001764
 21
-39.336360991
 31
0.0
  0
LINE
  5
14C
330
1D
100
AcDbEntity
  8
1
  6
Continuous
370
    25
100
AcDbLine
 10
49.649998546
 20
-40.085740388
 30
0.0
 11
49.699999392
 21
-40.15641287
 31
0.0
  0
ARC
  5
14D
330
1D
100
AcDbEntity
  8
1
  6
Continuous
370
    25
100
AcDbCircle
 10
50.463517887
 20
-39.368528833
 30
0.0
 40
1.084530374
100
AcDbArc
 50
191.297373701
 51
221.399911966
  0
LINE
  5
14E
330
1D
100
AcDbEntity
  8
1
  6
Continuous
370
    25
100
AcDbLine
 10
49.400001764
 20
37.200447172
 30
0.0
 11
49.400001764
 21
-44.613633305
 31
0.0
  0
LINE
  5
14F
330
1D
100
AcDbEntity
  8
1
  6
Continuous
370
    25
100
AcDbLine
 10
49.400001764
 20
37.200447172
 30
0.0
 11
49.407597631
 21
37.208043039
 31
0.0
  0
LINE
  5
150
330
1D
100
AcDbEntity
  8
1
  6
Continuous
370
    25
100
AcDbLine
 10
49.407597631
 20
37.208043039
 30
0.0
 11
49.430154264
 21
37.230599671
 31
0.0
  0
LINE
  5
151
330
1D
100
AcDbEntity
  8
1
  6
Continuous
370
    25
100
AcDbLine
 10
49.430154264
 20
37.230599671
 30
0.0
 11
49.466986209
 21
37.267435342
 31
0.0
  0
LINE
  5
152
330
1D
100
AcDbEntity
  8
1
  6
Continuous
370
    25
100
AcDbLine
 10
49.466986209
 20
37.267435342
 30
0.0
 11
49.516979605
 21
37.317425012
 31
0.0
  0
LINE
  5
153
330
1D
100
AcDbEntity
  8
1
  6
Continuous
370
    25
100
AcDbLine
 10
49.516979605
 20
37.317425012
 30
0.0
 11
49.578607082
 21
37.37905249
 31
0.0
  0
LINE
  5
154
330
1D
100
AcDbEntity
  8
1
  6
Continuous
370
    25
100
AcDbLine
 10
49.578607082
 20
37.37905249
 30
0.0
 11
49.649998546
 21
37.450447678
 31
0.0
  0
LINE
  5
155
330
1D
100
AcDbEntity
  8
1
  6
Continuous
370
    25
100
AcDbLine
 10
49.699999392
 20
-42.175021023
 30
0.0
 11
49.649998546
 21
-42.132411152
 31
0.0
  0
LINE
  5
156
330
1D
100
AcDbEntity
  8
1
  6
Continuous
370
    25
100
AcDbLine
 10
49.649998546
 20
-42.132411152
 30
0.0
 11
49.556534737
 21
-42.058572173
 31
0.0
  0
LINE
  5
157
330
1D
100
AcDbEntity
  8
1
  6
Continuous
370
    25
100
AcDbLine
 10
49.556534737
 20
-42.058572173
 30
0.0
 11
49.477495253
 21
-42.009796947
 31
0.0
  0
LINE
  5
158
330
1D
100
AcDbEntity
  8
1
  6
Continuous
370
    25
100
AcDbLine
 10
49.477495253
 20
-42.009796947
 30
0.0
 11
49.421750009
 21
-41.995063424
 31
0.0
  0
LINE
  5
159
330
1D
100
AcDbEntity
  8
1
  6
Continuous
370
    25
100
AcDbLine
 10
49.421750009
 20
-41.995063424
 30
0.0
 11
49.40116778
 21
-42.013902217
 31
0.0
  0
LINE
  5
15A
330
1D
100
AcDbEntity
  8
1
  6
Continuous
370
    25
100
AcDbLine
 10
49.40116778
 20
-42.013902217
 30
0.0
 11
49.400001764
 21
-42.025048286
 31
0.0
  0
LINE
  5
15B
330
1D
100
AcDbEntity
  8
1
  6
Continuous
370
    25
100
AcDbLine
 10
49.649998546
 20
-42.601764202
 30
0.0
 11
49.699999392
 21
-42.664207518
 31
0.0
  0
ARC
  5
15C
330
1D
100
AcDbEntity
  8
1
  6
Continuous
370
    25
100
AcDbCircle
 10
50.504365037
 20
-41.802408615
 30
0.0
 40
1.170004896
100
AcDbArc
 50
199.283467107
 51
223.094764001
  0
LINE
  5
15D
330
1D
100
AcDbEntity
  8
1
  6
Continuous
370
    25
100
AcDbLine
 10
49.699999392
 20
-43.943502009
 30
0.0
 11
49.649998546
 21
-43.898664415
 31
0.0
  0
LINE
  5
15E
330
1D
100
AcDbEntity
  8
1
  6
Continuous
370
    25
100
AcDbLine
 10
49.649998546
 20
-43.898664415
 30
0.0
 11
49.544006586
 21
-43.808121234
 31
0.0
  0
LINE
  5
15F
330
1D
100
AcDbEntity
  8
1
  6
Continuous
370
    25
100
AcDbLine
 10
49.544006586
 20
-43.808121234
 30
0.0
 11
49.464315176
 21
-43.749589473
 31
0.0
  0
LINE
  5
160
330
1D
100
AcDbEntity
  8
1
  6
Continuous
370
    25
100
AcDbLine
 10
49.464315176
 20
-43.749589473
 30
0.0
 11
49.418289214
 21
-43.726481497
 31
0.0
  0
LINE
  5
161
330
1D
100
AcDbEntity
  8
1
  6
Continuous
370
    25
100
AcDbLine
 10
49.418289214
 20
-43.726481497
 30
0.0
 11
49.400158227
 21
-43.733768165
 31
0.0
  0
LINE
  5
162
330
1D
100
AcDbEntity
  8
1
  6
Continuous
370
    25
100
AcDbLine
 10
49.400158227
 20
-43.733768165
 30
0.0
 11
49.400001764
 21
-43.736267835
 31
0.0
  0
LINE
  5
163
330
1D
100
AcDbEntity
  8
1
  6
Continuous
370
    25
100
AcDbLine
 10
49.649998546
 20
-44.169612229
 30
0.0
 11
49.699999392
 21
-44.225927442
 31
0.0
  0
ARC
  5
164
330
1D
100
AcDbEntity
  8
1
  6
Continuous
370
    25
100
AcDbCircle
 10
50.436465697
 20
-43.327740737
 30
0.0
 40
1.1520756
100
AcDbArc
 50
205.888001052
 51
226.948741297
  0
LINE
  5
165
330
1D
100
AcDbEntity
  8
1
  6
Continuous
370
    25
100
AcDbLine
 10
49.699999392
 20
-44.847868383
 30
0.0
 11
49.649998546
 21
-44.800069183
 31
0.0
  0
LINE
  5
166
330
1D
100
AcDbEntity
  8
1
  6
Continuous
370
    25
100
AcDbLine
 10
83.825320006
 20
-2.674057381
 30
0.0
 11
86.153380573
 21
-6.706373301
 31
0.0
  0
ARC
  5
167
330
1D
100
AcDbEntity
  8
1
  6
Continuous
370
    25
100
AcDbCircle
 10
85.407238579
 20
-47.246895249
 30
0.0
 40
0.801322988
100
AcDbArc
 50
260.340969841
 51
0.127820306
  0
ARC
  5
168
330
1D
100
AcDbEntity
  8
1
  6
Continuous
370
    25
100
AcDbCircle
 10
48.831704466
 20
-45.488801345
 30
0.0
 40
1.069559345
100
AcDbArc
 50
40.08625498399999
 51
57.90411145099999
  0
LINE
  5
169
330
1D
100
AcDbEntity
  8
1
  6
Continuous
370
    25
100
AcDbLine
 10
49.649998546
 20
-44.888753444
 30
0.0
 11
49.699999392
 21
-44.940311462
 31
0.0
  0
ARC
  5
16A
330
1D
100
AcDbEntity
  8
1
  6
Continuous
370
    25
100
AcDbCircle
 10
51.165529144
 20
-43.260473835
 30
0.0
 40
2.224438689
100
AcDbArc
 50
217.467767548
 51
227.053964608
  0
LINE
  5
16B
330
1D
100
AcDbEntity
  8
1
  6
Continuous
370
    25
100
AcDbLine
 10
66.906906664
 20
45.000001788
 30
0.0
 11
53.356334567
 21
45.000001788
 31
0.0
  0
LINE
  5
16C
330
1D
100
AcDbEntity
  8
1
  6
Continuous
370
    25
100
AcDbLine
 10
74.305988848
 20
46.304672956
 30
0.0
 11
66.906906664
 21
45.000001788
 31
0.0
  0
LINE
  5
16D
330
1D
100
AcDbEntity
  8
1
  6
Continuous
370
    25
100
AcDbLine
 10
73.31328094
 20
36.887537688
 30
0.0
 11
74.299998582
 21
38.063462824
 31
0.0
  0
ARC
  5
16E
330
1D
100
AcDbEntity
  8
1
  6
Continuous
370
    25
100
AcDbCircle
 10
75.305
 20
35.216291642
 30
0.0
 40
2.6
100
AcDbArc
 50
140.0
 51
320.0
  0
LINE
  5
16F
330
1D
100
AcDbEntity
  8
1
  6
Continuous
370
    25
100
AcDbLine
 10
78.283429146
 20
34.72096473
 30
0.0
 11
77.296718955
 21
33.545043319
 31
0.0
  0
LINE
  5
170
330
1D
100
AcDbEntity
  8
1
  6
Continuous
370
    25
100
AcDbLine
 10
86.649999023
 20
36.265421659
 30
0.0
 11
86.645275354
 21
36.264583468
 31
0.0
  0
LINE
  5
171
330
1D
100
AcDbEntity
  8
1
  6
Continuous
370
    25
100
AcDbLine
 10
86.649999023
 20
7.567434106
 30
0.0
 11
86.649999023
 21
36.265421659
 31
0.0
  0
LINE
  5
172
330
1D
100
AcDbEntity
  8
1
  6
Continuous
370
    25
100
AcDbLine
 10
82.281194627
 20
0.000447035
 30
0.0
 11
86.649999023
 21
7.567434106
 31
0.0
  0
ARC
  5
174
330
1D
100
AcDbEntity
  8
1
  6
Continuous
370
    25
100
AcDbCircle
 10
52.895759111
 20
90.287284737
 30
0.0
 40
45.289624934
100
AcDbArc
 50
270.319206973
 51
270.582682782
  0
LINE
  5
175
330
1D
100
AcDbEntity
  8
1
  6
Continuous
370
    25
100
AcDbLine
 10
49.849998206
 20
44.889647514
 30
0.0
 11
49.899999052
 21
44.941205531
 31
0.0
  0
ARC
  5
176
330
1D
100
AcDbEntity
  8
1
  6
Continuous
370
    25
100
AcDbCircle
 10
53.898076211
 20
-86.557101777
 30
0.0
 40
131.557603295
100
AcDbArc
 50
90.326640698
 51
91.74148512800001
  0
LINE
  5
177
330
1D
100
AcDbEntity
  8
1
  6
Continuous
370
    25
100
AcDbLine
 10
49.600001425
 20
37.400446832
 30
0.0
 11
49.600001425
 21
44.614527374
 31
0.0
  0
ARC
  5
178
330
1D
100
AcDbEntity
  8
1
  6
Continuous
370
    25
100
AcDbCircle
 10
51.365528805
 20
43.261367905
 30
0.0
 40
2.224438689
100
AcDbArc
 50
132.946035392
 51
142.532232452
  0
ARC
  5
17A
330
1D
100
AcDbEntity
  8
CUT
100
AcDbCircle
 10
75.1
 20
46.243217548
 30
0.0
 40
0.8
100
AcDbArc
 50
100.0
 51
180.0
  0
LINE
  5
17B
330
1D
100
AcDbEntity
  8
CUT
100
AcDbLine
 10
86.06108278
 20
48.988293856
 30
0.0
 11
74.961081147
 21
47.031063586
 31
0.0
  0
ARC
  5
17C
330
1D
100
AcDbEntity
  8
CUT
100
AcDbCircle
 10
86.2
 20
48.200447034
 30
0.0
 40
0.8
100
AcDbArc
 50
0.0
 51
100.0
  0
LINE
  5
17D
330
1D
100
AcDbEntity
  8
CUT
100
AcDbLine
 10
86.999997497
 20
36.929212511
 30
0.0
 11
86.999997497
 21
48.200447112
 31
0.0
  0
ARC
  5
17E
330
1D
100
AcDbEntity
  8
CUT
100
AcDbCircle
 10
86.2
 20
36.929211642
 30
0.0
 40
0.8
100
AcDbArc
 50
280.0
 51
0.0
  0
ARC
  5
180
330
1D
100
AcDbEntity
  8
CUT
100
AcDbCircle
 10
75.1
 20
34.971982156
 30
0.0
 40
0.8
100
AcDbArc
 50
180.0
 51
280.0
  0
ARC
  5
181
330
1D
100
AcDbEntity
  8
CUT
100
AcDbCircle
 10
86.2
 20
-48.199552964
 30
0.0
 40
0.8
100
AcDbArc
 50
260.0
 51
0.0
  0
ARC
  5
182
330
1D
100
AcDbEntity
  8
CUT
100
AcDbCircle
 10
86.2
 20
-48.199552964
 30
0.0
 40
0.21554549
100
AcDbArc
 50
260.0
 51
0.0
  0
ARC
  5
183
330
1D
100
AcDbEntity
  8
CUT
100
AcDbCircle
 10
86.2
 20
-36.928317572
 30
0.0
 40
0.8
100
AcDbArc
 50
0.0
 51
55.898251634
  0
ARC
  5
184
330
1D
100
AcDbEntity
  8
CUT
100
AcDbCircle
 10
86.2
 20
-36.928317572
 30
0.0
 40
0.21554549
100
AcDbArc
 50
0.0
 51
80.0
  0
LINE
  5
185
330
1D
100
AcDbEntity
  8
CUT
100
AcDbLine
 10
86.999997497
 20
-36.928318441
 30
0.0
 11
86.999997497
 21
-48.199553043
 31
0.0
  0
LINE
  5
186
330
1D
100
AcDbEntity
  8
CUT
100
AcDbLine
 10
86.415544152
 20
-48.199553043
 30
0.0
 11
86.415544152
 21
-36.928318441
 31
0.0
  0
LINE
  5
187
330
1D
100
AcDbEntity
  8
CUT
100
AcDbLine
 10
86.237430573
 20
-36.716047675
 30
0.0
 11
86.208559573
 21
-36.710955203
 31
0.0
  0
LINE
  5
188
330
1D
100
AcDbEntity
  8
CUT
100
AcDbLine
 10
75.062572956
 20
-46.454593539
 30
0.0
 11
86.162574589
 21
-48.411823809
 31
0.0
  0
ARC
  5
189
330
1D
100
AcDbEntity
  8
CUT
100
AcDbCircle
 10
75.1
 20
-46.242323478
 30
0.0
 40
0.21554549
100
AcDbArc
 50
180.0
 51
260.0
  0
LINE
  5
18A
330
1D
100
AcDbEntity
  8
1
  6
Continuous
370
    25
100
AcDbLine
 10
74.884451926
 20
-46.197149903
 30
0.0
 11
74.884451926
 21
-46.242322773
 31
0.0
  0
LINE
  5
18B
330
1D
100
AcDbEntity
  8
CUT
100
AcDbLine
 10
86.06108278
 20
-48.987399787
 30
0.0
 11
74.961081147
 21
-47.030169517
 31
0.0
  0
ARC
  5
18C
330
1D
100
AcDbEntity
  8
CUT
100
AcDbCircle
 10
75.1
 20
-46.242323478
 30
0.0
 40
0.8
100
AcDbArc
 50
184.429224501
 51
260.0
  0
ARC
  5
18D
330
1D
100
AcDbEntity
  8
1
  6
Continuous
370
    25
100
AcDbCircle
 10
79.010737576
 20
40.521214595
 30
0.0
 40
0.3
100
AcDbArc
 50
210.0
 51
296.615838194
  0
ARC
  5
18E
330
1D
100
AcDbEntity
  8
1
  6
Continuous
370
    25
100
AcDbCircle
 10
79.458743816
 20
39.627184165
 30
0.0
 40
0.7
100
AcDbArc
 50
3.384161806
 51
116.615838194
  0
ARC
  5
18F
330
1D
100
AcDbEntity
  8
1
  6
Continuous
370
    25
100
AcDbCircle
 10
80.457
 20
39.686214595
 30
0.0
 40
0.3
100
AcDbArc
 50
183.384161806
 51
270.0
  0
ARC
  5
190
330
1D
100
AcDbEntity
  8
1
  6
Continuous
370
    25
100
AcDbCircle
 10
80.457
 20
39.686214595
 30
0.0
 40
0.3
100
AcDbArc
 50
270.0
 51
356.615838194
  0
ARC
  5
191
330
1D
100
AcDbEntity
  8
1
  6
Continuous
370
    25
100
AcDbCircle
 10
81.455256184
 20
39.627184165
 30
0.0
 40
0.7
100
AcDbArc
 50
63.384161806
 51
176.615838194
  0
ARC
  5
192
330
1D
100
AcDbEntity
  8
1
  6
Continuous
370
    25
100
AcDbCircle
 10
81.903262424
 20
40.521214595
 30
0.0
 40
0.3
100
AcDbArc
 50
243.384161806
 51
330.0
  0
ARC
  5
193
330
1D
100
AcDbEntity
  8
1
  6
Continuous
370
    25
100
AcDbCircle
 10
79.010737576
 20
42.191214595
 30
0.0
 40
0.3
100
AcDbArc
 50
150.0
 51
236.615838194
  0
ARC
  5
194
330
1D
100
AcDbEntity
  8
1
  6
Continuous
370
    25
100
AcDbCircle
 10
78.460487633
 20
41.356214595
 30
0.0
 40
0.7
100
AcDbArc
 50
303.384161806
 51
56.615838194
  0
ARC
  5
195
330
1D
100
AcDbEntity
  8
1
  6
Continuous
370
    25
100
AcDbCircle
 10
79.010737576
 20
40.521214595
 30
0.0
 40
0.3
100
AcDbArc
 50
123.384161806
 51
210.0
  0
ARC
  5
196
330
1D
100
AcDbEntity
  8
1
  6
Continuous
370
    25
100
AcDbCircle
 10
82.453512368
 20
41.356214595
 30
0.0
 40
0.7
100
AcDbArc
 50
123.384161806
 51
236.615838194
  0
ARC
  5
197
330
1D
100
AcDbEntity
  8
1
  6
Continuous
370
    25
100
AcDbCircle
 10
81.903262424
 20
42.191214595
 30
0.0
 40
0.3
100
AcDbArc
 50
303.384161806
 51
30.0
  0
ARC
  5
198
330
1D
100
AcDbEntity
  8
1
  6
Continuous
370
    25
100
AcDbCircle
 10
81.903262424
 20
40.521214595
 30
0.0
 40
0.3
100
AcDbArc
 50
330.0
 51
56.615838194
  0
ARC
  5
199
330
1D
100
AcDbEntity
  8
1
  6
Continuous
370
    25
100
AcDbCircle
 10
81.455256184
 20
43.085245024
 30
0.0
 40
0.7
100
AcDbArc
 50
183.384161806
 51
296.615838194
  0
ARC
  5
19A
330
1D
100
AcDbEntity
  8
1
  6
Continuous
370
    25
100
AcDbCircle
 10
80.457
 20
43.026214595
 30
0.0
 40
0.3
100
AcDbArc
 50
3.384161806
 51
90.0
  0
ARC
  5
19B
330
1D
100
AcDbEntity
  8
1
  6
Continuous
370
    25
100
AcDbCircle
 10
81.903262424
 20
42.191214595
 30
0.0
 40
0.3
100
AcDbArc
 50
30.0
 51
116.615838194
  0
ARC
  5
19C
330
1D
100
AcDbEntity
  8
1
  6
Continuous
370
    25
100
AcDbCircle
 10
80.457
 20
43.026214595
 30
0.0
 40
0.3
100
AcDbArc
 50
90.0
 51
176.615838194
  0
ARC
  5
19D
330
1D
100
AcDbEntity
  8
1
  6
Continuous
370
    25
100
AcDbCircle
 10
79.458743816
 20
43.085245024
 30
0.0
 40
0.7
100
AcDbArc
 50
243.384161806
 51
356.615838194
  0
ARC
  5
19E
330
1D
100
AcDbEntity
  8
1
  6
Continuous
370
    25
100
AcDbCircle
 10
79.010737576
 20
42.191214595
 30
0.0
 40
0.3
100
AcDbArc
 50
63.384161806
 51
150.0
  0
LINE
  5
19F
330
1D
100
AcDbEntity
  8
1
  6
Continuous
370
    25
100
AcDbLine
 10
85.269644857
 20
-48.033509404
 30
0.0
 11
85.109516978
 21
-47.83693701
 31
0.0
  0
LINE
  5
1A0
330
1D
100
AcDbEntity
  8
1
  6
Continuous
370
    25
100
AcDbLine
 10
85.109516978
 20
-47.83693701
 30
0.0
 11
84.784582257
 21
-47.279741615
 31
0.0
  0
LINE
  5
1A1
330
1D
100
AcDbEntity
  8
1
  6
Continuous
370
    25
100
AcDbLine
 10
84.784582257
 20
-47.279741615
 30
0.0
 11
84.464110434
 21
-46.516422182
 31
0.0
  0
LINE
  5
1A2
330
1D
100
AcDbEntity
  8
1
  6
Continuous
370
    25
100
AcDbLine
 10
84.464110434
 20
-46.516422182
 30
0.0
 11
84.142670035
 21
-45.524224639
 31
0.0
  0
LINE
  5
1A3
330
1D
100
AcDbEntity
  8
1
  6
Continuous
370
    25
100
AcDbLine
 10
84.142670035
 20
-45.524224639
 30
0.0
 11
83.827778697
 21
-44.319219887
 31
0.0
  0
LINE
  5
1A4
330
1D
100
AcDbEntity
  8
1
  6
Continuous
370
    25
100
AcDbLine
 10
83.827778697
 20
-44.319219887
 30
0.0
 11
83.521530032
 21
-42.910780758
 31
0.0
  0
LINE
  5
1A5
330
1D
100
AcDbEntity
  8
1
  6
Continuous
370
    25
100
AcDbLine
 10
83.521530032
 20
-42.910780758
 30
0.0
 11
83.226002753
 21
-41.308280081
 31
0.0
  0
LINE
  5
1A6
330
1D
100
AcDbEntity
  8
1
  6
Continuous
370
    25
100
AcDbLine
 10
83.226002753
 20
-41.308280081
 30
0.0
 11
82.943275571
 21
-39.521090686
 31
0.0
  0
LINE
  5
1A7
330
1D
100
AcDbEntity
  8
1
  6
Continuous
370
    25
100
AcDbLine
 10
82.943275571
 20
-39.521090686
 30
0.0
 11
82.648210228
 21
-37.348713726
 31
0.0
  0
LINE
  5
1A8
330
1D
100
AcDbEntity
  8
1
  6
Continuous
370
    25
100
AcDbLine
 10
82.648210228
 20
-37.348713726
 30
0.0
 11
82.370102406
 21
-34.966737032
 31
0.0
  0
LINE
  5
1A9
330
1D
100
AcDbEntity
  8
1
  6
Continuous
370
    25
100
AcDbLine
 10
82.370102406
 20
-34.966737032
 30
0.0
 11
82.111254335
 21
-32.394554466
 31
0.0
  0
LINE
  5
1AA
330
1D
100
AcDbEntity
  8
1
  6
Continuous
370
    25
100
AcDbLine
 10
85.272789002
 20
-48.03686589
 30
0.0
 11
85.269644857
 21
-48.033509404
 31
0.0
  0
ARC
  5
1AB
330
1D
100
AcDbEntity
  8
1
  6
Continuous
370
    25
100
AcDbCircle
 10
246.651624272
 20
-16.014382924
 30
0.0
 40
164.372441444
100
AcDbArc
 50
185.719501146
 51
187.095933649
  0
ARC
  5
1AC
330
1D
100
AcDbEntity
  8
1
  6
Continuous
370
    25
100
AcDbCircle
 10
164.915641656
 20
-26.189246893
 30
0.0
 40
82.01322166
100
AcDbArc
 50
187.095933649
 51
192.474884001
  0
ARC
  5
1AD
330
1D
100
AcDbEntity
  8
1
  6
Continuous
370
    25
100
AcDbCircle
 10
97.434118181
 20
-41.118409289
 30
0.0
 40
12.90001091
100
AcDbArc
 50
192.475314839
 51
202.812008309
  0
ARC
  5
1AE
330
1D
100
AcDbEntity
  8
1
  6
Continuous
370
    25
100
AcDbCircle
 10
89.928177817
 20
-44.275467356
 30
0.0
 40
4.757151682
100
AcDbArc
 50
202.812008309
 51
218.681923559
  0
LINE
  5
1AF
330
1D
100
AcDbEntity
  8
CUT
100
AcDbLine
 10
86.415544152
 20
-48.199553043
 30
0.0
 11
86.999997497
 21
-48.199553043
 31
0.0
  0
LINE
  5
1B0
330
1D
100
AcDbEntity
  8
CUT
100
AcDbLine
 10
86.162574589
 20
-48.411823809
 30
0.0
 11
86.06108278
 21
-48.987399787
 31
0.0
  0
LINE
  5
1B1
330
1D
100
AcDbEntity
  8
CUT
100
AcDbLine
 10
86.237430573
 20
-36.716047675
 30
0.0
 11
86.2974599
 21
-36.375612021
 31
0.0
  0
LINE
  5
1B2
330
1D
100
AcDbEntity
  8
CUT
100
AcDbLine
 10
86.415544152
 20
-36.928318441
 30
0.0
 11
86.999997497
 21
-36.928318441
 31
0.0
  0
LINE
  5
1B3
330
1D
100
AcDbEntity
  8
CUT
100
AcDbLine
 10
75.062572956
 20
-46.454593539
 30
0.0
 11
74.961081147
 21
-47.030169517
 31
0.0
  0
LINE
  5
1B4
330
1D
100
AcDbEntity
  8
CUT
100
AcDbLine
 10
74.884451926
 20
-46.242322773
 30
0.0
 11
74.534706771
 21
-46.242322773
 31
0.0
  0
CIRCLE
  5
1B5
330
1D
100
AcDbEntity
  8
1
  6
Continuous
370
    25
100
AcDbCircle
 10
80.457
 20
41.356214595
 30
0.0
 40
3.595641606
  0
LINE
  5
1B6
330
1D
100
AcDbEntity
  8
2
  6
Continuous
370
    25
100
AcDbLine
 10
99.689149094
 20
-48.999552964
 30
0.0
 11
86.2
 21
-48.999552964
 31
0.0
  0
LINE
  5
1B7
330
1D
100
AcDbEntity
  8
2
  6
Continuous
370
    25
100
AcDbLine
 10
97.689149094
 20
-48.999552964
 30
0.0
 11
97.239149094
 21
-45.499552964
 31
0.0
  0
LINE
  5
1B8
330
1D
100
AcDbEntity
  8
2
  6
Continuous
370
    25
100
AcDbLine
 10
97.239149094
 20
-45.499552964
 30
0.0
 11
98.139149094
 21
-45.499552964
 31
0.0
  0
LINE
  5
1B9
330
1D
100
AcDbEntity
  8
2
  6
Continuous
370
    25
100
AcDbLine
 10
98.139149094
 20
-45.499552964
 30
0.0
 11
97.689149094
 21
-48.999552964
 31
0.0
  0
LINE
  5
1BA
330
1D
100
AcDbEntity
  8
2
  6
Continuous
370
    25
100
AcDbLine
 10
99.689149094
 20
49.000447034
 30
0.0
 11
86.2
 21
49.000447034
 31
0.0
  0
LINE
  5
1BB
330
1D
100
AcDbEntity
  8
2
  6
Continuous
370
    25
100
AcDbLine
 10
97.689149094
 20
49.000447034
 30
0.0
 11
98.139149094
 21
45.500447034
 31
0.0
  0
LINE
  5
1BC
330
1D
100
AcDbEntity
  8
2
  6
Continuous
370
    25
100
AcDbLine
 10
98.139149094
 20
45.500447034
 30
0.0
 11
97.239149094
 21
45.500447034
 31
0.0
  0
LINE
  5
1BD
330
1D
100
AcDbEntity
  8
2
  6
Continuous
370
    25
100
AcDbLine
 10
97.239149094
 20
45.500447034
 30
0.0
 11
97.689149094
 21
49.000447034
 31
0.0
  0
LINE
  5
1BE
330
1D
100
AcDbEntity
  8
2
  6
Continuous
370
    25
100
AcDbLine
 10
97.689149094
 20
-45.499552964
 30
0.0
 11
97.689149094
 21
45.500447034
 31
0.0
  0
TEXT
  5
1BF
330
1D
100
AcDbEntity
  8
2
  6
Continuous
370
    25
100
AcDbText
 10
96.189149094
 20
-3.72346031
 30
0.0
 40
3.5
  1
98
 50
90.0
  7
BMG_Text
100
AcDbText
  0
CIRCLE
  5
1C0
330
1D
100
AcDbEntity
  8
2
  6
Continuous
370
    25
100
AcDbCircle
 10
94.939149094
 20
-5.97346031
 30
0.0
 40
1.25
  0
LINE
  5
1C1
330
1D
100
AcDbEntity
  8
2
  6
Continuous
370
    25
100
AcDbLine
 10
96.189149094
 20
-7.22346031
 30
0.0
 11
93.689149094
 21
-4.72346031
 31
0.0
  0
TEXT
  5
1C2
330
1D
100
AcDbEntity
  8
2
  6
Continuous
370
    25
100
AcDbText
 10
96.189149094
 20
0.99653969
 30
0.0
 40
3.5
  1
-153
 50
90.0
  7
BMG_Text
100
AcDbText
  0
LINE
  5
26F
330
1D
100
AcDbEntity
  8
1
100
AcDbLine
 10
78.283429146
 20
34.72096473
 30
0.0
 11
86.33891854213354
 21
36.14136543959023
 31
0.0
  0
LINE
  5
270
330
1D
100
AcDbEntity
  8
1
100
AcDbLine
 10
86.33891854213354
 20
36.14136543959023
 30
0.0
 11
86.649999023
 21
36.14136543959023
 31
0.0
  0
LINE
  5
271
330
1D
100
AcDbEntity
  8
1
100
AcDbLine
 10
74.299998582
 20
38.063462824
 30
0.0
 11
74.299998582
 21
46.24054394765147
 31
0.0
  0
LINE
  5
272
330
1D
100
AcDbEntity
  8
1
100
AcDbLine
 10
74.299998582
 20
46.24054394765147
 30
0.0
 11
74.28921240247034
 21
46.30171478575134
 31
0.0
  0
LINE
  5
274
330
1D
100
AcDbEntity
  8
CUT
100
AcDbLine
 10
75.23891854213353
 20
34.18413595359024
 30
0.0
 11
86.33891854213354
 21
36.14136543959023
 31
0.0
  0
LINE
  5
275
330
1D
100
AcDbEntity
  8
CUT
100
AcDbLine
 10
74.3
 20
34.971982156
 30
0.0
 11
74.3
 21
46.2760878032155
 31
0.0
  0
CIRCLE
  5
276
330
1D
100
AcDbEntity
  8
CUT
100
AcDbCircle
 10
80.457
 20
41.356214595
 30
0.0
 40
3.595641606000001
  0
LINE
  5
278
330
1D
100
AcDbEntity
  8
1
100
AcDbLine
 10
74.305988848
 20
46.304672956
 30
0.0
 11
75.1
 21
46.243217548
 31
0.0
  0
LINE
  5
279
330
1D
100
AcDbEntity
  8
1
100
AcDbLine
 10
75.1
 20
46.243217548
 30
0.0
 11
86.2
 21
48.200447034
 31
0.0
  0
LINE
  5
27A
330
1D
100
AcDbEntity
  8
1
100
AcDbLine
 10
86.2
 20
48.200447034
 30
0.0
 11
86.2
 21
36.929211642
 31
0.0
  0
LINE
  5
27B
330
1D
100
AcDbEntity
  8
1
100
AcDbLine
 10
86.2
 20
36.929211642
 30
0.0
 11
86.645275354
 21
36.264583468
 31
0.0
  0
LINE
  5
280
330
1D
100
AcDbEntity
  8
NOCUT
100
AcDbLine
 10
0.0
 20
0.0
 30
0.0
 11
0.0
 21
44.500000775
 31
0.0
  0
LINE
  5
282
330
1D
100
AcDbEntity
  8
NOCUT
100
AcDbLine
 10
0.0
 20
44.500000775
 30
0.0
 11
0.500000024
 21
45.000001788
 31
0.0
  0
LINE
  5
283
330
1D
100
AcDbEntity
  8
NOCUT
100
AcDbLine
 10
0.500000024
 20
45.000001788
 30
0.0
 11
52.499998361
 21
45.000001788
 31
0.0
  0
LINE
  5
284
330
1D
100
AcDbEntity
  8
NOCUT
100
AcDbLine
 10
52.499998361
 20
45.000001788
 30
0.0
 11
66.906906664
 21
45.000001788
 31
0.0
  0
LINE
  5
285
330
1D
100
AcDbEntity
  8
NOCUT
100
AcDbLine
 10
66.906906664
 20
45.000001788
 30
0.0
 11
74.305988848
 21
46.304672956
 31
0.0
  0
LINE
  5
28D
330
1D
100
AcDbEntity
  8
NOCUT
100
AcDbLine
 10
86.649999023
 20
36.265421659
 30
0.0
 11
86.649999023
 21
7.567434106
 31
0.0
  0
LINE
  5
28E
330
1D
100
AcDbEntity
  8
NOCUT
100
AcDbLine
 10
86.649999023
 20
7.567434106
 30
0.0
 11
82.281194627
 21
0.000447035
 31
0.0
  0
LINE
  5
28F
330
1D
100
AcDbEntity
  8
NOCUT
100
AcDbLine
 10
82.281194627
 20
0.000447035
 30
0.0
 11
0.0616529068746132
 21
0.0004470350000101
 31
0.0
  0
LWPOLYLINE
  5
297
330
1D
100
AcDbEntity
  8
INFTOTAL
100
AcDbPolyline
 90
        4
 70
     1
 43
0.0
 10
-115.3017574082349
 20
88.8706330518129
 10
-115.3017574082349
 20
-80.53315333977191
 10
135.9877467020445
 20
-80.53315333977191
 10
135.9877467020445
 20
88.8706330518129
  0
LINE
  5
29C
330
1D
100
AcDbEntity
  8
NOCUT
100
AcDbLine
 10
86.649999023
 20
36.265421659
 30
0.0
 11
86.645275354
 21
36.264583468
 31
0.0
  0
LINE
  5
29D
330
1D
100
AcDbEntity
  8
NOCUT
100
AcDbLine
 10
86.645275354
 20
36.264583468
 30
0.0
 11
86.2
 21
36.929211642
 31
0.0
  0
LINE
  5
29E
330
1D
100
AcDbEntity
  8
NOCUT
100
AcDbLine
 10
86.2
 20
36.929211642
 30
0.0
 11
86.2
 21
48.200447034
 31
0.0
  0
LINE
  5
29F
330
1D
100
AcDbEntity
  8
NOCUT
100
AcDbLine
 10
86.2
 20
48.200447034
 30
0.0
 11
75.1
 21
46.243217548
 31
0.0
  0
LINE
  5
2A0
330
1D
100
AcDbEntity
  8
NOCUT
100
AcDbLine
 10
75.1
 20
46.243217548
 30
0.0
 11
74.305988848
 21
46.304672956
 31
0.0
  0
LINE
  5
2A2
330
1D
100
AcDbEntity
  8
SK4
100
AcDbLine
 10
0.0
 20
0.0
 30
0.0
 11
-53.449810034
 21
0.0
 31
0.0
  0
LINE
  5
2BD
330
1D
100
AcDbEntity
  8
SK3
100
AcDbLine
 10
-0.0000000000000071
 20
11.00000093004025
 30
0.0
 11
-46.21993573938251
 21
11.00000093004026
 31
0.0
  0
LINE
  5
2BE
330
1D
100
AcDbEntity
  8
SK3
100
AcDbLine
 10
-46.220573077
 20
-11.0
 30
0.0
 11
0.0000000000000071
 21
-11.0
 31
0.0
  0
ENDSEC
  0
SECTION
  2
OBJECTS
  0
DICTIONARY
  5
C
330
0
100
AcDbDictionary
281
     1
  3
ACAD_DETAILVIEWSTYLE
350
28A
  3
ACAD_GROUP
350
D
  3
ACAD_LAYOUT
350
1A
  3
ACAD_MATERIAL
350
201
  3
ACAD_MLEADERSTYLE
350
20F
  3
ACAD_MLINESTYLE
350
17
  3
ACAD_PLOTSETTINGS
350
19
  3
ACAD_PLOTSTYLENAME
350
E
  3
ACAD_SCALELIST
350
1CA
  3
ACAD_SECTIONVIEWSTYLE
350
28B
  3
ACAD_TABLESTYLE
350
258
  3
ACAD_VISUALSTYLE
350
1F0
  3
ACDB_RECOMPOSE_DATA
350
2EE
  3
AcDbVariableDictionary
350
20D
  3
APPDATA
350
25B
  0
SUN
  5
298
330
1C3
100
AcDbSun
 90
        1
290
     0
 63
     7
421
 16777215
 40
1.0
291
     1
 91
  2455826
 92
 54000000
292
     0
 70
     2
 71
   256
280
     1
  0
DICTIONARY
  5
25C
330
2
100
AcDbDictionary
280
     1
281
     1
  3
ACAD_LAYERSTATES
360
25D
  0
DICTIONARY
  5
28A
102
{ACAD_REACTORS
330
C
102
}
330
C
100
AcDbDictionary
281
     1
  0
DICTIONARY
  5
D
102
{ACAD_REACTORS
330
C
102
}
330
C
100
AcDbDictionary
281
     1
  0
DICTIONARY
  5
1A
102
{ACAD_REACTORS
330
C
102
}
330
C
100
AcDbDictionary
281
     1
  3
Layout1
350
1C
  3
Model
350
1E
  0
DICTIONARY
  5
201
102
{ACAD_REACTORS
330
C
102
}
330
C
100
AcDbDictionary
281
     1
  3
ByBlock
350
203
  3
ByLayer
350
202
  3
Global
350
204
  0
DICTIONARY
  5
20F
102
{ACAD_REACTORS
330
C
102
}
330
C
100
AcDbDictionary
281
     1
  3
Standard
350
25A
  0
DICTIONARY
  5
17
102
{ACAD_REACTORS
330
C
102
}
330
C
100
AcDbDictionary
281
     1
  3
Standard
350
18
  0
DICTIONARY
  5
19
102
{ACAD_REACTORS
330
C
102
}
330
C
100
AcDbDictionary
281
     1
  0
ACDBDICTIONARYWDFLT
  5
E
102
{ACAD_REACTORS
330
C
102
}
330
C
100
AcDbDictionary
281
     1
  3
Normal
350
F
100
AcDbDictionaryWithDefault
340
F
  0
DICTIONARY
  5
1CA
102
{ACAD_REACTORS
330
C
102
}
330
C
100
AcDbDictionary
281
     1
  3
A0
350
1CB
  3
A1
350
1CC
  3
A2
350
1CD
  3
A3
350
1CE
  3
A4
350
1CF
  3
A5
350
1D0
  3
A6
350
1D1
  3
A7
350
1D2
  3
A8
350
1D3
  3
A9
350
1D4
  3
B0
350
1D5
  3
B1
350
1D6
  3
B2
350
1D7
  3
B3
350
1D8
  3
B4
350
1D9
  3
B5
350
1DA
  3
B6
350
1DB
  3
B7
350
1DC
  3
B8
350
1DD
  3
B9
350
1DE
  3
C0
350
1DF
  3
C1
350
1E0
  3
C2
350
1E1
  3
C3
350
1E2
  3
C4
350
1E3
  3
C5
350
1E4
  3
C6
350
1E5
  3
C7
350
1E6
  3
C8
350
1E7
  3
C9
350
1E8
  3
D0
350
1E9
  3
D1
350
1EA
  3
D2
350
1EB
  0
DICTIONARY
  5
28B
102
{ACAD_REACTORS
330
C
102
}
330
C
100
AcDbDictionary
281
     1
  0
DICTIONARY
  5
258
102
{ACAD_REACTORS
330
C
102
}
330
C
100
AcDbDictionary
281
     1
  3
Standard
350
259
  0
DICTIONARY
  5
1F0
102
{ACAD_REACTORS
330
C
102
}
330
C
100
AcDbDictionary
281
     1
  3
2dWireframe
350
1F5
  3
3D Hidden
350
1F7
  3
3dWireframe
350
1F6
  3
Basic
350
1F8
  3
Brighten
350
1FC
  3
ColorChange
350
200
  3
Conceptual
350
1FA
  3
Dim
350
1FB
  3
EdgeColorOff
350
252
  3
Facepattern
350
1FF
  3
Flat
350
1F1
  3
FlatWithEdges
350
1F2
  3
Gouraud
350
1F3
  3
GouraudWithEdges
350
1F4
  3
Hidden
350
24F
  3
JitterOff
350
250
  3
Linepattern
350
1FE
  3
OverhangOff
350
251
  3
Realistic
350
1F9
  3
Shaded
350
257
  3
Shaded with edges
350
256
  3
Shades of Gray
350
253
  3
Sketchy
350
254
  3
Thicken
350
1FD
  3
Wireframe
350
24E
  3
X-Ray
350
255
  0
XRECORD
  5
2EE
102
{ACAD_REACTORS
330
C
102
}
330
C
100
AcDbXrecord
280
     1
 90
        1
330
259
  0
DICTIONARY
  5
20D
102
{ACAD_REACTORS
330
C
102
}
330
C
100
AcDbDictionary
281
     1
  3
CANNOSCALE
350
287
  3
CMLEADERSTYLE
350
289
  3
CTABLESTYLE
350
288
  3
DIMASSOC
350
211
  3
HIDETEXT
350
212
  3
MSLTSCALE
350
210
  0
DICTIONARY
  5
25B
102
{ACAD_REACTORS
330
C
102
}
330
C
100
AcDbDictionary
281
     1
  0
DICTIONARY
  5
25D
102
{ACAD_REACTORS
330
25C
102
}
330
25C
100
AcDbDictionary
281
     1
  0
LAYOUT
  5
1C
102
{ACAD_REACTORS
330
1A
102
}
330
1A
100
AcDbPlotSettings
  1

  2
none_device
  4

  6

 40
0.0
 41
0.0
 42
0.0
 43
0.0
 44
0.0
 45
0.0
 46
0.0
 47
0.0
 48
0.0
 49
0.0
140
0.0
141
0.0
142
1.0
143
1.0
 70
   688
 72
     0
 73
     0
 74
     5
  7

 75
    16
 76
     0
 77
     2
 78
   300
147
1.0
148
0.0
149
0.0
100
AcDbLayout
  1
Layout1
 70
     1
 71
     1
 10
0.0
 20
0.0
 11
12.0
 21
9.0
 12
0.0
 22
0.0
 32
0.0
 14
1.000000000000000E+20
 24
1.000000000000000E+20
 34
1.000000000000000E+20
 15
-1.000000000000000E+20
 25
-1.000000000000000E+20
 35
-1.000000000000000E+20
146
0.0
 13
0.0
 23
0.0
 33
0.0
 16
1.0
 26
0.0
 36
0.0
 17
0.0
 27
1.0
 37
0.0
 76
     0
330
1B
  0
LAYOUT
  5
1E
102
{ACAD_REACTORS
330
1A
102
}
330
1A
100
AcDbPlotSettings
  1

  2
none_device
  4

  6

 40
0.0
 41
0.0
 42
0.0
 43
0.0
 44
0.0
 45
0.0
 46
0.0
 47
0.0
 48
0.0
 49
0.0
140
0.0
141
0.0
142
1.0
143
1.0
 70
  1712
 72
     0
 73
     0
 74
     0
  7

 75
     0
 76
     0
 77
     2
 78
   300
147
1.0
148
0.0
149
0.0
100
AcDbLayout
  1
Model
 70
     1
 71
     0
 10
0.0
 20
0.0
 11
12.0
 21
9.0
 12
0.0
 22
0.0
 32
0.0
 14
-115.3017574082349
 24
-80.53315333977191
 34
0.0
 15
135.9877467020445
 25
88.8706330518129
 35
0.0
146
0.0
 13
0.0
 23
0.0
 33
0.0
 16
1.0
 26
0.0
 36
0.0
 17
0.0
 27
1.0
 37
0.0
 76
     0
330
1D
331
1C3
  0
MATERIAL
  5
203
102
{ACAD_REACTORS
330
201
102
}
330
201
100
AcDbMaterial
  1
ByBlock
 72
     1
 94
      127
  0
MATERIAL
  5
202
102
{ACAD_REACTORS
330
201
102
}
330
201
100
AcDbMaterial
  1
ByLayer
 72
     1
 94
      127
  0
MATERIAL
  5
204
102
{ACAD_REACTORS
330
201
102
}
330
201
100
AcDbMaterial
  1
Global
 72
     1
 94
      127
  0
MLEADERSTYLE
  5
25A
102
{ACAD_REACTORS
330
20F
102
}
330
20F
100
AcDbMLeaderStyle
179
     2
170
     2
171
     1
172
     0
 90
        2
 40
0.0
 41
0.0
173
     1
 91
-1056964608
340
14
 92
       -2
290
     1
 42
0.09
291
     1
 43
0.36
  3
Standard
341
0
 44
0.18
300

342
11
174
     1
178
     1
175
     1
176
     0
 93
-1056964608
 45
0.18
292
     0
297
     0
 46
0.18
343
0
 94
-1056964608
 47
1.0
 49
1.0
140
1.0
293
     1
141
0.0
294
     1
177
     0
142
1.0
295
     0
296
     0
143
0.125
271
     0
272
     9
273
     9
298
     0
  0
MLINESTYLE
  5
18
102
{ACAD_REACTORS
330
17
102
}
330
17
100
AcDbMlineStyle
  2
Standard
 70
     0
  3

 62
   256
 51
90.0
 52
90.0
 71
     2
 49
0.5
 62
   256
  6
BYLAYER
 49
-0.5
 62
   256
  6
BYLAYER
  0
ACDBPLACEHOLDER
  5
F
102
{ACAD_REACTORS
330
E
102
}
330
E
  0
SCALE
  5
1CB
102
{ACAD_REACTORS
330
1CA
102
}
330
1CA
100
AcDbScale
 70
     0
300
1:1
140
1.0
141
1.0
290
     1
  0
SCALE
  5
1CC
102
{ACAD_REACTORS
330
1CA
102
}
330
1CA
100
AcDbScale
 70
     0
300
1:2
140
1.0
141
2.0
290
     0
  0
SCALE
  5
1CD
102
{ACAD_REACTORS
330
1CA
102
}
330
1CA
100
AcDbScale
 70
     0
300
1:4
140
1.0
141
4.0
290
     0
  0
SCALE
  5
1CE
102
{ACAD_REACTORS
330
1CA
102
}
330
1CA
100
AcDbScale
 70
     0
300
1:5
140
1.0
141
5.0
290
     0
  0
SCALE
  5
1CF
102
{ACAD_REACTORS
330
1CA
102
}
330
1CA
100
AcDbScale
 70
     0
300
1:8
140
1.0
141
8.0
290
     0
  0
SCALE
  5
1D0
102
{ACAD_REACTORS
330
1CA
102
}
330
1CA
100
AcDbScale
 70
     0
300
1:10
140
1.0
141
10.0
290
     0
  0
SCALE
  5
1D1
102
{ACAD_REACTORS
330
1CA
102
}
330
1CA
100
AcDbScale
 70
     0
300
1:16
140
1.0
141
16.0
290
     0
  0
SCALE
  5
1D2
102
{ACAD_REACTORS
330
1CA
102
}
330
1CA
100
AcDbScale
 70
     0
300
1:20
140
1.0
141
20.0
290
     0
  0
SCALE
  5
1D3
102
{ACAD_REACTORS
330
1CA
102
}
330
1CA
100
AcDbScale
 70
     0
300
1:30
140
1.0
141
30.0
290
     0
  0
SCALE
  5
1D4
102
{ACAD_REACTORS
330
1CA
102
}
330
1CA
100
AcDbScale
 70
     0
300
1:40
140
1.0
141
40.0
290
     0
  0
SCALE
  5
1D5
102
{ACAD_REACTORS
330
1CA
102
}
330
1CA
100
AcDbScale
 70
     0
300
1:50
140
1.0
141
50.0
290
     0
  0
SCALE
  5
1D6
102
{ACAD_REACTORS
330
1CA
102
}
330
1CA
100
AcDbScale
 70
     0
300
1:100
140
1.0
141
100.0
290
     0
  0
SCALE
  5
1D7
102
{ACAD_REACTORS
330
1CA
102
}
330
1CA
100
AcDbScale
 70
     0
300
2:1
140
2.0
141
1.0
290
     0
  0
SCALE
  5
1D8
102
{ACAD_REACTORS
330
1CA
102
}
330
1CA
100
AcDbScale
 70
     0
300
4:1
140
4.0
141
1.0
290
     0
  0
SCALE
  5
1D9
102
{ACAD_REACTORS
330
1CA
102
}
330
1CA
100
AcDbScale
 70
     0
300
8:1
140
8.0
141
1.0
290
     0
  0
SCALE
  5
1DA
102
{ACAD_REACTORS
330
1CA
102
}
330
1CA
100
AcDbScale
 70
     0
300
10:1
140
10.0
141
1.0
290
     0
  0
SCALE
  5
1DB
102
{ACAD_REACTORS
330
1CA
102
}
330
1CA
100
AcDbScale
 70
     0
300
100:1
140
100.0
141
1.0
290
     0
  0
SCALE
  5
1DC
102
{ACAD_REACTORS
330
1CA
102
}
330
1CA
100
AcDbScale
 70
     0
300
1/128" = 1'-0"
140
0.0078125
141
12.0
290
     0
  0
SCALE
  5
1DD
102
{ACAD_REACTORS
330
1CA
102
}
330
1CA
100
AcDbScale
 70
     0
300
1/64" = 1'-0"
140
0.015625
141
12.0
290
     0
  0
SCALE
  5
1DE
102
{ACAD_REACTORS
330
1CA
102
}
330
1CA
100
AcDbScale
 70
     0
300
1/32" = 1'-0"
140
0.03125
141
12.0
290
     0
  0
SCALE
  5
1DF
102
{ACAD_REACTORS
330
1CA
102
}
330
1CA
100
AcDbScale
 70
     0
300
1/16" = 1'-0"
140
0.0625
141
12.0
290
     0
  0
SCALE
  5
1E0
102
{ACAD_REACTORS
330
1CA
102
}
330
1CA
100
AcDbScale
 70
     0
300
3/32" = 1'-0"
140
0.09375
141
12.0
290
     0
  0
SCALE
  5
1E1
102
{ACAD_REACTORS
330
1CA
102
}
330
1CA
100
AcDbScale
 70
     0
300
1/8" = 1'-0"
140
0.125
141
12.0
290
     0
  0
SCALE
  5
1E2
102
{ACAD_REACTORS
330
1CA
102
}
330
1CA
100
AcDbScale
 70
     0
300
3/16" = 1'-0"
140
0.1875
141
12.0
290
     0
  0
SCALE
  5
1E3
102
{ACAD_REACTORS
330
1CA
102
}
330
1CA
100
AcDbScale
 70
     0
300
1/4" = 1'-0"
140
0.25
141
12.0
290
     0
  0
SCALE
  5
1E4
102
{ACAD_REACTORS
330
1CA
102
}
330
1CA
100
AcDbScale
 70
     0
300
3/8" = 1'-0"
140
0.375
141
12.0
290
     0
  0
SCALE
  5
1E5
102
{ACAD_REACTORS
330
1CA
102
}
330
1CA
100
AcDbScale
 70
     0
300
1/2" = 1'-0"
140
0.5
141
12.0
290
     0
  0
SCALE
  5
1E6
102
{ACAD_REACTORS
330
1CA
102
}
330
1CA
100
AcDbScale
 70
     0
300
3/4" = 1'-0"
140
0.75
141
12.0
290
     0
  0
SCALE
  5
1E7
102
{ACAD_REACTORS
330
1CA
102
}
330
1CA
100
AcDbScale
 70
     0
300
1" = 1'-0"
140
1.0
141
12.0
290
     0
  0
SCALE
  5
1E8
102
{ACAD_REACTORS
330
1CA
102
}
330
1CA
100
AcDbScale
 70
     0
300
1-1/2" = 1'-0"
140
1.5
141
12.0
290
     0
  0
SCALE
  5
1E9
102
{ACAD_REACTORS
330
1CA
102
}
330
1CA
100
AcDbScale
 70
     0
300
3" = 1'-0"
140
3.0
141
12.0
290
     0
  0
SCALE
  5
1EA
102
{ACAD_REACTORS
330
1CA
102
}
330
1CA
100
AcDbScale
 70
     0
300
6" = 1'-0"
140
6.0
141
12.0
290
     0
  0
SCALE
  5
1EB
102
{ACAD_REACTORS
330
1CA
102
}
330
1CA
100
AcDbScale
 70
     0
300
1'-0" = 1'-0"
140
12.0
141
12.0
290
     0
  0
TABLESTYLE
  5
259
102
{ACAD_REACTORS
330
258
102
}
102
{ACAD_XDICTIONARY
360
2EC
102
}
330
258
100
AcDbTableStyle
  3
Standard
 70
     0
 71
     0
 40
0.06
 41
0.06
280
     0
281
     0
  7
Standard
140
0.18
170
     2
 62
     0
 63
   257
283
     0
 90
        4
 91
        0
  1

274
    -2
284
     1
 64
     0
275
    -2
285
     1
 65
     0
276
    -2
286
     1
 66
     0
277
    -2
287
     1
 67
     0
278
    -2
288
     1
 68
     0
279
    -2
289
     1
 69
     0
  7
Standard
140
0.25
170
     5
 62
     0
 63
   257
283
     0
 90
        4
 91
        0
  1

274
    -2
284
     1
 64
     0
275
    -2
285
     1
 65
     0
276
    -2
286
     1
 66
     0
277
    -2
287
     1
 67
     0
278
    -2
288
     1
 68
     0
279
    -2
289
     1
 69
     0
  7
Standard
140
0.18
170
     5
 62
     0
 63
   257
283
     0
 90
        4
 91
        0
  1

274
    -2
284
     1
 64
     0
275
    -2
285
     1
 65
     0
276
    -2
286
     1
 66
     0
277
    -2
287
     1
 67
     0
278
    -2
288
     1
 68
     0
279
    -2
289
     1
 69
     0
  0
VISUALSTYLE
  5
1F5
102
{ACAD_REACTORS
330
1F0
102
}
330
1F0
100
AcDbVisualStyle
  2
2dWireframe
 70
     4
177
     3
291
     0
 70
    58
 90
        0
176
     1
 90
        2
176
     1
 90
        0
176
     1
 90
        0
176
     1
 40
-0.6
176
     1
 40
-30.0
176
     1
 62
     7
176
     1
 90
        1
176
     1
 90
        4
176
     1
 62
     7
176
     1
 62
   257
176
     1
 90
        1
176
     1
 90
        1
176
     1
 40
1.0
176
     1
 90
        0
176
     1
 62
   257
176
     1
 40
1.0
176
     1
 90
        1
176
     1
 90
        6
176
     1
 90
        2
176
     1
 62
     7
176
     1
 90
        5
176
     1
 90
        0
176
     1
 90
        0
176
     1
290
     0
176
     1
 90
        1
176
     1
 40
0.0
176
     1
 90
        0
176
     1
290
     1
176
     1
290
     1
176
     1
290
     0
176
     1
290
     0
176
     1
290
     0
176
     1
290
     0
176
     1
290
     0
176
     1
290
     0
176
     1
290
     0
176
     1
 90
       50
176
     1
 40
0.0
176
     1
 40
1.0
176
     1
 90
        0
176
     1
 62
    18
420
        0
176
     1
 90
       50
176
     1
 90
        3
176
     1
 62
     5
420
      255
176
     1
290
     0
176
     1
 90
       50
176
     1
 90
       50
176
     1
 90
       50
176
     1
290
     0
176
     1
 90
       50
176
     1
 62
   256
176
     0
 40
1.0
176
     0
 90
        2
176
     1
  1
strokes_ogs.tif
176
     1
290
     0
176
     1
 40
1.0
176
     1
 40
1.0
176
     1
  0
VISUALSTYLE
  5
1F7
102
{ACAD_REACTORS
330
1F0
102
}
330
1F0
100
AcDbVisualStyle
  2
3D Hidden
 70
     6
177
     3
291
     0
 70
    58
 90
        1
176
     1
 90
        2
176
     1
 90
        2
176
     1
 90
        0
176
     1
 40
-0.6
176
     1
 40
-30.0
176
     1
 62
     7
176
     1
 90
        2
176
     1
 90
        2
176
     1
 62
     7
176
     1
 62
   257
176
     1
 90
        2
176
     1
 90
        1
176
     1
 40
40.0
176
     1
 90
        0
176
     1
 62
   257
176
     1
 40
1.0
176
     1
 90
        1
176
     1
 90
        6
176
     1
 90
        2
176
     1
 62
     7
176
     1
 90
        3
176
     1
 90
        0
176
     1
 90
        0
176
     1
290
     0
176
     1
 90
        1
176
     1
 40
0.0
176
     1
 90
        0
176
     1
290
     0
176
     1
290
     1
176
     1
290
     1
176
     1
290
     0
176
     1
290
     0
176
     1
290
     0
176
     1
290
     0
176
     1
290
     0
176
     1
290
     0
176
     1
 90
       50
176
     1
 40
0.0
176
     1
 40
1.0
176
     1
 90
        0
176
     1
 62
    18
420
        0
176
     1
 90
       50
176
     1
 90
        3
176
     1
 62
     5
420
      255
176
     1
290
     0
176
     1
 90
       50
176
     1
 90
       50
176
     1
 90
       50
176
     1
290
     0
176
     1
 90
       50
176
     1
 62
   256
176
     0
 40
1.0
176
     0
 90
        2
176
     1
  1
strokes_ogs.tif
176
     1
290
     0
176
     1
 40
1.0
176
     1
 40
1.0
176
     1
  0
VISUALSTYLE
  5
1F6
102
{ACAD_REACTORS
330
1F0
102
}
330
1F0
100
AcDbVisualStyle
  2
3dWireframe
 70
     5
177
     3
291
     0
 70
    58
 90
        0
176
     1
 90
        2
176
     1
 90
        0
176
     1
 90
        0
176
     1
 40
-0.6
176
     1
 40
-30.0
176
     1
 62
     7
176
     1
 90
        1
176
     1
 90
        4
176
     1
 62
     7
176
     1
 62
   257
176
     1
 90
        1
176
     1
 90
        1
176
     1
 40
1.0
176
     1
 90
        0
176
     1
 62
   257
176
     1
 40
1.0
176
     1
 90
        1
176
     1
 90
        6
176
     1
 90
        2
176
     1
 62
     7
176
     1
 90
        5
176
     1
 90
        0
176
     1
 90
        0
176
     1
290
     0
176
     1
 90
        1
176
     1
 40
0.0
176
     1
 90
        0
176
     1
290
     0
176
     1
290
     1
176
     1
290
     1
176
     1
290
     0
176
     1
290
     0
176
     1
290
     0
176
     1
290
     0
176
     1
290
     0
176
     1
290
     0
176
     1
 90
       50
176
     1
 40
0.0
176
     1
 40
1.0
176
     1
 90
        0
176
     1
 62
    18
420
        0
176
     1
 90
       50
176
     1
 90
        3
176
     1
 62
     5
420
      255
176
     1
290
     0
176
     1
 90
       50
176
     1
 90
       50
176
     1
 90
       50
176
     1
290
     0
176
     1
 90
       50
176
     1
 62
   256
176
     0
 40
1.0
176
     0
 90
        2
176
     1
  1
strokes_ogs.tif
176
     1
290
     0
176
     1
 40
1.0
176
     1
 40
1.0
176
     1
  0
VISUALSTYLE
  5
1F8
102
{ACAD_REACTORS
330
1F0
102
}
330
1F0
100
AcDbVisualStyle
  2
Basic
 70
     7
177
     3
291
     1
 70
    58
 90
        1
176
     1
 90
        0
176
     1
 90
        1
176
     1
 90
        0
176
     1
 40
-0.6
176
     1
 40
-30.0
176
     1
 62
     7
176
     1
 90
        0
176
     1
 90
        4
176
     1
 62
     7
176
     1
 62
   257
176
     1
 90
        1
176
     1
 90
        1
176
     1
 40
1.0
176
     1
 90
        8
176
     1
 62
     7
176
     1
 40
1.0
176
     1
 90
        1
176
     1
 90
        6
176
     1
 90
        2
176
     1
 62
     7
176
     1
 90
        5
176
     1
 90
        0
176
     1
 90
        0
176
     1
290
     0
176
     1
 90
        1
176
     1
 40
0.0
176
     1
 90
        0
176
     1
290
     0
176
     1
290
     1
176
     1
290
     1
176
     1
290
     0
176
     1
290
     0
176
     1
290
     0
176
     1
290
     0
176
     1
290
     0
176
     1
290
     0
176
     1
 90
       50
176
     1
 40
0.0
176
     1
 40
1.0
176
     1
 90
        0
176
     1
 62
    18
420
        0
176
     1
 90
       50
176
     1
 90
        3
176
     1
 62
     5
420
      255
176
     1
290
     0
176
     1
 90
       50
176
     1
 90
       50
176
     1
 90
       50
176
     1
290
     0
176
     1
 90
       50
176
     1
 62
   256
176
     0
 40
1.0
176
     0
 90
        2
176
     1
  1
strokes_ogs.tif
176
     1
290
     0
176
     1
 40
1.0
176
     1
 40
1.0
176
     1
  0
VISUALSTYLE
  5
1FC
102
{ACAD_REACTORS
330
1F0
102
}
330
1F0
100
AcDbVisualStyle
  2
Brighten
 70
    12
177
     3
291
     1
 70
    58
 90
        2
176
     1
 90
        2
176
     1
 90
        0
176
     1
 90
        0
176
     1
 40
-0.6
176
     1
 40
-30.0
176
     1
 62
     7
176
     1
 90
        1
176
     1
 90
        4
176
     1
 62
     7
176
     1
 62
   257
176
     1
 90
        1
176
     1
 90
        1
176
     1
 40
1.0
176
     1
 90
        8
176
     1
 62
     7
176
     1
 40
1.0
176
     1
 90
        1
176
     1
 90
        6
176
     1
 90
        2
176
     1
 62
     7
176
     1
 90
        5
176
     1
 90
        0
176
     1
 90
        0
176
     1
290
     0
176
     1
 90
        1
176
     1
 40
50.0
176
     1
 90
        0
176
     1
290
     0
176
     1
290
     1
176
     1
290
     1
176
     1
290
     0
176
     1
290
     0
176
     1
290
     0
176
     1
290
     0
176
     1
290
     0
176
     1
290
     0
176
     1
 90
       50
176
     1
 40
0.0
176
     1
 40
1.0
176
     1
 90
        0
176
     1
 62
    18
420
        0
176
     1
 90
       50
176
     1
 90
        3
176
     1
 62
     5
420
      255
176
     1
290
     0
176
     1
 90
       50
176
     1
 90
       50
176
     1
 90
       50
176
     1
290
     0
176
     1
 90
       50
176
     1
 62
   256
176
     0
 40
1.0
176
     0
 90
        2
176
     1
  1
strokes_ogs.tif
176
     1
290
     0
176
     1
 40
1.0
176
     1
 40
1.0
176
     1
  0
VISUALSTYLE
  5
200
102
{ACAD_REACTORS
330
1F0
102
}
330
1F0
100
AcDbVisualStyle
  2
ColorChange
 70
    16
177
     3
291
     1
 70
    58
 90
        2
176
     1
 90
        2
176
     1
 90
        3
176
     1
 90
        0
176
     1
 40
-0.6
176
     1
 40
-30.0
176
     1
 62
     8
176
     1
 90
        1
176
     1
 90
        4
176
     1
 62
     7
176
     1
 62
   257
176
     1
 90
        1
176
     1
 90
        1
176
     1
 40
1.0
176
     1
 90
        8
176
     1
 62
     8
176
     1
 40
1.0
176
     1
 90
        1
176
     1
 90
        6
176
     1
 90
        2
176
     1
 62
     7
176
     1
 90
        5
176
     1
 90
        0
176
     1
 90
        0
176
     1
290
     0
176
     1
 90
        1
176
     1
 40
0.0
176
     1
 90
        0
176
     1
290
     0
176
     1
290
     1
176
     1
290
     1
176
     1
290
     0
176
     1
290
     0
176
     1
290
     0
176
     1
290
     0
176
     1
290
     0
176
     1
290
     0
176
     1
 90
       50
176
     1
 40
0.0
176
     1
 40
1.0
176
     1
 90
        0
176
     1
 62
    18
420
        0
176
     1
 90
       50
176
     1
 90
        3
176
     1
 62
     5
420
      255
176
     1
290
     0
176
     1
 90
       50
176
     1
 90
       50
176
     1
 90
       50
176
     1
290
     0
176
     1
 90
       50
176
     1
 62
   256
176
     0
 40
1.0
176
     0
 90
        2
176
     1
  1
strokes_ogs.tif
176
     1
290
     0
176
     1
 40
1.0
176
     1
 40
1.0
176
     1
  0
VISUALSTYLE
  5
1FA
102
{ACAD_REACTORS
330
1F0
102
}
330
1F0
100
AcDbVisualStyle
  2
Conceptual
 70
     9
177
     3
291
     0
 70
    58
 90
        3
176
     1
 90
        2
176
     1
 90
        0
176
     1
 90
        0
176
     1
 40
-0.6
176
     1
 40
-30.0
176
     1
 62
     7
176
     1
 90
        2
176
     1
 90
        2
176
     1
 62
     7
176
     1
 62
   257
176
     1
 90
        1
176
     1
 90
        1
176
     1
 40
40.0
176
     1
 90
        8
176
     1
 62
     7
176
     1
 40
1.0
176
     1
 90
        1
176
     1
 90
        6
176
     1
 90
        2
176
     1
 62
     7
176
     1
 90
        3
176
     1
 90
        0
176
     1
 90
        0
176
     1
290
     0
176
     1
 90
        1
176
     1
 40
0.0
176
     1
 90
        0
176
     1
290
     0
176
     1
290
     1
176
     1
290
     1
176
     1
290
     0
176
     1
290
     0
176
     1
290
     0
176
     1
290
     0
176
     1
290
     0
176
     1
290
     0
176
     1
 90
       50
176
     1
 40
0.0
176
     1
 40
1.0
176
     1
 90
        0
176
     1
 62
    18
420
        0
176
     1
 90
       50
176
     1
 90
        3
176
     1
 62
     5
420
      255
176
     1
290
     0
176
     1
 90
       50
176
     1
 90
       50
176
     1
 90
       50
176
     1
290
     0
176
     1
 90
       50
176
     1
 62
   256
176
     0
 40
1.0
176
     0
 90
        2
176
     1
  1
strokes_ogs.tif
176
     1
290
     0
176
     1
 40
1.0
176
     1
 40
1.0
176
     1
  0
VISUALSTYLE
  5
1FB
102
{ACAD_REACTORS
330
1F0
102
}
330
1F0
100
AcDbVisualStyle
  2
Dim
 70
    11
177
     3
291
     1
 70
    58
 90
        2
176
     1
 90
        2
176
     1
 90
        0
176
     1
 90
        0
176
     1
 40
-0.6
176
     1
 40
-30.0
176
     1
 62
     7
176
     1
 90
        1
176
     1
 90
        4
176
     1
 62
     7
176
     1
 62
   257
176
     1
 90
        1
176
     1
 90
        1
176
     1
 40
1.0
176
     1
 90
        8
176
     1
 62
     7
176
     1
 40
1.0
176
     1
 90
        1
176
     1
 90
        6
176
     1
 90
        2
176
     1
 62
     7
176
     1
 90
        5
176
     1
 90
        0
176
     1
 90
        0
176
     1
290
     0
176
     1
 90
        1
176
     1
 40
-50.0
176
     1
 90
        0
176
     1
290
     0
176
     1
290
     1
176
     1
290
     1
176
     1
290
     0
176
     1
290
     0
176
     1
290
     0
176
     1
290
     0
176
     1
290
     0
176
     1
290
     0
176
     1
 90
       50
176
     1
 40
0.0
176
     1
 40
1.0
176
     1
 90
        0
176
     1
 62
    18
420
        0
176
     1
 90
       50
176
     1
 90
        3
176
     1
 62
     5
420
      255
176
     1
290
     0
176
     1
 90
       50
176
     1
 90
       50
176
     1
 90
       50
176
     1
290
     0
176
     1
 90
       50
176
     1
 62
   256
176
     0
 40
1.0
176
     0
 90
        2
176
     1
  1
strokes_ogs.tif
176
     1
290
     0
176
     1
 40
1.0
176
     1
 40
1.0
176
     1
  0
VISUALSTYLE
  5
252
102
{ACAD_REACTORS
330
1F0
102
}
330
1F0
100
AcDbVisualStyle
  2
EdgeColorOff
 70
    22
177
     3
291
     1
 70
    58
 90
        2
176
     0
 90
        2
176
     0
 90
        0
176
     0
 90
        0
176
     0
 40
0.6
176
     0
 40
30.0
176
     0
 62
     7
420
 16777215
176
     0
 90
        1
176
     0
 90
        4
176
     0
 62
     7
176
     0
 62
   257
176
     0
 90
        1
176
     0
 90
        1
176
     0
 40
1.0
176
     0
 90
        8
176
     2
 62
     7
176
     0
 40
1.0
176
     0
 90
        1
176
     0
 90
        6
176
     0
 90
        2
176
     0
 62
     7
176
     0
 90
        5
176
     0
 90
        0
176
     0
 90
        0
176
     0
290
     0
176
     0
 90
        1
176
     0
 40
0.0
176
     0
 90
        0
176
     0
290
     0
176
     0
290
     1
176
     0
290
     1
176
     0
290
     0
176
     0
290
     0
176
     0
290
     0
176
     0
290
     0
176
     0
290
     0
176
     0
290
     0
176
     0
 90
       50
176
     0
 40
0.0
176
     0
 40
1.0
176
     0
 90
        0
176
     0
 62
    18
420
        0
176
     0
 90
       50
176
     0
 90
        3
176
     0
 62
     5
420
      255
176
     0
290
     0
176
     0
 90
       50
176
     0
 90
       50
176
     0
 90
       50
176
     0
290
     0
176
     0
 90
       50
176
     0
 62
   256
176
     0
 40
1.0
176
     0
 90
        2
176
     0
  1
strokes_ogs.tif
176
     0
290
     0
176
     0
 40
1.0
176
     0
 40
1.0
176
     0
  0
VISUALSTYLE
  5
1FF
102
{ACAD_REACTORS
330
1F0
102
}
330
1F0
100
AcDbVisualStyle
  2
Facepattern
 70
    15
177
     3
291
     1
 70
    58
 90
        2
176
     1
 90
        2
176
     1
 90
        0
176
     1
 90
        0
176
     1
 40
-0.6
176
     1
 40
-30.0
176
     1
 62
     7
176
     1
 90
        1
176
     1
 90
        4
176
     1
 62
     7
176
     1
 62
   257
176
     1
 90
        1
176
     1
 90
        1
176
     1
 40
1.0
176
     1
 90
        8
176
     1
 62
     7
176
     1
 40
1.0
176
     1
 90
        1
176
     1
 90
        6
176
     1
 90
        2
176
     1
 62
     7
176
     1
 90
        5
176
     1
 90
        0
176
     1
 90
        0
176
     1
290
     0
176
     1
 90
        1
176
     1
 40
0.0
176
     1
 90
        0
176
     1
290
     0
176
     1
290
     1
176
     1
290
     1
176
     1
290
     0
176
     1
290
     0
176
     1
290
     0
176
     1
290
     0
176
     1
290
     0
176
     1
290
     0
176
     1
 90
       50
176
     1
 40
0.0
176
     1
 40
1.0
176
     1
 90
        0
176
     1
 62
    18
420
        0
176
     1
 90
       50
176
     1
 90
        3
176
     1
 62
     5
420
      255
176
     1
290
     0
176
     1
 90
       50
176
     1
 90
       50
176
     1
 90
       50
176
     1
290
     0
176
     1
 90
       50
176
     1
 62
   256
176
     0
 40
1.0
176
     0
 90
        2
176
     1
  1
strokes_ogs.tif
176
     1
290
     0
176
     1
 40
1.0
176
     1
 40
1.0
176
     1
  0
VISUALSTYLE
  5
1F1
102
{ACAD_REACTORS
330
1F0
102
}
330
1F0
100
AcDbVisualStyle
  2
Flat
 70
     0
177
     3
291
     1
 70
    58
 90
        2
176
     1
 90
        1
176
     1
 90
        1
176
     1
 90
        2
176
     1
 40
-0.6
176
     1
 40
30.0
176
     1
 62
     7
176
     1
 90
        0
176
     1
 90
        4
176
     1
 62
     7
176
     1
 62
   257
176
     1
 90
        1
176
     1
 90
        1
176
     1
 40
1.0
176
     1
 90
        8
176
     1
 62
     7
176
     1
 40
1.0
176
     1
 90
        1
176
     1
 90
        6
176
     1
 90
        2
176
     1
 62
     7
176
     1
 90
        5
176
     1
 90
        0
176
     1
 90
        0
176
     1
290
     0
176
     1
 90
       13
176
     1
 40
0.0
176
     1
 90
        0
176
     1
290
     0
176
     1
290
     1
176
     1
290
     1
176
     1
290
     0
176
     1
290
     0
176
     1
290
     0
176
     1
290
     0
176
     1
290
     0
176
     1
290
     0
176
     1
 90
       50
176
     1
 40
0.0
176
     1
 40
1.0
176
     1
 90
        0
176
     1
 62
    18
420
        0
176
     1
 90
       50
176
     1
 90
        3
176
     1
 62
     5
420
      255
176
     1
290
     0
176
     1
 90
       50
176
     1
 90
       50
176
     1
 90
       50
176
     1
290
     0
176
     1
 90
       50
176
     1
 62
   256
176
     0
 40
1.0
176
     0
 90
        2
176
     1
  1
strokes_ogs.tif
176
     1
290
     0
176
     1
 40
1.0
176
     1
 40
1.0
176
     1
  0
VISUALSTYLE
  5
1F2
102
{ACAD_REACTORS
330
1F0
102
}
330
1F0
100
AcDbVisualStyle
  2
FlatWithEdges
 70
     1
177
     3
291
     1
 70
    58
 90
        2
176
     1
 90
        1
176
     1
 90
        1
176
     1
 90
        2
176
     1
 40
-0.6
176
     1
 40
30.0
176
     1
 62
     7
176
     1
 90
        1
176
     1
 90
        4
176
     1
 62
     7
176
     1
 62
   257
176
     1
 90
        1
176
     1
 90
        1
176
     1
 40
1.0
176
     1
 90
        0
176
     1
 62
   257
176
     1
 40
1.0
176
     1
 90
        1
176
     1
 90
        6
176
     1
 90
        2
176
     1
 62
     7
176
     1
 90
        5
176
     1
 90
        0
176
     1
 90
        0
176
     1
290
     0
176
     1
 90
       13
176
     1
 40
0.0
176
     1
 90
        0
176
     1
290
     0
176
     1
290
     1
176
     1
290
     1
176
     1
290
     0
176
     1
290
     0
176
     1
290
     0
176
     1
290
     0
176
     1
290
     0
176
     1
290
     0
176
     1
 90
       50
176
     1
 40
0.0
176
     1
 40
1.0
176
     1
 90
        0
176
     1
 62
    18
420
        0
176
     1
 90
       50
176
     1
 90
        3
176
     1
 62
     5
420
      255
176
     1
290
     0
176
     1
 90
       50
176
     1
 90
       50
176
     1
 90
       50
176
     1
290
     0
176
     1
 90
       50
176
     1
 62
   256
176
     0
 40
1.0
176
     0
 90
        2
176
     1
  1
strokes_ogs.tif
176
     1
290
     0
176
     1
 40
1.0
176
     1
 40
1.0
176
     1
  0
VISUALSTYLE
  5
1F3
102
{ACAD_REACTORS
330
1F0
102
}
330
1F0
100
AcDbVisualStyle
  2
Gouraud
 70
     2
177
     3
291
     1
 70
    58
 90
        2
176
     1
 90
        2
176
     1
 90
        1
176
     1
 90
        2
176
     1
 40
-0.6
176
     1
 40
30.0
176
     1
 62
     7
176
     1
 90
        0
176
     1
 90
        4
176
     1
 62
     7
176
     1
 62
   257
176
     1
 90
        1
176
     1
 90
        1
176
     1
 40
1.0
176
     1
 90
        0
176
     1
 62
     7
176
     1
 40
1.0
176
     1
 90
        1
176
     1
 90
        6
176
     1
 90
        2
176
     1
 62
     7
176
     1
 90
        5
176
     1
 90
        0
176
     1
 90
        0
176
     1
290
     0
176
     1
 90
       13
176
     1
 40
0.0
176
     1
 90
        0
176
     1
290
     0
176
     1
290
     1
176
     1
290
     1
176
     1
290
     0
176
     1
290
     0
176
     1
290
     0
176
     1
290
     0
176
     1
290
     0
176
     1
290
     0
176
     1
 90
       50
176
     1
 40
0.0
176
     1
 40
1.0
176
     1
 90
        0
176
     1
 62
    18
420
        0
176
     1
 90
       50
176
     1
 90
        3
176
     1
 62
     5
420
      255
176
     1
290
     0
176
     1
 90
       50
176
     1
 90
       50
176
     1
 90
       50
176
     1
290
     0
176
     1
 90
       50
176
     1
 62
   256
176
     0
 40
1.0
176
     0
 90
        2
176
     1
  1
strokes_ogs.tif
176
     1
290
     0
176
     1
 40
1.0
176
     1
 40
1.0
176
     1
  0
VISUALSTYLE
  5
1F4
102
{ACAD_REACTORS
330
1F0
102
}
330
1F0
100
AcDbVisualStyle
  2
GouraudWithEdges
 70
     3
177
     3
291
     1
 70
    58
 90
        2
176
     1
 90
        2
176
     1
 90
        1
176
     1
 90
        2
176
     1
 40
-0.6
176
     1
 40
30.0
176
     1
 62
     7
176
     1
 90
        1
176
     1
 90
        4
176
     1
 62
     7
176
     1
 62
   257
176
     1
 90
        1
176
     1
 90
        1
176
     1
 40
1.0
176
     1
 90
        0
176
     1
 62
   257
176
     1
 40
1.0
176
     1
 90
        1
176
     1
 90
        6
176
     1
 90
        2
176
     1
 62
     7
176
     1
 90
        5
176
     1
 90
        0
176
     1
 90
        0
176
     1
290
     0
176
     1
 90
       13
176
     1
 40
0.0
176
     1
 90
        0
176
     1
290
     0
176
     1
290
     1
176
     1
290
     1
176
     1
290
     0
176
     1
290
     0
176
     1
290
     0
176
     1
290
     0
176
     1
290
     0
176
     1
290
     0
176
     1
 90
       50
176
     1
 40
0.0
176
     1
 40
1.0
176
     1
 90
        0
176
     1
 62
    18
420
        0
176
     1
 90
       50
176
     1
 90
        3
176
     1
 62
     5
420
      255
176
     1
290
     0
176
     1
 90
       50
176
     1
 90
       50
176
     1
 90
       50
176
     1
290
     0
176
     1
 90
       50
176
     1
 62
   256
176
     0
 40
1.0
176
     0
 90
        2
176
     1
  1
strokes_ogs.tif
176
     1
290
     0
176
     1
 40
1.0
176
     1
 40
1.0
176
     1
  0
VISUALSTYLE
  5
24F
102
{ACAD_REACTORS
330
1F0
102
}
330
1F0
100
AcDbVisualStyle
  2
Hidden
 70
     6
177
     3
291
     0
 70
    58
 90
        1
176
     1
 90
        2
176
     1
 90
        2
176
     1
 90
        0
176
     1
 40
0.6
176
     1
 40
30.0
176
     1
 62
     7
420
 16777215
176
     1
 90
        2
176
     1
 90
        2
176
     1
 62
     7
176
     1
 62
   257
176
     1
 90
        2
176
     1
 90
        1
176
     1
 40
40.0
176
     1
 90
        0
176
     1
 62
   257
176
     1
 40
1.0
176
     1
 90
        1
176
     1
 90
        6
176
     1
 90
        2
176
     1
 62
     7
176
     1
 90
        3
176
     1
 90
        0
176
     1
 90
        0
176
     1
290
     0
176
     1
 90
        1
176
     1
 40
0.0
176
     1
 90
        0
176
     1
290
     0
176
     1
290
     1
176
     1
290
     1
176
     1
290
     0
176
     1
290
     0
176
     1
290
     0
176
     1
290
     0
176
     1
290
     0
176
     1
290
     0
176
     1
 90
       50
176
     1
 40
0.0
176
     1
 40
1.0
176
     1
 90
        0
176
     1
 62
    18
420
        0
176
     1
 90
       50
176
     1
 90
        3
176
     1
 62
     5
420
      255
176
     1
290
     0
176
     1
 90
       50
176
     1
 90
       50
176
     1
 90
       50
176
     1
290
     0
176
     1
 90
       50
176
     1
 62
   256
176
     0
 40
1.0
176
     0
 90
        2
176
     1
  1
strokes_ogs.tif
176
     1
290
     0
176
     1
 40
1.0
176
     1
 40
1.0
176
     1
  0
VISUALSTYLE
  5
250
102
{ACAD_REACTORS
330
1F0
102
}
330
1F0
100
AcDbVisualStyle
  2
JitterOff
 70
    20
177
     3
291
     1
 70
    58
 90
        2
176
     0
 90
        2
176
     0
 90
        0
176
     0
 90
        0
176
     0
 40
0.6
176
     0
 40
30.0
176
     0
 62
     7
420
 16777215
176
     0
 90
        1
176
     0
 90
        4
176
     0
 62
     7
176
     0
 62
   257
176
     0
 90
        1
176
     0
 90
        1
176
     0
 40
1.0
176
     0
 90
       10
176
     2
 62
     7
176
     0
 40
1.0
176
     0
 90
        1
176
     0
 90
        6
176
     0
 90
        2
176
     0
 62
     7
176
     0
 90
        5
176
     0
 90
        0
176
     0
 90
        0
176
     0
290
     0
176
     0
 90
        1
176
     0
 40
0.0
176
     0
 90
        0
176
     0
290
     0
176
     0
290
     1
176
     0
290
     1
176
     0
290
     0
176
     0
290
     0
176
     0
290
     0
176
     0
290
     0
176
     0
290
     0
176
     0
290
     0
176
     0
 90
       50
176
     0
 40
0.0
176
     0
 40
1.0
176
     0
 90
        0
176
     0
 62
    18
420
        0
176
     0
 90
       50
176
     0
 90
        3
176
     0
 62
     5
420
      255
176
     0
290
     0
176
     0
 90
       50
176
     0
 90
       50
176
     0
 90
       50
176
     0
290
     0
176
     0
 90
       50
176
     0
 62
   256
176
     0
 40
1.0
176
     0
 90
        2
176
     0
  1
strokes_ogs.tif
176
     0
290
     0
176
     0
 40
1.0
176
     0
 40
1.0
176
     0
  0
VISUALSTYLE
  5
1FE
102
{ACAD_REACTORS
330
1F0
102
}
330
1F0
100
AcDbVisualStyle
  2
Linepattern
 70
    14
177
     3
291
     1
 70
    58
 90
        2
176
     1
 90
        2
176
     1
 90
        0
176
     1
 90
        0
176
     1
 40
-0.6
176
     1
 40
-30.0
176
     1
 62
     7
176
     1
 90
        1
176
     1
 90
        4
176
     1
 62
     7
176
     1
 62
   257
176
     1
 90
        7
176
     1
 90
        7
176
     1
 40
1.0
176
     1
 90
        8
176
     1
 62
     7
176
     1
 40
1.0
176
     1
 90
        1
176
     1
 90
        6
176
     1
 90
        2
176
     1
 62
     7
176
     1
 90
        5
176
     1
 90
        0
176
     1
 90
        0
176
     1
290
     0
176
     1
 90
        1
176
     1
 40
0.0
176
     1
 90
        0
176
     1
290
     0
176
     1
290
     1
176
     1
290
     1
176
     1
290
     0
176
     1
290
     0
176
     1
290
     0
176
     1
290
     0
176
     1
290
     0
176
     1
290
     0
176
     1
 90
       50
176
     1
 40
0.0
176
     1
 40
1.0
176
     1
 90
        0
176
     1
 62
    18
420
        0
176
     1
 90
       50
176
     1
 90
        3
176
     1
 62
     5
420
      255
176
     1
290
     0
176
     1
 90
       50
176
     1
 90
       50
176
     1
 90
       50
176
     1
290
     0
176
     1
 90
       50
176
     1
 62
   256
176
     0
 40
1.0
176
     0
 90
        2
176
     1
  1
strokes_ogs.tif
176
     1
290
     0
176
     1
 40
1.0
176
     1
 40
1.0
176
     1
  0
VISUALSTYLE
  5
251
102
{ACAD_REACTORS
330
1F0
102
}
330
1F0
100
AcDbVisualStyle
  2
OverhangOff
 70
    21
177
     3
291
     1
 70
    58
 90
        2
176
     0
 90
        2
176
     0
 90
        0
176
     0
 90
        0
176
     0
 40
0.6
176
     0
 40
30.0
176
     0
 62
     7
420
 16777215
176
     0
 90
        1
176
     0
 90
        4
176
     0
 62
     7
176
     0
 62
   257
176
     0
 90
        1
176
     0
 90
        1
176
     0
 40
1.0
176
     0
 90
        9
176
     2
 62
     7
176
     0
 40
1.0
176
     0
 90
        1
176
     0
 90
        6
176
     0
 90
        2
176
     0
 62
     7
176
     0
 90
        5
176
     0
 90
        0
176
     0
 90
        0
176
     0
290
     0
176
     0
 90
        1
176
     0
 40
0.0
176
     0
 90
        0
176
     0
290
     0
176
     0
290
     1
176
     0
290
     1
176
     0
290
     0
176
     0
290
     0
176
     0
290
     0
176
     0
290
     0
176
     0
290
     0
176
     0
290
     0
176
     0
 90
       50
176
     0
 40
0.0
176
     0
 40
1.0
176
     0
 90
        0
176
     0
 62
    18
420
        0
176
     0
 90
       50
176
     0
 90
        3
176
     0
 62
     5
420
      255
176
     0
290
     0
176
     0
 90
       50
176
     0
 90
       50
176
     0
 90
       50
176
     0
290
     0
176
     0
 90
       50
176
     0
 62
   256
176
     0
 40
1.0
176
     0
 90
        2
176
     0
  1
strokes_ogs.tif
176
     0
290
     0
176
     0
 40
1.0
176
     0
 40
1.0
176
     0
  0
VISUALSTYLE
  5
1F9
102
{ACAD_REACTORS
330
1F0
102
}
330
1F0
100
AcDbVisualStyle
  2
Realistic
 70
     8
177
     3
291
     0
 70
    58
 90
        2
176
     1
 90
        2
176
     1
 90
        0
176
     1
 90
        0
176
     1
 40
-0.6
176
     1
 40
-30.0
176
     1
 62
     7
176
     1
 90
        1
176
     1
 90
        0
176
     1
 62
     7
176
     1
 62
   257
176
     1
 90
        1
176
     1
 90
        1
176
     1
 40
1.0
176
     1
 90
        8
176
     1
 62
     8
176
     1
 40
1.0
176
     1
 90
        1
176
     1
 90
        6
176
     1
 90
        2
176
     1
 62
     7
176
     1
 90
        5
176
     1
 90
        0
176
     1
 90
        0
176
     1
290
     0
176
     1
 90
       13
176
     1
 40
0.0
176
     1
 90
        0
176
     1
290
     0
176
     1
290
     1
176
     1
290
     1
176
     1
290
     0
176
     1
290
     0
176
     1
290
     0
176
     1
290
     0
176
     1
290
     0
176
     1
290
     0
176
     1
 90
       50
176
     1
 40
0.0
176
     1
 40
1.0
176
     1
 90
        0
176
     1
 62
    18
420
        0
176
     1
 90
       50
176
     1
 90
        3
176
     1
 62
     5
420
      255
176
     1
290
     0
176
     1
 90
       50
176
     1
 90
       50
176
     1
 90
       50
176
     1
290
     0
176
     1
 90
       50
176
     1
 62
   256
176
     0
 40
1.0
176
     0
 90
        2
176
     1
  1
strokes_ogs.tif
176
     1
290
     0
176
     1
 40
1.0
176
     1
 40
1.0
176
     1
  0
VISUALSTYLE
  5
257
102
{ACAD_REACTORS
330
1F0
102
}
330
1F0
100
AcDbVisualStyle
  2
Shaded
 70
    27
177
     3
291
     0
 70
    58
 90
        2
176
     1
 90
        2
176
     1
 90
        1
176
     1
 90
        2
176
     1
 40
0.6
176
     1
 40
30.0
176
     1
 62
     7
420
 16777215
176
     1
 90
        0
176
     1
 90
        4
176
     1
 62
     7
176
     1
 62
   257
176
     1
 90
        1
176
     1
 90
        1
176
     1
 40
1.0
176
     1
 90
        8
176
     1
 62
   257
176
     1
 40
1.0
176
     1
 90
        1
176
     1
 90
        6
176
     1
 90
        2
176
     1
 62
     8
420
  7895160
176
     1
 90
        3
176
     1
 90
        0
176
     1
 90
        0
176
     1
290
     0
176
     1
 90
        5
176
     1
 40
0.0
176
     1
 90
        0
176
     1
290
     0
176
     1
290
     1
176
     1
290
     1
176
     1
290
     0
176
     1
290
     0
176
     1
290
     0
176
     1
290
     0
176
     1
290
     0
176
     1
290
     0
176
     1
 90
       50
176
     1
 40
0.0
176
     1
 40
1.0
176
     1
 90
        0
176
     1
 62
    18
420
        0
176
     1
 90
       50
176
     1
 90
        3
176
     1
 62
     5
420
      255
176
     1
290
     0
176
     1
 90
       50
176
     1
 90
       50
176
     1
 90
       50
176
     1
290
     0
176
     1
 90
       50
176
     1
 62
   256
176
     0
 40
1.0
176
     0
 90
        2
176
     1
  1
strokes_ogs.tif
176
     1
290
     0
176
     1
 40
1.0
176
     1
 40
1.0
176
     1
  0
VISUALSTYLE
  5
256
102
{ACAD_REACTORS
330
1F0
102
}
330
1F0
100
AcDbVisualStyle
  2
Shaded with edges
 70
    26
177
     3
291
     0
 70
    58
 90
        2
176
     1
 90
        2
176
     1
 90
        1
176
     1
 90
        2
176
     1
 40
0.6
176
     1
 40
30.0
176
     1
 62
     7
420
 16777215
176
     1
 90
        1
176
     1
 90
       10
176
     1
 62
     7
176
     1
 62
   257
176
     1
 90
        2
176
     1
 90
        1
176
     1
 40
1.0
176
     1
 90
        8
176
     1
 62
   257
176
     1
 40
1.0
176
     1
 90
        1
176
     1
 90
        6
176
     1
 90
        2
176
     1
 62
     7
176
     1
 90
        3
176
     1
 90
        0
176
     1
 90
        0
176
     1
290
     0
176
     1
 90
        5
176
     1
 40
0.0
176
     1
 90
        0
176
     1
290
     0
176
     1
290
     1
176
     1
290
     1
176
     1
290
     0
176
     1
290
     0
176
     1
290
     0
176
     1
290
     0
176
     1
290
     0
176
     1
290
     0
176
     1
 90
       50
176
     1
 40
0.0
176
     1
 40
1.0
176
     1
 90
        0
176
     1
 62
    18
420
        0
176
     1
 90
       50
176
     1
 90
        3
176
     1
 62
     5
420
      255
176
     1
290
     0
176
     1
 90
       50
176
     1
 90
       50
176
     1
 90
       50
176
     1
290
     0
176
     1
 90
       50
176
     1
 62
   256
176
     0
 40
1.0
176
     0
 90
        2
176
     1
  1
strokes_ogs.tif
176
     1
290
     0
176
     1
 40
1.0
176
     1
 40
1.0
176
     1
  0
VISUALSTYLE
  5
253
102
{ACAD_REACTORS
330
1F0
102
}
330
1F0
100
AcDbVisualStyle
  2
Shades of Gray
 70
    23
177
     3
291
     0
 70
    58
 90
        2
176
     1
 90
        2
176
     1
 90
        3
176
     1
 90
        0
176
     1
 40
0.6
176
     1
 40
30.0
176
     1
 62
     7
420
 16777215
176
     1
 90
        2
176
     1
 90
        2
176
     1
 62
     7
176
     1
 62
     7
176
     1
 90
        1
176
     1
 90
        1
176
     1
 40
40.0
176
     1
 90
        8
176
     1
 62
     7
176
     1
 40
1.0
176
     1
 90
        1
176
     1
 90
        6
176
     1
 90
        2
176
     1
 62
     7
176
     1
 90
        3
176
     1
 90
        0
176
     1
 90
        0
176
     1
290
     0
176
     1
 90
        1
176
     1
 40
0.0
176
     1
 90
        0
176
     1
290
     0
176
     1
290
     1
176
     1
290
     1
176
     1
290
     0
176
     1
290
     0
176
     1
290
     0
176
     1
290
     0
176
     1
290
     0
176
     1
290
     0
176
     1
 90
       50
176
     1
 40
0.0
176
     1
 40
1.0
176
     1
 90
        0
176
     1
 62
    18
420
        0
176
     1
 90
       50
176
     1
 90
        3
176
     1
 62
     5
420
      255
176
     1
290
     0
176
     1
 90
       50
176
     1
 90
       50
176
     1
 90
       50
176
     1
290
     0
176
     1
 90
       50
176
     1
 62
   256
176
     0
 40
1.0
176
     0
 90
        2
176
     1
  1
strokes_ogs.tif
176
     1
290
     0
176
     1
 40
1.0
176
     1
 40
1.0
176
     1
  0
VISUALSTYLE
  5
254
102
{ACAD_REACTORS
330
1F0
102
}
330
1F0
100
AcDbVisualStyle
  2
Sketchy
 70
    24
177
     3
291
     0
 70
    58
 90
        1
176
     1
 90
        2
176
     1
 90
        2
176
     1
 90
        0
176
     1
 40
0.6
176
     1
 40
30.0
176
     1
 62
     7
420
 16777215
176
     1
 90
        2
176
     1
 90
        2
176
     1
 62
     7
176
     1
 62
     7
176
     1
 90
        1
176
     1
 90
        1
176
     1
 40
40.0
176
     1
 90
       11
176
     1
 62
     7
176
     1
 40
1.0
176
     1
 90
        1
176
     1
 90
        6
176
     1
 90
        2
176
     1
 62
     7
176
     1
 90
        6
176
     1
 90
        0
176
     1
 90
        0
176
     1
290
     0
176
     1
 90
        1
176
     1
 40
0.0
176
     1
 90
        0
176
     1
290
     0
176
     1
290
     1
176
     1
290
     1
176
     1
290
     0
176
     1
290
     0
176
     1
290
     0
176
     1
290
     0
176
     1
290
     0
176
     1
290
     0
176
     1
 90
       50
176
     1
 40
0.0
176
     1
 40
1.0
176
     1
 90
        0
176
     1
 62
    18
420
        0
176
     1
 90
       50
176
     1
 90
        3
176
     1
 62
     5
420
      255
176
     1
290
     0
176
     1
 90
       50
176
     1
 90
       50
176
     1
 90
       50
176
     1
290
     0
176
     1
 90
       50
176
     1
 62
   256
176
     0
 40
1.0
176
     0
 90
        2
176
     1
  1
strokes_ogs.tif
176
     1
290
     0
176
     1
 40
1.0
176
     1
 40
1.0
176
     1
  0
VISUALSTYLE
  5
1FD
102
{ACAD_REACTORS
330
1F0
102
}
330
1F0
100
AcDbVisualStyle
  2
Thicken
 70
    13
177
     3
291
     1
 70
    58
 90
        2
176
     1
 90
        2
176
     1
 90
        0
176
     1
 90
        0
176
     1
 40
-0.6
176
     1
 40
-30.0
176
     1
 62
     7
176
     1
 90
        1
176
     1
 90
        4
176
     1
 62
     7
176
     1
 62
   257
176
     1
 90
        1
176
     1
 90
        1
176
     1
 40
1.0
176
     1
 90
       12
176
     1
 62
     7
176
     1
 40
1.0
176
     1
 90
        1
176
     1
 90
        6
176
     1
 90
        2
176
     1
 62
     7
176
     1
 90
        5
176
     1
 90
        0
176
     1
 90
        0
176
     1
290
     0
176
     1
 90
        1
176
     1
 40
0.0
176
     1
 90
        0
176
     1
290
     0
176
     1
290
     1
176
     1
290
     1
176
     1
290
     0
176
     1
290
     0
176
     1
290
     0
176
     1
290
     0
176
     1
290
     0
176
     1
290
     0
176
     1
 90
       50
176
     1
 40
0.0
176
     1
 40
1.0
176
     1
 90
        0
176
     1
 62
    18
420
        0
176
     1
 90
       50
176
     1
 90
        3
176
     1
 62
     5
420
      255
176
     1
290
     0
176
     1
 90
       50
176
     1
 90
       50
176
     1
 90
       50
176
     1
290
     0
176
     1
 90
       50
176
     1
 62
   256
176
     0
 40
1.0
176
     0
 90
        2
176
     1
  1
strokes_ogs.tif
176
     1
290
     0
176
     1
 40
1.0
176
     1
 40
1.0
176
     1
  0
VISUALSTYLE
  5
24E
102
{ACAD_REACTORS
330
1F0
102
}
330
1F0
100
AcDbVisualStyle
  2
Wireframe
 70
     5
177
     3
291
     0
 70
    58
 90
        0
176
     1
 90
        2
176
     1
 90
        0
176
     1
 90
        0
176
     1
 40
0.6
176
     1
 40
30.0
176
     1
 62
     7
420
 16777215
176
     1
 90
        1
176
     1
 90
        4
176
     1
 62
     7
176
     1
 62
   257
176
     1
 90
        1
176
     1
 90
        1
176
     1
 40
1.0
176
     1
 90
        0
176
     1
 62
   257
176
     1
 40
1.0
176
     1
 90
        1
176
     1
 90
        6
176
     1
 90
        2
176
     1
 62
     7
176
     1
 90
        3
176
     1
 90
        0
176
     1
 90
        0
176
     1
290
     0
176
     1
 90
        1
176
     1
 40
0.0
176
     1
 90
        0
176
     1
290
     0
176
     1
290
     1
176
     1
290
     1
176
     1
290
     0
176
     1
290
     0
176
     1
290
     0
176
     1
290
     0
176
     1
290
     0
176
     1
290
     0
176
     1
 90
       50
176
     1
 40
0.0
176
     1
 40
1.0
176
     1
 90
        0
176
     1
 62
    18
420
        0
176
     1
 90
       50
176
     1
 90
        3
176
     1
 62
     5
420
      255
176
     1
290
     0
176
     1
 90
       50
176
     1
 90
       50
176
     1
 90
       50
176
     1
290
     0
176
     1
 90
       50
176
     1
 62
   256
176
     0
 40
1.0
176
     0
 90
        2
176
     1
  1
strokes_ogs.tif
176
     1
290
     0
176
     1
 40
1.0
176
     1
 40
1.0
176
     1
  0
VISUALSTYLE
  5
255
102
{ACAD_REACTORS
330
1F0
102
}
330
1F0
100
AcDbVisualStyle
  2
X-Ray
 70
    25
177
     3
291
     0
 70
    58
 90
        2
176
     1
 90
        2
176
     1
 90
        1
176
     1
 90
        1
176
     1
 40
0.5
176
     1
 40
30.0
176
     1
 62
     7
420
 16777215
176
     1
 90
        1
176
     1
 90
        0
176
     1
 62
     7
176
     1
 62
   257
176
     1
 90
        1
176
     1
 90
        1
176
     1
 40
1.0
176
     1
 90
        8
176
     1
 62
     7
176
     1
 40
1.0
176
     1
 90
        1
176
     1
 90
        6
176
     1
 90
        2
176
     1
 62
     7
176
     1
 90
        3
176
     1
 90
        0
176
     1
 90
        0
176
     1
290
     0
176
     1
 90
       13
176
     1
 40
0.0
176
     1
 90
        0
176
     1
290
     0
176
     1
290
     1
176
     1
290
     1
176
     1
290
     0
176
     1
290
     0
176
     1
290
     0
176
     1
290
     0
176
     1
290
     0
176
     1
290
     0
176
     1
 90
       50
176
     1
 40
0.0
176
     1
 40
1.0
176
     1
 90
        0
176
     1
 62
    18
420
        0
176
     1
 90
       50
176
     1
 90
        3
176
     1
 62
     5
420
      255
176
     1
290
     0
176
     1
 90
       50
176
     1
 90
       50
176
     1
 90
       50
176
     1
290
     0
176
     1
 90
       50
176
     1
 62
   256
176
     0
 40
1.0
176
     0
 90
        2
176
     1
  1
strokes_ogs.tif
176
     1
290
     0
176
     1
 40
1.0
176
     1
 40
1.0
176
     1
  0
DICTIONARYVAR
  5
287
102
{ACAD_REACTORS
330
20D
102
}
330
20D
100
DictionaryVariables
280
     0
  1
1:1
  0
DICTIONARYVAR
  5
289
102
{ACAD_REACTORS
330
20D
102
}
330
20D
100
DictionaryVariables
280
     0
  1
Standard
  0
DICTIONARYVAR
  5
288
102
{ACAD_REACTORS
330
20D
102
}
330
20D
100
DictionaryVariables
280
     0
  1
Standard
  0
DICTIONARYVAR
  5
211
102
{ACAD_REACTORS
330
20D
102
}
330
20D
100
DictionaryVariables
280
     0
  1
2
  0
DICTIONARYVAR
  5
212
102
{ACAD_REACTORS
330
20D
102
}
330
20D
100
DictionaryVariables
280
     0
  1
1
  0
DICTIONARYVAR
  5
210
102
{ACAD_REACTORS
330
20D
102
}
330
20D
100
DictionaryVariables
280
     0
  1
0
  0
DICTIONARY
  5
2EC
330
259
100
AcDbDictionary
280
     1
281
     1
  3
ACAD_ROUNDTRIP_2008_TABLESTYLE_CELLSTYLEMAP
360
2ED
  0
CELLSTYLEMAP
  5
2ED
102
{ACAD_REACTORS
330
2EC
102
}
330
2EC
100
AcDbCellStyleMap
 90
        3
300
CELLSTYLE
  1
TABLEFORMAT_BEGIN
 90
        5
170
     1
 91
        0
 92
    32768
 62
   257
 93
        1
300
CONTENTFORMAT
  1
CONTENTFORMAT_BEGIN
 90
        0
 91
        0
 92
        4
 93
        0
300

 40
0.0
140
1.0
 94
        5
 62
     0
340
11
144
0.25
309
CONTENTFORMAT_END
171
     1
301
MARGIN
  1
CELLMARGIN_BEGIN
 40
0.06
 40
0.06
 40
0.06
 40
0.06
 40
0.06
 40
0.06
309
CELLMARGIN_END
 94
        6
 95
        1
302
GRIDFORMAT
  1
GRIDFORMAT_BEGIN
 90
        0
 91
        1
 62
     0
 92
       -2
340
14
 93
        0
 40
0.045
309
GRIDFORMAT_END
 95
        2
302
GRIDFORMAT
  1
GRIDFORMAT_BEGIN
 90
        0
 91
        1
 62
     0
 92
       -2
340
14
 93
        0
 40
0.045
309
GRIDFORMAT_END
 95
        4
302
GRIDFORMAT
  1
GRIDFORMAT_BEGIN
 90
        0
 91
        1
 62
     0
 92
       -2
340
14
 93
        0
 40
0.045
309
GRIDFORMAT_END
 95
        8
302
GRIDFORMAT
  1
GRIDFORMAT_BEGIN
 90
        0
 91
        1
 62
     0
 92
       -2
340
14
 93
        0
 40
0.045
309
GRIDFORMAT_END
 95
       16
302
GRIDFORMAT
  1
GRIDFORMAT_BEGIN
 90
        0
 91
        1
 62
     0
 92
       -2
340
14
 93
        0
 40
0.045
309
GRIDFORMAT_END
 95
       32
302
GRIDFORMAT
  1
GRIDFORMAT_BEGIN
 90
        0
 91
        1
 62
     0
 92
       -2
340
14
 93
        0
 40
0.045
309
GRIDFORMAT_END
309
TABLEFORMAT_END
  1
CELLSTYLE_BEGIN
 90
        1
 91
        1
300
_TITLE
309
CELLSTYLE_END
300
CELLSTYLE
  1
TABLEFORMAT_BEGIN
 90
        5
170
     1
 91
        0
 92
        0
 62
   257
 93
        1
300
CONTENTFORMAT
  1
CONTENTFORMAT_BEGIN
 90
        0
 91
        0
 92
        4
 93
        0
300

 40
0.0
140
1.0
 94
        5
 62
     0
340
11
144
0.18
309
CONTENTFORMAT_END
171
     1
301
MARGIN
  1
CELLMARGIN_BEGIN
 40
0.06
 40
0.06
 40
0.06
 40
0.06
 40
0.06
 40
0.06
309
CELLMARGIN_END
 94
        6
 95
        1
302
GRIDFORMAT
  1
GRIDFORMAT_BEGIN
 90
        0
 91
        1
 62
     0
 92
       -2
340
14
 93
        0
 40
0.045
309
GRIDFORMAT_END
 95
        2
302
GRIDFORMAT
  1
GRIDFORMAT_BEGIN
 90
        0
 91
        1
 62
     0
 92
       -2
340
14
 93
        0
 40
0.045
309
GRIDFORMAT_END
 95
        4
302
GRIDFORMAT
  1
GRIDFORMAT_BEGIN
 90
        0
 91
        1
 62
     0
 92
       -2
340
14
 93
        0
 40
0.045
309
GRIDFORMAT_END
 95
        8
302
GRIDFORMAT
  1
GRIDFORMAT_BEGIN
 90
        0
 91
        1
 62
     0
 92
       -2
340
14
 93
        0
 40
0.045
309
GRIDFORMAT_END
 95
       16
302
GRIDFORMAT
  1
GRIDFORMAT_BEGIN
 90
        0
 91
        1
 62
     0
 92
       -2
340
14
 93
        0
 40
0.045
309
GRIDFORMAT_END
 95
       32
302
GRIDFORMAT
  1
GRIDFORMAT_BEGIN
 90
        0
 91
        1
 62
     0
 92
       -2
340
14
 93
        0
 40
0.045
309
GRIDFORMAT_END
309
TABLEFORMAT_END
  1
CELLSTYLE_BEGIN
 90
        2
 91
        1
300
_HEADER
309
CELLSTYLE_END
300
CELLSTYLE
  1
TABLEFORMAT_BEGIN
 90
        5
170
     1
 91
        0
 92
        0
 62
   257
 93
        1
300
CONTENTFORMAT
  1
CONTENTFORMAT_BEGIN
 90
        0
 91
        0
 92
        4
 93
        0
300

 40
0.0
140
1.0
 94
        2
 62
     0
340
11
144
0.18
309
CONTENTFORMAT_END
171
     1
301
MARGIN
  1
CELLMARGIN_BEGIN
 40
0.06
 40
0.06
 40
0.06
 40
0.06
 40
0.06
 40
0.06
309
CELLMARGIN_END
 94
        6
 95
        1
302
GRIDFORMAT
  1
GRIDFORMAT_BEGIN
 90
        0
 91
        1
 62
     0
 92
       -2
340
14
 93
        0
 40
0.045
309
GRIDFORMAT_END
 95
        2
302
GRIDFORMAT
  1
GRIDFORMAT_BEGIN
 90
        0
 91
        1
 62
     0
 92
       -2
340
14
 93
        0
 40
0.045
309
GRIDFORMAT_END
 95
        4
302
GRIDFORMAT
  1
GRIDFORMAT_BEGIN
 90
        0
 91
        1
 62
     0
 92
       -2
340
14
 93
        0
 40
0.045
309
GRIDFORMAT_END
 95
        8
302
GRIDFORMAT
  1
GRIDFORMAT_BEGIN
 90
        0
 91
        1
 62
     0
 92
       -2
340
14
 93
        0
 40
0.045
309
GRIDFORMAT_END
 95
       16
302
GRIDFORMAT
  1
GRIDFORMAT_BEGIN
 90
        0
 91
        1
 62
     0
 92
       -2
340
14
 93
        0
 40
0.045
309
GRIDFORMAT_END
 95
       32
302
GRIDFORMAT
  1
GRIDFORMAT_BEGIN
 90
        0
 91
        1
 62
     0
 92
       -2
340
14
 93
        0
 40
0.045
309
GRIDFORMAT_END
309
TABLEFORMAT_END
  1
CELLSTYLE_BEGIN
 90
        3
 91
        2
300
_DATA
309
CELLSTYLE_END
  0
ENDSEC
  0
EOF
