  0
SECTION
  2
HEADER
  9
$ACADVER
  1
AC1027
  9
$ACADMAINTVER
 70
   105
  9
$DWGCODEPAGE
  3
ANSI_1252
  9
$REQUIREDVERSIONS
160
                 0
  9
$LASTSAVEDBY
  1
matthias.ochs
  9
$INSBASE
 10
0.0
 20
0.0
 30
0.0
  9
$EXTMIN
 10
-103.3549525059605
 20
-74.49972883431542
 30
0.0
  9
$EXTMAX
 10
123.7414379672187
 20
79.11614457489245
 30
0.0
  9
$LIMMIN
 10
-127.994911588
 20
-55.076659202
  9
$LIMMAX
 10
142.591510417
 20
63.068137306
  9
$ORTHOMODE
 70
     0
  9
$REGENMODE
 70
     1
  9
$FILLMODE
 70
     1
  9
$QTEXTMODE
 70
     0
  9
$MIRRTEXT
 70
     1
  9
$LTSCALE
 40
1.0
  9
$ATTMODE
 70
     1
  9
$TEXTSIZE
 40
0.2
  9
$TRACEWID
 40
0.05
  9
$TEXTSTYLE
  7
Standard
  9
$CLAYER
  8
SK4
  9
$CELTYPE
  6
ByLayer
  9
$CECOLOR
 62
   256
  9
$CELTSCALE
 40
1.0
  9
$DISPSILH
 70
     0
  9
$DIMSCALE
 40
1.0
  9
$DIMASZ
 40
0.18
  9
$DIMEXO
 40
0.0625
  9
$DIMDLI
 40
0.38
  9
$DIMRND
 40
0.0
  9
$DIMDLE
 40
0.0
  9
$DIMEXE
 40
0.18
  9
$DIMTP
 40
0.0
  9
$DIMTM
 40
0.0
  9
$DIMTXT
 40
0.18
  9
$DIMCEN
 40
0.09
  9
$DIMTSZ
 40
0.0
  9
$DIMTOL
 70
     0
  9
$DIMLIM
 70
     0
  9
$DIMTIH
 70
     1
  9
$DIMTOH
 70
     1
  9
$DIMSE1
 70
     0
  9
$DIMSE2
 70
     0
  9
$DIMTAD
 70
     0
  9
$DIMZIN
 70
     0
  9
$DIMBLK
  1

  9
$DIMASO
 70
     1
  9
$DIMSHO
 70
     1
  9
$DIMPOST
  1

  9
$DIMAPOST
  1

  9
$DIMALT
 70
     0
  9
$DIMALTD
 70
     2
  9
$DIMALTF
 40
25.4
  9
$DIMLFAC
 40
1.0
  9
$DIMTOFL
 70
     0
  9
$DIMTVP
 40
0.0
  9
$DIMTIX
 70
     0
  9
$DIMSOXD
 70
     0
  9
$DIMSAH
 70
     0
  9
$DIMBLK1
  1

  9
$DIMBLK2
  1

  9
$DIMSTYLE
  2
Standard
  9
$DIMCLRD
 70
     0
  9
$DIMCLRE
 70
     0
  9
$DIMCLRT
 70
     0
  9
$DIMTFAC
 40
1.0
  9
$DIMGAP
 40
0.09
  9
$DIMJUST
 70
     0
  9
$DIMSD1
 70
     0
  9
$DIMSD2
 70
     0
  9
$DIMTOLJ
 70
     1
  9
$DIMTZIN
 70
     0
  9
$DIMALTZ
 70
     0
  9
$DIMALTTZ
 70
     0
  9
$DIMUPT
 70
     0
  9
$DIMDEC
 70
     4
  9
$DIMTDEC
 70
     4
  9
$DIMALTU
 70
     2
  9
$DIMALTTD
 70
     2
  9
$DIMTXSTY
  7
Standard
  9
$DIMAUNIT
 70
     0
  9
$DIMADEC
 70
     0
  9
$DIMALTRND
 40
0.0
  9
$DIMAZIN
 70
     0
  9
$DIMDSEP
 70
    46
  9
$DIMATFIT
 70
     3
  9
$DIMFRAC
 70
     0
  9
$DIMLDRBLK
  1

  9
$DIMLUNIT
 70
     2
  9
$DIMLWD
 70
    -2
  9
$DIMLWE
 70
    -2
  9
$DIMTMOVE
 70
     2
  9
$DIMFXL
 40
1.0
  9
$DIMFXLON
 70
     0
  9
$DIMJOGANG
 40
0.7853981633974483
  9
$DIMTFILL
 70
     0
  9
$DIMTFILLCLR
 70
     0
  9
$DIMARCSYM
 70
     0
  9
$DIMLTYPE
  6

  9
$DIMLTEX1
  6

  9
$DIMLTEX2
  6

  9
$DIMTXTDIRECTION
 70
     0
  9
$LUNITS
 70
     2
  9
$LUPREC
 70
     4
  9
$SKETCHINC
 40
0.1
  9
$FILLETRAD
 40
0.5
  9
$AUNITS
 70
     2
  9
$AUPREC
 70
     0
  9
$MENU
  1
.
  9
$ELEVATION
 40
0.0
  9
$PELEVATION
 40
0.0
  9
$THICKNESS
 40
0.0
  9
$LIMCHECK
 70
     0
  9
$CHAMFERA
 40
0.5
  9
$CHAMFERB
 40
0.5
  9
$CHAMFERC
 40
1.0
  9
$CHAMFERD
 40
0.0
  9
$SKPOLY
 70
     0
  9
$TDCREATE
 40
2458327.544410926
  9
$TDUCREATE
 40
2458327.461077593
  9
$TDUPDATE
 40
2458677.401678032
  9
$TDUUPDATE
 40
2458677.318344699
  9
$TDINDWG
 40
0.0124961227
  9
$TDUSRTIMER
 40
0.0010661574
  9
$USRTIMER
 70
     1
  9
$ANGBASE
 50
0.0
  9
$ANGDIR
 70
     0
  9
$PDMODE
 70
     0
  9
$PDSIZE
 40
0.0
  9
$PLINEWID
 40
0.0
  9
$SPLFRAME
 70
     0
  9
$SPLINETYPE
 70
     6
  9
$SPLINESEGS
 70
     8
  9
$HANDSEED
  5
3D4
  9
$SURFTAB1
 70
     6
  9
$SURFTAB2
 70
     6
  9
$SURFTYPE
 70
     6
  9
$SURFU
 70
     6
  9
$SURFV
 70
     6
  9
$UCSBASE
  2

  9
$UCSNAME
  2

  9
$UCSORG
 10
0.0
 20
0.0
 30
0.0
  9
$UCSXDIR
 10
1.0
 20
0.0
 30
0.0
  9
$UCSYDIR
 10
0.0
 20
1.0
 30
0.0
  9
$UCSORTHOREF
  2

  9
$UCSORTHOVIEW
 70
     0
  9
$UCSORGTOP
 10
0.0
 20
0.0
 30
0.0
  9
$UCSORGBOTTOM
 10
0.0
 20
0.0
 30
0.0
  9
$UCSORGLEFT
 10
0.0
 20
0.0
 30
0.0
  9
$UCSORGRIGHT
 10
0.0
 20
0.0
 30
0.0
  9
$UCSORGFRONT
 10
0.0
 20
0.0
 30
0.0
  9
$UCSORGBACK
 10
0.0
 20
0.0
 30
0.0
  9
$PUCSBASE
  2

  9
$PUCSNAME
  2

  9
$PUCSORG
 10
0.0
 20
0.0
 30
0.0
  9
$PUCSXDIR
 10
1.0
 20
0.0
 30
0.0
  9
$PUCSYDIR
 10
0.0
 20
1.0
 30
0.0
  9
$PUCSORTHOREF
  2

  9
$PUCSORTHOVIEW
 70
     0
  9
$PUCSORGTOP
 10
0.0
 20
0.0
 30
0.0
  9
$PUCSORGBOTTOM
 10
0.0
 20
0.0
 30
0.0
  9
$PUCSORGLEFT
 10
0.0
 20
0.0
 30
0.0
  9
$PUCSORGRIGHT
 10
0.0
 20
0.0
 30
0.0
  9
$PUCSORGFRONT
 10
0.0
 20
0.0
 30
0.0
  9
$PUCSORGBACK
 10
0.0
 20
0.0
 30
0.0
  9
$USERI1
 70
     0
  9
$USERI2
 70
     0
  9
$USERI3
 70
     0
  9
$USERI4
 70
     0
  9
$USERI5
 70
     0
  9
$USERR1
 40
0.0
  9
$USERR2
 40
0.0
  9
$USERR3
 40
0.0
  9
$USERR4
 40
0.0
  9
$USERR5
 40
0.0
  9
$WORLDVIEW
 70
     1
  9
$SHADEDGE
 70
     3
  9
$SHADEDIF
 70
    70
  9
$TILEMODE
 70
     1
  9
$MAXACTVP
 70
    64
  9
$PINSBASE
 10
0.0
 20
0.0
 30
0.0
  9
$PLIMCHECK
 70
     0
  9
$PEXTMIN
 10
1.000000000000000E+20
 20
1.000000000000000E+20
 30
1.000000000000000E+20
  9
$PEXTMAX
 10
-1.000000000000000E+20
 20
-1.000000000000000E+20
 30
-1.000000000000000E+20
  9
$PLIMMIN
 10
0.0
 20
0.0
  9
$PLIMMAX
 10
0.0
 20
0.0
  9
$UNITMODE
 70
     0
  9
$VISRETAIN
 70
     1
  9
$PLINEGEN
 70
     0
  9
$PSLTSCALE
 70
     1
  9
$TREEDEPTH
 70
  3020
  9
$CMLSTYLE
  2
Standard
  9
$CMLJUST
 70
     0
  9
$CMLSCALE
 40
1.0
  9
$PROXYGRAPHICS
 70
     1
  9
$MEASUREMENT
 70
     0
  9
$CELWEIGHT
370
    -1
  9
$ENDCAPS
280
     0
  9
$JOINSTYLE
280
     0
  9
$LWDISPLAY
290
     0
  9
$INSUNITS
 70
     0
  9
$HYPERLINKBASE
  1

  9
$STYLESHEET
  1

  9
$XEDIT
290
     1
  9
$CEPSNTYPE
380
     0
  9
$PSTYLEMODE
290
     1
  9
$FINGERPRINTGUID
  2
{7C7AD148-38DF-4CC0-ACC4-9DF40BB12FAB}
  9
$VERSIONGUID
  2
{FAEB1C32-E019-11D5-929B-00C0DF256EC4}
  9
$EXTNAMES
290
     1
  9
$PSVPSCALE
 40
0.0
  9
$OLESTARTUP
290
     0
  9
$SORTENTS
280
   127
  9
$INDEXCTL
280
     0
  9
$HIDETEXT
280
     1
  9
$XCLIPFRAME
280
     2
  9
$HALOGAP
280
     0
  9
$OBSCOLOR
 70
   257
  9
$OBSLTYPE
280
     0
  9
$INTERSECTIONDISPLAY
280
     0
  9
$INTERSECTIONCOLOR
 70
   257
  9
$DIMASSOC
280
     2
  9
$PROJECTNAME
  1

  9
$CAMERADISPLAY
290
     0
  9
$LENSLENGTH
 40
50.0
  9
$CAMERAHEIGHT
 40
0.0
  9
$STEPSPERSEC
 40
2.0
  9
$STEPSIZE
 40
6.0
  9
$3DDWFPREC
 40
2.0
  9
$PSOLWIDTH
 40
0.25
  9
$PSOLHEIGHT
 40
4.0
  9
$LOFTANG1
 40
1.570796326794897
  9
$LOFTANG2
 40
1.570796326794897
  9
$LOFTMAG1
 40
0.0
  9
$LOFTMAG2
 40
0.0
  9
$LOFTPARAM
 70
     7
  9
$LOFTNORMALS
280
     1
  9
$LATITUDE
 40
37.795
  9
$LONGITUDE
 40
-122.394
  9
$NORTHDIRECTION
 40
0.0
  9
$TIMEZONE
 70
 -8000
  9
$LIGHTGLYPHDISPLAY
280
     1
  9
$TILEMODELIGHTSYNCH
280
     1
  9
$SOLIDHIST
280
     0
  9
$SHOWHIST
280
     1
  9
$DWFFRAME
280
     2
  9
$DGNFRAME
280
     2
  9
$REALWORLDSCALE
290
     1
  9
$INTERFERECOLOR
 62
   256
  9
$CSHADOW
280
     0
  9
$SHADOWPLANELOCATION
 40
0.0
  0
ENDSEC
  0
SECTION
  2
CLASSES
  0
CLASS
  1
ACDBDICTIONARYWDFLT
  2
AcDbDictionaryWithDefault
  3
ObjectDBX Classes
 90
        0
 91
       21
280
     0
281
     0
  0
CLASS
  1
SCALE
  2
AcDbScale
  3
ObjectDBX Classes
 90
     1153
 91
       21
280
     0
281
     0
  0
CLASS
  1
VISUALSTYLE
  2
AcDbVisualStyle
  3
ObjectDBX Classes
 90
     4095
 91
       21
280
     0
281
     0
  0
CLASS
  1
MATERIAL
  2
AcDbMaterial
  3
ObjectDBX Classes
 90
     1153
 91
       21
280
     0
281
     0
  0
CLASS
  1
DICTIONARYVAR
  2
AcDbDictionaryVar
  3
ObjectDBX Classes
 90
        0
 91
       19
280
     0
281
     0
  0
CLASS
  1
ACDBPLACEHOLDER
  2
AcDbPlaceHolder
  3
ObjectDBX Classes
 90
        0
 91
        1
280
     0
281
     0
  0
CLASS
  1
LAYOUT
  2
AcDbLayout
  3
ObjectDBX Classes
 90
        0
 91
        1
280
     0
281
     0
  0
CLASS
  1
TABLESTYLE
  2
AcDbTableStyle
  3
ObjectDBX Classes
 90
     4095
 91
       20
280
     0
281
     0
  0
CLASS
  1
MLEADERSTYLE
  2
AcDbMLeaderStyle
  3
ACDB_MLEADERSTYLE_CLASS
 90
     4095
 91
       20
280
     0
281
     0
  0
CLASS
  1
SUN
  2
AcDbSun
  3
SCENEOE
 90
     1153
 91
       21
280
     0
281
     0
  0
CLASS
  1
SORTENTSTABLE
  2
AcDbSortentsTable
  3
ObjectDBX Classes
 90
        0
 91
       17
280
     0
281
     0
  0
CLASS
  1
CELLSTYLEMAP
  2
AcDbCellStyleMap
  3
ObjectDBX Classes
 90
     1152
 91
        9
280
     0
281
     0
  0
ENDSEC
  0
SECTION
  2
TABLES
  0
TABLE
  2
VPORT
  5
8
330
0
100
AcDbSymbolTable
 70
     1
  0
VPORT
  5
1D1
330
8
100
AcDbSymbolTableRecord
100
AcDbViewportTableRecord
  2
*Active
 70
     0
 10
0.0
 20
0.0
 11
1.0
 21
1.0
 12
60.83556530633376
 22
20.87127158763881
 13
0.0
 23
0.0
 14
0.5
 24
0.5
 15
0.5
 25
0.5
 16
0.0
 26
0.0
 36
1.0
 17
0.0
 27
0.0
 37
0.0
 40
169.7565246132349
 41
1.831002331002331
 42
50.0
 43
0.0
 44
0.0
 50
0.0
 51
0.0
 71
    16
 72
   100
 73
     1
 74
     3
 75
     0
 76
     0
 77
     0
 78
     0
281
     0
 65
     1
110
0.0
120
0.0
130
0.0
111
1.0
121
0.0
131
0.0
112
0.0
122
1.0
132
0.0
 79
     0
146
0.0
348
203
 60
     3
 61
     5
292
     1
282
     1
141
0.0
142
0.0
 63
   256
361
2A1
  0
ENDTAB
  0
TABLE
  2
LTYPE
  5
5
330
0
100
AcDbSymbolTable
 70
     8
  0
LTYPE
  5
14
330
5
100
AcDbSymbolTableRecord
100
AcDbLinetypeTableRecord
  2
ByBlock
 70
     0
  3

 72
    65
 73
     0
 40
0.0
  0
LTYPE
  5
15
330
5
100
AcDbSymbolTableRecord
100
AcDbLinetypeTableRecord
  2
ByLayer
 70
     0
  3

 72
    65
 73
     0
 40
0.0
  0
LTYPE
  5
16
330
5
100
AcDbSymbolTableRecord
100
AcDbLinetypeTableRecord
  2
Continuous
 70
     0
  3
Solid line
 72
    65
 73
     0
 40
0.0
  0
LTYPE
  5
20
330
5
100
AcDbSymbolTableRecord
100
AcDbLinetypeTableRecord
  2
PUNKT
 70
     0
  3
..............
 72
    65
 73
     2
 40
1.5
 49
0.7
 74
     0
 49
-0.8
 74
     0
  0
LTYPE
  5
21
330
5
100
AcDbSymbolTableRecord
100
AcDbLinetypeTableRecord
  2
GESTRICHELT
 70
     0
  3
-- -- -- -- --
 72
    65
 73
     7
 40
2.8
 49
0.9
 74
     0
 49
0.0
 74
     0
 49
0.9
 74
     0
 49
0.0
 74
     0
 49
0.2
 74
     0
 49
0.0
 74
     0
 49
-0.8
 74
     0
  0
LTYPE
  5
22
330
5
100
AcDbSymbolTableRecord
100
AcDbLinetypeTableRecord
  2
STRICHPUNKT
 70
     0
  3
--.--.--.--.--
 72
    65
 73
     4
 40
8.8
 49
5.5
 74
     0
 49
-1.3
 74
     0
 49
0.7
 74
     0
 49
-1.3
 74
     0
  0
LTYPE
  5
25
330
5
100
AcDbSymbolTableRecord
100
AcDbLinetypeTableRecord
  2
PHANTOM
 70
     0
  3
--..--..--..--
 72
    65
 73
     6
 40
14.2
 49
7.0
 74
     0
 49
-1.8
 74
     0
 49
0.9
 74
     0
 49
-1.8
 74
     0
 49
0.9
 74
     0
 49
-1.8
 74
     0
  0
LTYPE
  5
24B
330
5
100
AcDbSymbolTableRecord
100
AcDbLinetypeTableRecord
  2
DASH
 70
     0
  3
DASH _ _ _ _ _
 72
    65
 73
     2
 40
0.75
 49
0.4
 74
     0
 49
-0.35
 74
     0
  0
LTYPE
  5
24C
330
5
100
AcDbSymbolTableRecord
100
AcDbLinetypeTableRecord
  2
LONGDASH_DASH
 70
     0
  3
LONGDASH_DASH __ . __ . __
 72
    65
 73
     4
 40
0.85
 49
0.4
 74
     0
 49
-0.2
 74
     0
 49
0.05
 74
     0
 49
-0.2
 74
     0
  0
LTYPE
  5
24D
330
5
100
AcDbSymbolTableRecord
100
AcDbLinetypeTableRecord
  2
LONGDASH_DASH_DASH
 70
     0
  3
LONGDASH_DASH_DASH __ . . __ . . __
 72
    65
 73
     6
 40
1.1
 49
0.4
 74
     0
 49
-0.2
 74
     0
 49
0.05
 74
     0
 49
-0.2
 74
     0
 49
0.05
 74
     0
 49
-0.2
 74
     0
  0
ENDTAB
  0
TABLE
  2
LAYER
  5
2
102
{ACAD_XDICTIONARY
360
26A
102
}
330
0
100
AcDbSymbolTable
 70
    17
  0
LAYER
  5
214
330
2
100
AcDbSymbolTableRecord
100
AcDbLayerTableRecord
  2
200
 70
     0
 62
     2
  6
Continuous
370
    50
390
F
347
212
348
0
  0
LAYER
  5
24E
330
2
100
AcDbSymbolTableRecord
100
AcDbLayerTableRecord
  2
0
 70
     0
 62
     1
  6
Continuous
370
    -3
390
F
347
212
348
0
  0
LAYER
  5
24F
330
2
100
AcDbSymbolTableRecord
100
AcDbLayerTableRecord
  2
1
 70
     0
 62
     4
  6
Continuous
370
    50
390
F
347
212
348
0
  0
LAYER
  5
250
330
2
100
AcDbSymbolTableRecord
100
AcDbLayerTableRecord
  2
2
 70
     0
 62
     7
  6
Continuous
370
    25
390
F
347
212
348
0
  0
LAYER
  5
251
330
2
100
AcDbSymbolTableRecord
100
AcDbLayerTableRecord
  2
3
 70
     0
 62
     1
  6
DASH
370
    35
390
F
347
212
348
0
  0
LAYER
  5
252
330
2
100
AcDbSymbolTableRecord
100
AcDbLayerTableRecord
  2
4
 70
     0
 62
     2
  6
LONGDASH_DASH
370
    25
390
F
347
212
348
0
  0
LAYER
  5
253
330
2
100
AcDbSymbolTableRecord
100
AcDbLayerTableRecord
  2
6
 70
     0
 62
     5
  6
Continuous
370
    -3
390
F
347
212
348
0
  0
LAYER
  5
254
330
2
100
AcDbSymbolTableRecord
100
AcDbLayerTableRecord
  2
CUT
 70
     0
 62
     1
  6
Continuous
370
    25
390
F
347
212
348
0
  0
LAYER
  5
255
330
2
100
AcDbSymbolTableRecord
100
AcDbLayerTableRecord
  2
NOCUT
 70
     0
 62
     7
  6
Continuous
370
    25
390
F
347
212
348
0
  0
LAYER
  5
256
330
2
100
AcDbSymbolTableRecord
100
AcDbLayerTableRecord
  2
SK1
 70
     0
 62
     4
  6
Continuous
370
    50
390
F
347
212
348
0
  0
LAYER
  5
257
330
2
100
AcDbSymbolTableRecord
100
AcDbLayerTableRecord
  2
SK2
 70
     0
 62
     7
  6
Continuous
370
    25
390
F
347
212
348
0
  0
LAYER
  5
258
330
2
100
AcDbSymbolTableRecord
100
AcDbLayerTableRecord
  2
SK3
 70
     0
 62
     1
  6
DASH
370
    35
390
F
347
212
348
0
  0
LAYER
  5
259
330
2
100
AcDbSymbolTableRecord
100
AcDbLayerTableRecord
  2
SK4
 70
     0
 62
     2
  6
LONGDASH_DASH
370
    25
390
F
347
212
348
0
  0
LAYER
  5
25A
330
2
100
AcDbSymbolTableRecord
100
AcDbLayerTableRecord
  2
SK6
 70
     0
 62
     5
  6
Continuous
370
    -3
390
F
347
212
348
0
  0
LAYER
  5
25B
330
2
100
AcDbSymbolTableRecord
100
AcDbLayerTableRecord
  2
INFTOTAL
 70
     0
 62
     9
  6
Continuous
370
    18
390
F
347
212
348
0
  0
LAYER
  5
355
330
2
100
AcDbSymbolTableRecord
100
AcDbLayerTableRecord
  2
7
 70
     0
 62
     5
  6
Continuous
370
    18
390
F
347
212
348
0
1001
AcAecLayerStandard
1000

1000

  0
LAYER
  5
389
330
2
100
AcDbSymbolTableRecord
100
AcDbLayerTableRecord
  2
11
 70
     0
 62
     4
  6
Continuous
370
    50
390
F
347
212
348
0
1001
AcAecLayerStandard
1000

1000

  0
ENDTAB
  0
TABLE
  2
STYLE
  5
3
330
0
100
AcDbSymbolTable
 70
     3
  0
STYLE
  5
11
330
3
100
AcDbSymbolTableRecord
100
AcDbTextStyleTableRecord
  2
Standard
 70
     0
 40
0.0
 41
1.0
 50
0.0
 71
     0
 42
0.2
  3
txt
  4

  0
STYLE
  5
213
330
3
100
AcDbSymbolTableRecord
100
AcDbTextStyleTableRecord
  2
BMG_Text
 70
     0
 40
3.5
 41
1.0
 50
0.0
 71
     0
 42
0.2
  3
monos.ttf
  4

1001
ACAD
1000
Monospac821 BT
1071
       49
  0
STYLE
  5
35B
330
3
100
AcDbSymbolTableRecord
100
AcDbTextStyleTableRecord
  2
SLDTEXTSTYLE0
 70
     0
 40
0.0
 41
0.605
 50
0.0
 71
     0
 42
0.2
  3
TXT
  4

  0
ENDTAB
  0
TABLE
  2
VIEW
  5
6
330
0
100
AcDbSymbolTable
 70
     0
  0
ENDTAB
  0
TABLE
  2
UCS
  5
7
330
0
100
AcDbSymbolTable
 70
     0
  0
ENDTAB
  0
TABLE
  2
APPID
  5
9
330
0
100
AcDbSymbolTable
 70
     3
  0
APPID
  5
12
330
9
100
AcDbSymbolTableRecord
100
AcDbRegAppTableRecord
  2
ACAD
 70
     0
  0
APPID
  5
356
330
9
100
AcDbSymbolTableRecord
100
AcDbRegAppTableRecord
  2
AcAecLayerStandard
 70
     0
  0
APPID
  5
35E
330
9
100
AcDbSymbolTableRecord
100
AcDbRegAppTableRecord
  2
PE_URL
 70
     0
  0
ENDTAB
  0
TABLE
  2
DIMSTYLE
  5
A
330
0
100
AcDbSymbolTable
 70
     6
100
AcDbDimStyleTable
  0
DIMSTYLE
105
28
330
A
100
AcDbSymbolTableRecord
100
AcDbDimStyleTableRecord
  2
Standard
 70
     0
178
     0
340
11
  0
DIMSTYLE
105
357
330
A
100
AcDbSymbolTableRecord
100
AcDbDimStyleTableRecord
  2
Matthias
 70
     0
 41
3.0
 44
2.0
 73
     0
 77
     1
140
3.0
147
2.0
178
     0
340
11
  0
DIMSTYLE
105
359
330
A
100
AcDbSymbolTableRecord
100
AcDbDimStyleTableRecord
  2
ISO-25
 70
     0
 41
2.5
 42
0.625
 43
3.75
 44
1.25
 73
     0
 74
     0
 77
     1
 78
     8
140
2.5
141
2.5
143
0.0393700787
147
0.625
171
     3
172
     1
178
     0
271
     2
272
     2
274
     3
278
    44
283
     0
284
     8
340
11
  0
DIMSTYLE
105
35A
330
A
100
AcDbSymbolTableRecord
100
AcDbDimStyleTableRecord
  2
SLDDIMSTYLE0
 70
     0
 41
3.5
 44
0.0
 45
0.000000001
 73
     0
 74
     0
 77
     1
 78
    12
 79
     3
140
3.5
144
0.5
147
0.875
173
     1
178
     0
271
     2
272
     1
276
     2
284
    12
340
35B
  0
DIMSTYLE
105
35C
330
A
100
AcDbSymbolTableRecord
100
AcDbDimStyleTableRecord
  2
SLDDIMSTYLE1
 70
     0
 41
3.5
 44
0.0
 45
0.000000001
 73
     0
 74
     0
 77
     1
 78
    12
 79
     3
140
3.5
144
0.5
147
0.875
173
     1
178
     0
271
     2
272
     3
276
     2
284
    12
340
35B
  0
DIMSTYLE
105
35D
330
A
100
AcDbSymbolTableRecord
100
AcDbDimStyleTableRecord
  2
SLDDIMSTYLE2
 70
     0
 41
3.5
 44
0.0
 45
0.000000001
 73
     0
 74
     0
 77
     1
 78
    12
 79
     3
140
3.5
147
0.875
173
     1
178
     0
271
     2
272
     0
276
     2
284
    12
340
35B
  0
ENDTAB
  0
TABLE
  2
BLOCK_RECORD
  5
1
330
0
100
AcDbSymbolTable
 70
     2
  0
BLOCK_RECORD
  5
1D
102
{ACAD_XDICTIONARY
360
379
102
}
330
1
100
AcDbSymbolTableRecord
100
AcDbBlockTableRecord
  2
*Model_Space
340
1E
 70
     0
280
     1
281
     0
  0
BLOCK_RECORD
  5
1B
330
1
100
AcDbSymbolTableRecord
100
AcDbBlockTableRecord
  2
*Paper_Space
340
1C
 70
     0
280
     1
281
     0
  0
ENDTAB
  0
ENDSEC
  0
SECTION
  2
BLOCKS
  0
BLOCK
  5
1FC
330
1D
100
AcDbEntity
  8
0
100
AcDbBlockBegin
  2
*Model_Space
 70
     0
 10
0.0
 20
0.0
 30
0.0
  3
*Model_Space
  1

  0
ENDBLK
  5
1FD
330
1D
100
AcDbEntity
  8
0
100
AcDbBlockEnd
  0
BLOCK
  5
1FA
330
1B
100
AcDbEntity
 67
     1
  8
0
100
AcDbBlockBegin
  2
*Paper_Space
 70
     0
 10
0.0
 20
0.0
 30
0.0
  3
*Paper_Space
  1

  0
ENDBLK
  5
1FB
330
1B
100
AcDbEntity
 67
     1
  8
0
100
AcDbBlockEnd
  0
ENDSEC
  0
SECTION
  2
ENTITIES
  0
LINE
  5
29
330
1D
100
AcDbEntity
  8
4
100
AcDbLine
 10
7.822908113
 20
-30.588745783
 30
0.0
 11
22.174620986
 21
-38.219686247
 31
0.0
  0
LINE
  5
2A
330
1D
100
AcDbEntity
  8
1
100
AcDbLine
 10
26.48120001
 20
-37.000000477
 30
0.0
 11
37.000000817
 21
-36.999999894
 31
0.0
  0
ARC
  5
2B
330
1D
100
AcDbEntity
  8
1
100
AcDbCircle
 10
26.468662135
 20
-51.979084575
 30
0.0
 40
14.979089345
100
AcDbArc
 50
89.952041984
 51
151.929253223
  0
LINE
  5
2C
330
1D
100
AcDbEntity
  8
3
100
AcDbLine
 10
13.753248379
 20
-26.946542785
 30
0.0
 11
32.661051576
 21
-37.000000128
 31
0.0
  0
LINE
  5
2D
330
1D
100
AcDbEntity
  8
3
100
AcDbLine
 10
9.008219466
 20
-31.218985096
 30
0.0
 11
13.753248379
 21
-26.946542785
 31
0.0
  0
LINE
  5
2E
330
1D
100
AcDbEntity
  8
3
100
AcDbLine
 10
8.119589649
 20
-37.541914731
 30
0.0
 11
9.008219466
 21
-31.218985096
 31
0.0
  0
LINE
  5
2F
330
1D
100
AcDbEntity
  8
3
100
AcDbLine
 10
8.119589649
 20
-37.541914731
 30
0.0
 11
13.753248379
 21
-26.946542785
 31
0.0
  0
LINE
  5
30
330
1D
100
AcDbEntity
  8
3
100
AcDbLine
 10
15.696571725
 20
-41.570665587
 30
0.0
 11
8.119589649
 21
-37.541914731
 31
0.0
  0
LINE
  5
31
330
1D
100
AcDbEntity
  8
3
100
AcDbLine
 10
1.376465741
 20
-7.015668757
 30
0.0
 11
13.35077462
 21
-27.308931707
 31
0.0
  0
LINE
  5
32
330
1D
100
AcDbEntity
  8
4
100
AcDbLine
 10
12.237092298
 20
-30.340964132
 30
0.0
 11
-0.0000000000000018
 21
-9.602353305838353
 31
0.0
  0
LINE
  5
33
330
1D
100
AcDbEntity
  8
3
100
AcDbLine
 10
9.559509173
 20
-30.72260172
 30
0.0
 11
0.0
 21
-14.52178000877557
 31
0.0
  0
LINE
  5
34
330
1D
100
AcDbEntity
  8
4
100
AcDbLine
 10
75.700926738
 20
0.0
 30
0.0
 11
-0.0000000000000142
 21
0.0
 31
0.0
  0
LINE
  5
35
330
1D
100
AcDbEntity
  8
SK3
100
AcDbLine
 10
-16.999980383
 20
-9.000000408
 30
0.0
 11
-13.267955003
 21
-8.000007221
 31
0.0
  0
LINE
  5
36
330
1D
100
AcDbEntity
  8
SK3
100
AcDbLine
 10
-37.000005811
 20
-9.250000408
 30
0.0
 11
-36.278326123
 21
-8.000000408
 31
0.0
  0
LINE
  5
37
330
1D
100
AcDbEntity
  8
SK3
100
AcDbLine
 10
-36.278326123
 20
8.000007221
 30
0.0
 11
-37.000005811
 21
9.25002248
 31
0.0
  0
LINE
  5
38
330
1D
100
AcDbEntity
  8
SK3
100
AcDbLine
 10
-37.000005811
 20
9.25002248
 30
0.0
 11
-39.567022412
 21
9.25002248
 31
0.0
  0
LINE
  5
39
330
1D
100
AcDbEntity
  8
SK3
100
AcDbLine
 10
-39.567022412
 20
-9.250000408
 30
0.0
 11
-37.000005811
 21
-9.250000408
 31
0.0
  0
LINE
  5
3A
330
1D
100
AcDbEntity
  8
SK3
100
AcDbLine
 10
-37.000005811
 20
-9.250000408
 30
0.0
 11
-37.000005811
 21
9.25002248
 31
0.0
  0
LINE
  5
3B
330
1D
100
AcDbEntity
  8
SK3
100
AcDbLine
 10
-36.278326123
 20
-8.000000408
 30
0.0
 11
-0.0000000000000071
 21
-8.000000408
 31
0.0
  0
LINE
  5
3C
330
1D
100
AcDbEntity
  8
SK3
100
AcDbLine
 10
0.0
 20
8.00002248
 30
0.0
 11
-36.278326123
 21
8.00002248
 31
0.0
  0
LINE
  5
3D
330
1D
100
AcDbEntity
  8
SK3
100
AcDbLine
 10
-36.278326123
 20
8.00002248
 30
0.0
 11
-36.278326123
 21
-8.000000408
 31
0.0
  0
LINE
  5
3E
330
1D
100
AcDbEntity
  8
SK3
100
AcDbLine
 10
-17.000005811
 20
-9.000000408
 30
0.0
 11
-16.99988374
 21
9.000007221
 31
0.0
  0
LINE
  5
3F
330
1D
100
AcDbEntity
  8
11
100
AcDbLine
 10
-16.99988374
 20
9.000007221
 30
0.0
 11
-36.855596631
 21
9.000007221
 31
0.0
  0
LINE
  5
40
330
1D
100
AcDbEntity
  8
11
100
AcDbLine
 10
-36.855596631
 20
-9.000000408
 30
0.0
 11
-16.999980383
 21
-9.000000408
 31
0.0
  0
LINE
  5
41
330
1D
100
AcDbEntity
  8
SK3
100
AcDbLine
 10
-17.000005811
 20
9.000007221
 30
0.0
 11
-13.267955003
 21
8.000007221
 31
0.0
  0
LINE
  5
42
330
1D
100
AcDbEntity
  8
SK2
100
AcDbLine
 10
-50.0
 20
-18.0
 30
0.0
 11
-35.0
 21
-18.0
 31
0.0
  0
LINE
  5
43
330
1D
100
AcDbEntity
  8
SK2
100
AcDbLine
 10
-48.0
 20
-18.0
 30
0.0
 11
-48.45
 21
-14.5
 31
0.0
  0
LINE
  5
44
330
1D
100
AcDbEntity
  8
SK2
100
AcDbLine
 10
-48.45
 20
-14.5
 30
0.0
 11
-47.55
 21
-14.5
 31
0.0
  0
LINE
  5
45
330
1D
100
AcDbEntity
  8
SK2
100
AcDbLine
 10
-47.55
 20
-14.5
 30
0.0
 11
-48.0
 21
-18.0
 31
0.0
  0
LINE
  5
46
330
1D
100
AcDbEntity
  8
SK2
100
AcDbLine
 10
-50.0
 20
18.0
 30
0.0
 11
-35.0
 21
18.0
 31
0.0
  0
LINE
  5
47
330
1D
100
AcDbEntity
  8
SK2
100
AcDbLine
 10
-48.0
 20
18.0
 30
0.0
 11
-47.55
 21
14.5
 31
0.0
  0
LINE
  5
48
330
1D
100
AcDbEntity
  8
SK2
100
AcDbLine
 10
-47.55
 20
14.5
 30
0.0
 11
-48.45
 21
14.5
 31
0.0
  0
LINE
  5
49
330
1D
100
AcDbEntity
  8
SK2
100
AcDbLine
 10
-48.45
 20
14.5
 30
0.0
 11
-48.0
 21
18.0
 31
0.0
  0
LINE
  5
4A
330
1D
100
AcDbEntity
  8
SK2
100
AcDbLine
 10
-48.0
 20
-14.5
 30
0.0
 11
-48.0
 21
14.5
 31
0.0
  0
TEXT
  5
4B
330
1D
100
AcDbEntity
  8
SK2
100
AcDbText
 10
-49.5
 20
0.331405848
 30
0.0
 40
3.5
  1
36
 50
90.0
  7
BMG_Text
100
AcDbText
  0
CIRCLE
  5
4C
330
1D
100
AcDbEntity
  8
SK2
100
AcDbCircle
 10
-50.75
 20
-1.918594152
 30
0.0
 40
1.25
  0
LINE
  5
4D
330
1D
100
AcDbEntity
  8
SK2
100
AcDbLine
 10
-49.5
 20
-3.168594152
 30
0.0
 11
-52.0
 21
-0.668594152
 31
0.0
  0
TEXT
  5
4E
330
1D
100
AcDbEntity
  8
SK6
100
AcDbText
 10
-40.89370584444092
 20
-52.22717743252527
 30
0.0
 40
3.5
  1
319.602N
  7
BMG_Text
100
AcDbText
  0
ARC
  5
50
330
1D
100
AcDbEntity
  8
SK1
100
AcDbCircle
 10
-0.3
 20
-18.2
 30
0.0
 40
0.5
100
AcDbArc
 50
53.130102354
 51
105.0
  0
ARC
  5
51
330
1D
100
AcDbEntity
  8
SK1
100
AcDbCircle
 10
-0.3
 20
18.2
 30
0.0
 40
0.5
100
AcDbArc
 50
255.0
 51
306.8698976460001
  0
ARC
  5
52
330
1D
100
AcDbEntity
  8
SK1
100
AcDbCircle
 10
-39.018504542
 20
-17.0
 30
0.0
 40
1.0
100
AcDbArc
 50
227.039385809
 51
280.0
  0
ARC
  5
53
330
1D
100
AcDbEntity
  8
SK1
100
AcDbCircle
 10
-39.018504542
 20
17.0
 30
0.0
 40
1.0
100
AcDbArc
 50
80.0
 51
132.960614191
  0
LINE
  5
54
330
1D
100
AcDbEntity
  8
SK1
100
AcDbLine
 10
-35.000000149
 20
-17.999999225
 30
0.0
 11
-1.485441462
 21
-17.999999225
 31
0.0
  0
LINE
  5
55
330
1D
100
AcDbEntity
  8
SK1
100
AcDbLine
 10
-1.485441462
 20
17.999999225
 30
0.0
 11
-35.000000149
 21
17.999999225
 31
0.0
  0
LINE
  5
56
330
1D
100
AcDbEntity
  8
SK1
100
AcDbLine
 10
-1.485441462
 20
-17.999999225
 30
0.0
 11
-0.429409527
 21
-17.71703735
 31
0.0
  0
LINE
  5
57
330
1D
100
AcDbEntity
  8
SK1
100
AcDbLine
 10
-0.429409527
 20
17.71703735
 30
0.0
 11
-1.485441462
 21
17.999999225
 31
0.0
  0
LINE
  5
58
330
1D
100
AcDbEntity
  8
SK1
100
AcDbLine
 10
-35.000000149
 20
17.999999225
 30
0.0
 11
-37.187486887
 21
17.692569643
 31
0.0
  0
LINE
  5
59
330
1D
100
AcDbEntity
  8
SK1
100
AcDbLine
 10
-37.187486887
 20
-17.692569643
 30
0.0
 11
-35.000000149
 21
-17.999999225
 31
0.0
  0
LINE
  5
5A
330
1D
100
AcDbEntity
  8
SK1
100
AcDbLine
 10
-38.844857365
 20
-17.984807491
 30
0.0
 11
-37.187486887
 21
-17.692569643
 31
0.0
  0
LINE
  5
5B
330
1D
100
AcDbEntity
  8
SK1
100
AcDbLine
 10
-37.187486887
 20
17.692569643
 30
0.0
 11
-38.844857365
 21
17.984807491
 31
0.0
  0
LINE
  5
5C
330
1D
100
AcDbEntity
  8
SK1
100
AcDbLine
 10
-39.700001478
 20
-17.731823027
 30
0.0
 11
-39.700001478
 21
17.731823027
 31
0.0
  0
LINE
  5
5D
330
1D
100
AcDbEntity
  8
SK1
100
AcDbLine
 10
-1.485441462
 20
17.999999225
 30
0.0
 11
-1.485441462
 21
-17.999999225
 31
0.0
  0
ARC
  5
60
330
1D
100
AcDbEntity
  8
SK1
100
AcDbCircle
 10
-17.151652678
 20
0.577252524
 30
0.0
 40
6.430223496
100
AcDbArc
 50
187.841112432
 51
274.921490825
  0
LINE
  5
61
330
1D
100
AcDbEntity
  8
SK1
100
AcDbLine
 10
-15.100000426
 20
-5.829263944
 30
0.0
 11
-16.599999741
 21
-5.829263944
 31
0.0
  0
ARC
  5
62
330
1D
100
AcDbEntity
  8
SK1
100
AcDbCircle
 10
-15.047333151
 20
-0.658317935
 30
0.0
 40
5.171214216
100
AcDbArc
 50
269.4164494809999
 51
306.07733871
  0
ARC
  5
63
330
1D
100
AcDbEntity
  8
SK1
100
AcDbCircle
 10
-14.883449976
 20
0.0705541
 30
0.0
 40
5.691580085
100
AcDbArc
 50
300.413923823
 51
356.2670797729999
  0
ARC
  5
66
330
1D
100
AcDbEntity
  8
SK1
100
AcDbCircle
 10
-14.860527871
 20
-0.056419493
 30
0.0
 40
5.667800402
100
AcDbArc
 50
3.605422828
 51
59.71357357600001
  0
ARC
  5
67
330
1D
100
AcDbEntity
  8
SK1
100
AcDbCircle
 10
-15.047333151
 20
0.658317935
 30
0.0
 40
5.171214216
100
AcDbArc
 50
53.92266128999999
 51
90.58355051899999
  0
LINE
  5
68
330
1D
100
AcDbEntity
  8
SK1
100
AcDbLine
 10
-15.100000426
 20
5.829263944
 30
0.0
 11
-16.599999741
 21
5.829263944
 31
0.0
  0
ARC
  5
69
330
1D
100
AcDbEntity
  8
SK1
100
AcDbCircle
 10
-17.151557449
 20
-0.577371735
 30
0.0
 40
6.4303341
100
AcDbArc
 50
85.079445688
 51
172.157951055
  0
LINE
  5
6B
330
1D
100
AcDbEntity
  8
SK1
100
AcDbLine
 10
-35.000000149
 20
0.300000014
 30
0.0
 11
-35.000000149
 21
17.999999225
 31
0.0
  0
LINE
  5
6C
330
1D
100
AcDbEntity
  8
SK1
100
AcDbLine
 10
-35.000000149
 20
-17.999999225
 30
0.0
 11
-35.000000149
 21
-0.300000014
 31
0.0
  0
ARC
  5
6E
330
1D
100
AcDbEntity
  8
SK1
100
AcDbCircle
 10
-16.638061872
 20
1.243051802
 30
0.0
 40
6.975709189
100
AcDbArc
 50
192.779734618
 51
270.312629191
  0
ARC
  5
6F
330
1D
100
AcDbEntity
  8
SK1
100
AcDbCircle
 10
-16.638061872
 20
-1.243051802
 30
0.0
 40
6.975709189
100
AcDbArc
 50
89.687370809
 51
167.220265382
  0
LINE
  5
71
330
1D
100
AcDbEntity
  8
SK1
100
AcDbLine
 10
-2.300000051
 20
0.300000014
 30
0.0
 11
-10.648921132
 21
0.300000014
 31
0.0
  0
ARC
  5
72
330
1D
100
AcDbEntity
  8
SK1
100
AcDbCircle
 10
-15.13891012
 20
0.0
 30
0.0
 40
4.5
100
AcDbArc
 50
3.822553729
 51
131.913946397
  0
LINE
  5
73
330
1D
100
AcDbEntity
  8
SK1
100
AcDbLine
 10
-18.888209015
 20
4.334665369
 30
0.0
 11
-18.144972622
 21
3.348670434
 31
0.0
  0
ARC
  5
74
330
1D
100
AcDbEntity
  8
SK1
100
AcDbCircle
 10
-15.13891012
 20
-0.281083258
 30
0.0
 40
5.943171302
100
AcDbArc
 50
73.357788598
 51
129.149079114
  0
ARC
  5
75
330
1D
100
AcDbEntity
  8
SK1
100
AcDbCircle
 10
-15.172054594
 20
-0.92607088
 30
0.0
 40
6.578053726
100
AcDbArc
 50
61.19077901399999
 51
74.722003279
  0
ARC
  5
76
330
1D
100
AcDbEntity
  8
SK1
100
AcDbCircle
 10
-15.172054594
 20
0.92607088
 30
0.0
 40
6.578053726
100
AcDbArc
 50
285.277996721
 51
298.809220986
  0
ARC
  5
77
330
1D
100
AcDbEntity
  8
SK1
100
AcDbCircle
 10
-15.13891012
 20
0.281083258
 30
0.0
 40
5.945272702
100
AcDbArc
 50
230.850920886
 51
286.642211402
  0
LINE
  5
78
330
1D
100
AcDbEntity
  8
SK1
100
AcDbLine
 10
-18.144972622
 20
-3.348670434
 30
0.0
 11
-18.888209015
 21
-4.334665369
 31
0.0
  0
ARC
  5
79
330
1D
100
AcDbEntity
  8
SK1
100
AcDbCircle
 10
-15.13891012
 20
0.0
 30
0.0
 40
4.5
100
AcDbArc
 50
228.086053603
 51
356.177446271
  0
LINE
  5
7A
330
1D
100
AcDbEntity
  8
SK1
100
AcDbLine
 10
-10.648921132
 20
-0.300000014
 30
0.0
 11
-2.300000051
 21
-0.300000014
 31
0.0
  0
LINE
  5
7C
330
1D
100
AcDbEntity
  8
SK1
100
AcDbLine
 10
-37.187486887
 20
-17.692569643
 30
0.0
 11
-37.187486887
 21
17.692569643
 31
0.0
  0
LINE
  5
7D
330
1D
100
AcDbEntity
  8
SK1
100
AcDbLine
 10
-35.700000822
 20
0.300000014
 30
0.0
 11
-19.628899172
 21
0.300000014
 31
0.0
  0
ARC
  5
7E
330
1D
100
AcDbEntity
  8
SK1
100
AcDbCircle
 10
-35.700001112
 20
0.0
 30
0.0
 40
0.300000014
100
AcDbArc
 50
89.99994470200001
 51
270.000055298
  0
LINE
  5
7F
330
1D
100
AcDbEntity
  8
SK1
100
AcDbLine
 10
-19.628899172
 20
-0.300000014
 30
0.0
 11
-35.700000822
 21
-0.300000014
 31
0.0
  0
LINE
  5
80
330
1D
100
AcDbEntity
  8
SK1
100
AcDbLine
 10
-15.100000426
 20
5.732553545
 30
0.0
 11
-16.599999741
 21
5.732553545
 31
0.0
  0
ARC
  5
81
330
1D
100
AcDbEntity
  8
SK1
100
AcDbCircle
 10
-15.099290668
 20
1.171760213
 30
0.0
 40
4.560793388
100
AcDbArc
 50
68.647989393
 51
90.008916468
  0
ARC
  5
82
330
1D
100
AcDbEntity
  8
SK1
100
AcDbCircle
 10
-16.05
 20
-0.255039452
 30
0.0
 40
5.393683215
100
AcDbArc
 50
121.789368174
 51
144.394036889
  0
ARC
  5
83
330
1D
100
AcDbEntity
  8
SK1
100
AcDbCircle
 10
-17.43781368
 20
-0.203528891
 30
0.0
 40
4.305312845
100
AcDbArc
 50
134.131013314
 51
173.29489975
  0
ARC
  5
85
330
1D
100
AcDbEntity
  8
SK1
100
AcDbCircle
 10
-17.43781368
 20
0.203528891
 30
0.0
 40
4.307727478
100
AcDbArc
 50
186.70510025
 51
225.868986686
  0
ARC
  5
86
330
1D
100
AcDbEntity
  8
SK1
100
AcDbCircle
 10
-16.05
 20
0.255039452
 30
0.0
 40
5.395994918
100
AcDbArc
 50
215.605963111
 51
238.210631826
  0
ARC
  5
87
330
1D
100
AcDbEntity
  8
SK1
100
AcDbCircle
 10
-15.099290668
 20
-1.171760213
 30
0.0
 40
4.560793388
100
AcDbArc
 50
269.991083532
 51
291.352010607
  0
LINE
  5
88
330
1D
100
AcDbEntity
  8
SK1
100
AcDbLine
 10
-15.100000426
 20
-5.732553545
 30
0.0
 11
-16.599999741
 21
-5.732553545
 31
0.0
  0
ARC
  5
8A
330
1D
100
AcDbEntity
  8
SK1
100
AcDbCircle
 10
-15.153872022
 20
-0.003856104
 30
0.0
 40
4.484815404
100
AcDbArc
 50
183.786142722
 51
205.135637384
  0
LINE
  5
8B
330
1D
100
AcDbEntity
  8
SK1
100
AcDbLine
 10
-20.43226175
 20
-2.890062053
 30
0.0
 11
-19.213996828
 21
-1.908837934
 31
0.0
  0
LINE
  5
8D
330
1D
100
AcDbEntity
  8
SK1
100
AcDbLine
 10
-19.213996828
 20
1.908837934
 30
0.0
 11
-19.604464993
 21
2.224863973
 31
0.0
  0
LINE
  5
8E
330
1D
100
AcDbEntity
  8
SK1
100
AcDbLine
 10
-19.604464993
 20
2.224863973
 30
0.0
 11
-20.43226175
 21
2.890062053
 31
0.0
  0
ARC
  5
8F
330
1D
100
AcDbEntity
  8
SK1
100
AcDbCircle
 10
-15.143057426
 20
0.001067134
 30
0.0
 40
4.495791036
100
AcDbArc
 50
154.890727646
 51
176.187492248
  0
ARC
  5
91
330
1D
100
AcDbEntity
  8
SK1
100
AcDbCircle
 10
-15.138891623
 20
0.000009735
 30
0.0
 40
4.500020206
100
AcDbArc
 50
205.099180244
 51
228.085954174
  0
ARC
  5
92
330
1D
100
AcDbEntity
  8
SK1
100
AcDbCircle
 10
-15.138898971
 20
-0.00000428
 30
0.0
 40
4.500011238
100
AcDbArc
 50
131.914022608
 51
154.900842974
  0
ARC
  5
93
330
1D
100
AcDbEntity
  8
SK1
100
AcDbCircle
 10
-2.300000051
 20
0.0
 30
0.0
 40
0.300000014
100
AcDbArc
 50
270.0
 51
90.0
  0
LINE
  5
94
330
1D
100
AcDbEntity
  8
3
100
AcDbLine
 10
8.119589649
 20
37.541914731
 30
0.0
 11
13.753248379
 21
26.946542785
 31
0.0
  0
LINE
  5
95
330
1D
100
AcDbEntity
  8
3
100
AcDbLine
 10
8.119589649
 20
37.541914731
 30
0.0
 11
9.008219466
 21
31.218985096
 31
0.0
  0
LINE
  5
96
330
1D
100
AcDbEntity
  8
1
100
AcDbLine
 10
37.000000817
 20
-44.699408114
 30
0.0
 11
37.000000817
 21
44.700000435
 31
0.0
  0
LINE
  5
97
330
1D
100
AcDbEntity
  8
1
100
AcDbLine
 10
37.000000817
 20
44.700000435
 30
0.0
 11
36.699999464
 21
45.000001788
 31
0.0
  0
LINE
  5
98
330
1D
100
AcDbEntity
  8
1
100
AcDbLine
 10
36.699999464
 20
45.000001788
 30
0.0
 11
16.125041991
 21
45.000001788
 31
0.0
  0
ARC
  5
99
330
1D
100
AcDbEntity
  8
1
100
AcDbCircle
 10
26.468662135
 20
51.979084575
 30
0.0
 40
14.979089345
100
AcDbArc
 50
208.070746777
 51
270.047958016
  0
LINE
  5
9A
330
1D
100
AcDbEntity
  8
1
100
AcDbLine
 10
26.48120001
 20
37.000000477
 30
0.0
 11
37.000000817
 21
36.999999894
 31
0.0
  0
LINE
  5
9B
330
1D
100
AcDbEntity
  8
1
100
AcDbLine
 10
16.125041992
 20
-45.000001788
 30
0.0
 11
1.500000013
 21
-45.000001788
 31
0.0
  0
LINE
  5
9C
330
1D
100
AcDbEntity
  8
1
100
AcDbLine
 10
1.500000013
 20
-45.000001788
 30
0.0
 11
0.500000024
 21
-43.999999762
 31
0.0
  0
LINE
  5
9D
330
1D
100
AcDbEntity
  8
1
100
AcDbLine
 10
0.500000024
 20
-43.999999762
 30
0.0
 11
0.500000024
 21
43.999999762
 31
0.0
  0
LINE
  5
9E
330
1D
100
AcDbEntity
  8
1
100
AcDbLine
 10
0.500000024
 20
-26.664583012
 30
0.0
 11
1.500000013
 21
-27.0000007
 31
0.0
  0
LINE
  5
9F
330
1D
100
AcDbEntity
  8
1
100
AcDbLine
 10
1.500000013
 20
-27.0000007
 30
0.0
 11
37.000000817
 21
-27.0000007
 31
0.0
  0
LINE
  5
A0
330
1D
100
AcDbEntity
  8
1
100
AcDbLine
 10
16.125041992
 20
-45.000001788
 30
0.0
 11
36.705308715
 21
-44.994682054
 31
0.0
  0
LINE
  5
A1
330
1D
100
AcDbEntity
  8
1
100
AcDbLine
 10
37.000000817
 20
27.0000007
 30
0.0
 11
1.500000013
 21
27.0000007
 31
0.0
  0
LINE
  5
A3
330
1D
100
AcDbEntity
  8
1
100
AcDbLine
 10
1.500000013
 20
45.000001788
 30
0.0
 11
1.500000013
 21
-45.00000178800001
 31
0.0
  0
LINE
  5
A4
330
1D
100
AcDbEntity
  8
1
100
AcDbLine
 10
36.705308715
 20
-44.994682054
 30
0.0
 11
37.000000817
 21
-44.699408114
 31
0.0
  0
LINE
  5
A6
330
1D
100
AcDbEntity
  8
1
100
AcDbLine
 10
0.500000024
 20
43.999999762
 30
0.0
 11
1.500000013
 21
45.000001788
 31
0.0
  0
LINE
  5
A7
330
1D
100
AcDbEntity
  8
1
100
AcDbLine
 10
1.500000013
 20
45.000001788
 30
0.0
 11
16.125042265
 21
45.0
 31
0.0
  0
LINE
  5
A9
330
1D
100
AcDbEntity
  8
1
100
AcDbLine
 10
0.500000024
 20
26.664583012
 30
0.0
 11
1.500000013
 21
27.0000007
 31
0.0
  0
LINE
  5
AB
330
1D
100
AcDbEntity
  8
1
100
AcDbLine
 10
0.500000024
 20
31.750001013
 30
0.0
 11
0.0
 21
31.25
 31
0.0
  0
LINE
  5
AD
330
1D
100
AcDbEntity
  8
1
100
AcDbLine
 10
0.0
 20
31.25
 30
0.0
 11
0.0
 21
-31.25
 31
0.0
  0
LINE
  5
AE
330
1D
100
AcDbEntity
  8
1
100
AcDbLine
 10
0.0
 20
-31.25
 30
0.0
 11
0.500000024
 21
-31.750001013
 31
0.0
  0
LINE
  5
AF
330
1D
100
AcDbEntity
  8
3
100
AcDbLine
 10
1.000000048
 20
8.00002248
 30
0.0
 11
1.000000048
 21
-8.049931377
 31
0.0
  0
LINE
  5
B0
330
1D
100
AcDbEntity
  8
3
100
AcDbLine
 10
1.018800656
 20
7.99834542
 30
0.0
 11
3.929960557
 21
0.0
 31
0.0
  0
LINE
  5
B1
330
1D
100
AcDbEntity
  8
3
100
AcDbLine
 10
3.929960557
 20
0.0
 30
0.0
 11
1.018800656
 21
-7.99834542
 31
0.0
  0
LINE
  5
B2
330
1D
100
AcDbEntity
  8
3
100
AcDbLine
 10
13.753248379
 20
26.946542785
 30
0.0
 11
32.661051576
 21
37.000000128
 31
0.0
  0
LINE
  5
B3
330
1D
100
AcDbEntity
  8
3
100
AcDbLine
 10
15.696571725
 20
41.570665587
 30
0.0
 11
8.119589649
 21
37.541914731
 31
0.0
  0
LINE
  5
B4
330
1D
100
AcDbEntity
  8
3
100
AcDbLine
 10
9.559509173
 20
30.72260172
 30
0.0
 11
0.0
 21
14.52178000877557
 31
0.0
  0
LINE
  5
B5
330
1D
100
AcDbEntity
  8
3
100
AcDbLine
 10
1.376465741
 20
7.015668757
 30
0.0
 11
13.35077462
 21
27.308931707
 31
0.0
  0
LINE
  5
B6
330
1D
100
AcDbEntity
  8
3
100
AcDbLine
 10
9.008219466
 20
31.218985096
 30
0.0
 11
13.753248379
 21
26.946542785
 31
0.0
  0
LINE
  5
B7
330
1D
100
AcDbEntity
  8
4
100
AcDbLine
 10
7.822908113
 20
30.588745783
 30
0.0
 11
22.174620986
 21
38.219686247
 31
0.0
  0
LINE
  5
B8
330
1D
100
AcDbEntity
  8
4
100
AcDbLine
 10
12.237092298
 20
30.340964132
 30
0.0
 11
-0.0000000000000018
 21
9.602353305838353
 31
0.0
  0
LINE
  5
B9
330
1D
100
AcDbEntity
  8
2
100
AcDbLine
 10
0.0
 20
-55.918376923
 30
0.0
 11
0.0
 21
-31.25
 31
0.0
  0
LINE
  5
BA
330
1D
100
AcDbEntity
  8
2
100
AcDbLine
 10
0.0
 20
-53.918376923
 30
0.0
 11
3.499999995
 21
-53.468376883
 31
0.0
  0
LINE
  5
BB
330
1D
100
AcDbEntity
  8
2
100
AcDbLine
 10
3.499999995
 20
-53.468376883
 30
0.0
 11
3.500000005
 21
-54.368376883
 31
0.0
  0
LINE
  5
BC
330
1D
100
AcDbEntity
  8
2
100
AcDbLine
 10
3.500000005
 20
-54.368376883
 30
0.0
 11
0.0
 21
-53.918376923
 31
0.0
  0
LINE
  5
BD
330
1D
100
AcDbEntity
  8
2
100
AcDbLine
 10
37.000000817
 20
-55.918376505
 30
0.0
 11
37.000000817
 21
-44.699408114
 31
0.0
  0
LINE
  5
BE
330
1D
100
AcDbEntity
  8
2
100
AcDbLine
 10
37.000000817
 20
-53.918376505
 30
0.0
 11
33.500000822
 21
-54.368376545
 31
0.0
  0
LINE
  5
BF
330
1D
100
AcDbEntity
  8
2
100
AcDbLine
 10
33.500000822
 20
-54.368376545
 30
0.0
 11
33.500000812
 21
-53.468376545
 31
0.0
  0
LINE
  5
C0
330
1D
100
AcDbEntity
  8
2
100
AcDbLine
 10
33.500000812
 20
-53.468376545
 30
0.0
 11
37.000000817
 21
-53.918376505
 31
0.0
  0
LINE
  5
C1
330
1D
100
AcDbEntity
  8
2
100
AcDbLine
 10
3.5
 20
-53.918376883
 30
0.0
 11
33.500000817
 21
-53.918376545
 31
0.0
  0
TEXT
  5
C2
330
1D
100
AcDbEntity
  8
2
100
AcDbText
 10
17.026718728
 20
-52.418376731
 30
0.0
 40
3.5
  1
37
 50
0.000000646
  7
BMG_Text
100
AcDbText
  0
LINE
  5
C3
330
1D
100
AcDbEntity
  8
SK2
100
AcDbLine
 10
-68.134056078
 20
-45.000001788
 30
0.0
 11
1.500000013
 21
-45.000001788
 31
0.0
  0
LINE
  5
C4
330
1D
100
AcDbEntity
  8
SK2
100
AcDbLine
 10
-66.134056078
 20
-45.000001788
 30
0.0
 11
-66.584056078
 21
-41.500001788
 31
0.0
  0
LINE
  5
C5
330
1D
100
AcDbEntity
  8
SK2
100
AcDbLine
 10
-66.584056078
 20
-41.500001788
 30
0.0
 11
-65.684056078
 21
-41.500001788
 31
0.0
  0
LINE
  5
C6
330
1D
100
AcDbEntity
  8
SK2
100
AcDbLine
 10
-65.684056078
 20
-41.500001788
 30
0.0
 11
-66.134056078
 21
-45.000001788
 31
0.0
  0
LINE
  5
C7
330
1D
100
AcDbEntity
  8
SK2
100
AcDbLine
 10
-68.134056078
 20
45.000001788
 30
0.0
 11
1.500000013
 21
45.000001788
 31
0.0
  0
LINE
  5
C8
330
1D
100
AcDbEntity
  8
SK2
100
AcDbLine
 10
-66.134056078
 20
45.000001788
 30
0.0
 11
-65.684056078
 21
41.500001788
 31
0.0
  0
LINE
  5
C9
330
1D
100
AcDbEntity
  8
SK2
100
AcDbLine
 10
-65.684056078
 20
41.500001788
 30
0.0
 11
-66.584056078
 21
41.500001788
 31
0.0
  0
LINE
  5
CA
330
1D
100
AcDbEntity
  8
SK2
100
AcDbLine
 10
-66.584056078
 20
41.500001788
 30
0.0
 11
-66.134056078
 21
45.000001788
 31
0.0
  0
LINE
  5
CB
330
1D
100
AcDbEntity
  8
SK2
100
AcDbLine
 10
-66.134056078
 20
-41.500001788
 30
0.0
 11
-66.134056078
 21
41.500001788
 31
0.0
  0
TEXT
  5
CC
330
1D
100
AcDbEntity
  8
SK2
100
AcDbText
 10
-67.634056078
 20
0.139998994
 30
0.0
 40
3.5
  1
90
 50
90.0
  7
BMG_Text
100
AcDbText
  0
CIRCLE
  5
CD
330
1D
100
AcDbEntity
  8
SK2
100
AcDbCircle
 10
-68.884056078
 20
-2.110001006
 30
0.0
 40
1.25
  0
LINE
  5
CE
330
1D
100
AcDbEntity
  8
SK2
100
AcDbLine
 10
-67.634056078
 20
-3.360001006
 30
0.0
 11
-70.134056078
 21
-0.860001006
 31
0.0
  0
LINE
  5
CF
330
1D
100
AcDbEntity
  8
SK2
100
AcDbLine
 10
-58.0897331
 20
-31.750001013
 30
0.0
 11
0.500000024
 21
-31.750001013
 31
0.0
  0
LINE
  5
D0
330
1D
100
AcDbEntity
  8
SK2
100
AcDbLine
 10
-56.0897331
 20
-31.750001013
 30
0.0
 11
-56.5397331
 21
-28.250001013
 31
0.0
  0
LINE
  5
D1
330
1D
100
AcDbEntity
  8
SK2
100
AcDbLine
 10
-56.5397331
 20
-28.250001013
 30
0.0
 11
-55.6397331
 21
-28.250001013
 31
0.0
  0
LINE
  5
D2
330
1D
100
AcDbEntity
  8
SK2
100
AcDbLine
 10
-55.6397331
 20
-28.250001013
 30
0.0
 11
-56.0897331
 21
-31.750001013
 31
0.0
  0
LINE
  5
D3
330
1D
100
AcDbEntity
  8
SK2
100
AcDbLine
 10
-58.0897331
 20
31.750001013
 30
0.0
 11
0.500000024
 21
31.750001013
 31
0.0
  0
LINE
  5
D4
330
1D
100
AcDbEntity
  8
SK2
100
AcDbLine
 10
-56.0897331
 20
31.750001013
 30
0.0
 11
-55.6397331
 21
28.250001013
 31
0.0
  0
LINE
  5
D5
330
1D
100
AcDbEntity
  8
SK2
100
AcDbLine
 10
-55.6397331
 20
28.250001013
 30
0.0
 11
-56.5397331
 21
28.250001013
 31
0.0
  0
LINE
  5
D6
330
1D
100
AcDbEntity
  8
SK2
100
AcDbLine
 10
-56.5397331
 20
28.250001013
 30
0.0
 11
-56.0897331
 21
31.750001013
 31
0.0
  0
LINE
  5
D7
330
1D
100
AcDbEntity
  8
SK2
100
AcDbLine
 10
-56.0897331
 20
-28.250001013
 30
0.0
 11
-56.0897331
 21
28.250001013
 31
0.0
  0
TEXT
  5
D8
330
1D
100
AcDbEntity
  8
SK2
100
AcDbText
 10
-57.5897331
 20
-1.17250071
 30
0.0
 40
3.5
  1
63.5
 50
90.0
  7
BMG_Text
100
AcDbText
  0
CIRCLE
  5
D9
330
1D
100
AcDbEntity
  8
SK2
100
AcDbCircle
 10
-58.8397331
 20
-3.42250071
 30
0.0
 40
1.25
  0
LINE
  5
DA
330
1D
100
AcDbEntity
  8
SK2
100
AcDbLine
 10
-57.5897331
 20
-4.67250071
 30
0.0
 11
-60.0897331
 21
-2.17250071
 31
0.0
  0
LINE
  5
DB
330
1D
100
AcDbEntity
  8
2
100
AcDbLine
 10
0.0
 20
58.909854889
 30
0.0
 11
0.0
 21
31.25
 31
0.0
  0
LINE
  5
DC
330
1D
100
AcDbEntity
  8
2
100
AcDbLine
 10
0.0
 20
56.909854889
 30
0.0
 11
3.499999999
 21
57.359854898
 31
0.0
  0
LINE
  5
DD
330
1D
100
AcDbEntity
  8
2
100
AcDbLine
 10
3.499999999
 20
57.359854898
 30
0.0
 11
3.500000001
 21
56.459854898
 31
0.0
  0
LINE
  5
DE
330
1D
100
AcDbEntity
  8
2
100
AcDbLine
 10
3.500000001
 20
56.459854898
 30
0.0
 11
0.0
 21
56.909854889
 31
0.0
  0
LINE
  5
DF
330
1D
100
AcDbEntity
  8
2
100
AcDbLine
 10
71.0
 20
58.909855079
 30
0.0
 11
71.0
 21
48.199999999
 31
0.0
  0
LINE
  5
E0
330
1D
100
AcDbEntity
  8
2
100
AcDbLine
 10
71.0
 20
56.909855079
 30
0.0
 11
67.500000001
 21
56.459855069
 31
0.0
  0
LINE
  5
E1
330
1D
100
AcDbEntity
  8
2
100
AcDbLine
 10
67.500000001
 20
56.459855069
 30
0.0
 11
67.499999999
 21
57.359855069
 31
0.0
  0
LINE
  5
E2
330
1D
100
AcDbEntity
  8
2
100
AcDbLine
 10
67.499999999
 20
57.359855069
 30
0.0
 11
71.0
 21
56.909855079
 31
0.0
  0
LINE
  5
E3
330
1D
100
AcDbEntity
  8
2
100
AcDbLine
 10
3.5
 20
56.909854898
 30
0.0
 11
67.5
 21
56.909855069
 31
0.0
  0
TEXT
  5
E4
330
1D
100
AcDbEntity
  8
2
100
AcDbText
 10
34.218124203
 20
58.40985498
 30
0.0
 40
3.5
  1
71
 50
0.000000153
  7
BMG_Text
100
AcDbText
  0
ARC
  5
E5
330
1D
100
AcDbEntity
  8
1
100
AcDbCircle
 10
75.102698922
 20
-38.002611003
 30
0.0
 40
80.735831416
100
AcDbArc
 50
118.202290013
 51
120.846272818
  0
ARC
  5
E6
330
1D
100
AcDbEntity
  8
1
100
AcDbCircle
 10
36.763282054
 20
33.535987139
 30
0.0
 40
0.429177981
100
AcDbArc
 50
295.5043550589999
 51
64.49564494099998
  0
ARC
  5
E7
330
1D
100
AcDbEntity
  8
1
100
AcDbCircle
 10
0.293453501
 20
-38.002611003
 30
0.0
 40
80.727345779
100
AcDbArc
 50
62.995877974
 51
65.783307686
  0
ARC
  5
E8
330
1D
100
AcDbEntity
  8
1
100
AcDbCircle
 10
72.079510132
 20
-55.759747314
 30
0.0
 40
99.929647607
100
AcDbArc
 50
111.052120891
 51
112.538187133
  0
ARC
  5
E9
330
1D
100
AcDbEntity
  8
1
100
AcDbCircle
 10
64.710394077
 20
-38.002611003
 30
0.0
 40
80.706605093
100
AcDbArc
 50
112.538187133
 51
112.596325357
  0
LINE
  5
EB
330
1D
100
AcDbEntity
  8
1
100
AcDbLine
 10
54.299999028
 20
36.499999464
 30
0.0
 11
53.792942315
 21
37.007056177
 31
0.0
  0
LINE
  5
EC
330
1D
100
AcDbEntity
  8
1
100
AcDbLine
 10
53.792942315
 20
37.007056177
 30
0.0
 11
53.300000727
 21
37.50000149
 31
0.0
  0
LINE
  5
EE
330
1D
100
AcDbEntity
  8
1
100
AcDbLine
 10
54.299999028
 20
27.0000007
 30
0.0
 11
37.198077887
 21
27.0000007
 31
0.0
  0
ARC
  5
EF
330
1D
100
AcDbEntity
  8
1
100
AcDbCircle
 10
36.525984087
 20
27.043114774
 30
0.0
 40
0.67347524
100
AcDbArc
 50
356.3295683220001
 51
51.190050096
  0
ARC
  5
F0
330
1D
100
AcDbEntity
  8
1
100
AcDbCircle
 10
9.649852208
 20
-10.310404078
 30
0.0
 40
46.690035034
100
AcDbArc
 50
54.220378214
 51
54.50520341899999
  0
ARC
  5
F1
330
1D
100
AcDbEntity
  8
1
100
AcDbCircle
 10
-10.098851345
 20
-38.002611003
 30
0.0
 40
80.706605093
100
AcDbArc
 50
54.505296738
 51
57.403999568
  0
ARC
  5
F2
330
1D
100
AcDbEntity
  8
1
100
AcDbCircle
 10
36.481963043
 20
-27.023736054
 30
0.0
 40
0.716508086
100
AcDbArc
 50
310.5820297139999
 51
1.898351868
  0
LINE
  5
F3
330
1D
100
AcDbEntity
  8
1
100
AcDbLine
 10
37.198077887
 20
27.0000007
 30
0.0
 11
37.198077887
 21
-27.0000007
 31
0.0
  0
ARC
  5
F4
330
1D
100
AcDbEntity
  8
1
100
AcDbCircle
 10
6.521161675
 20
86.557548812
 30
0.0
 40
131.570814858
100
AcDbArc
 50
281.921534352
 51
283.136063108
  0
ARC
  5
F5
330
1D
100
AcDbEntity
  8
1
100
AcDbCircle
 10
13.708947136
 20
55.759747314
 30
0.0
 40
99.932102782
100
AcDbArc
 50
283.135797857
 51
283.447627668
  0
LINE
  5
F6
330
1D
100
AcDbEntity
  8
1
100
AcDbLine
 10
36.948077381
 20
-41.429471224
 30
0.0
 11
37.077985704
 21
-41.383530945
 31
0.0
  0
LINE
  5
F7
330
1D
100
AcDbEntity
  8
1
100
AcDbLine
 10
37.077985704
 20
-41.383530945
 30
0.0
 11
37.16269508
 21
-41.323319077
 31
0.0
  0
LINE
  5
F8
330
1D
100
AcDbEntity
  8
1
100
AcDbLine
 10
37.16269508
 20
-41.323319077
 30
0.0
 11
37.197768688
 21
-41.250806302
 31
0.0
  0
LINE
  5
F9
330
1D
100
AcDbEntity
  8
1
100
AcDbLine
 10
37.197768688
 20
-41.250806302
 30
0.0
 11
37.171434611
 21
-41.172523051
 31
0.0
  0
LINE
  5
FA
330
1D
100
AcDbEntity
  8
1
100
AcDbLine
 10
37.171434611
 20
-41.172523051
 30
0.0
 11
37.080045789
 21
-41.100859642
 31
0.0
  0
LINE
  5
FB
330
1D
100
AcDbEntity
  8
1
100
AcDbLine
 10
37.080045789
 20
-41.100859642
 30
0.0
 11
36.948077381
 21
-41.051480919
 31
0.0
  0
ARC
  5
FC
330
1D
100
AcDbEntity
  8
1
100
AcDbCircle
 10
61.687205287
 20
55.759747314
 30
0.0
 40
99.916360361
100
AcDbArc
 50
253.733448918
 51
255.665407909
  0
ARC
  5
FD
330
1D
100
AcDbEntity
  8
1
100
AcDbCircle
 10
3.31664229
 20
55.759747314
 30
0.0
 40
99.918068416
100
AcDbArc
 50
287.7029864759999
 51
289.667891257
  0
LINE
  5
FE
330
1D
100
AcDbEntity
  8
1
100
AcDbLine
 10
36.948077381
 20
-38.335323334
 30
0.0
 11
37.078712136
 21
-38.26822713
 31
0.0
  0
LINE
  5
FF
330
1D
100
AcDbEntity
  8
1
100
AcDbLine
 10
37.078712136
 20
-38.26822713
 30
0.0
 11
37.161894143
 21
-38.182836026
 31
0.0
  0
LINE
  5
100
330
1D
100
AcDbEntity
  8
1
100
AcDbLine
 10
37.161894143
 20
-38.182836026
 30
0.0
 11
37.197839469
 21
-38.075447082
 31
0.0
  0
LINE
  5
101
330
1D
100
AcDbEntity
  8
1
100
AcDbLine
 10
37.197839469
 20
-38.075447082
 30
0.0
 11
37.166278809
 21
-37.95453906
 31
0.0
  0
LINE
  5
102
330
1D
100
AcDbEntity
  8
1
100
AcDbLine
 10
37.166278809
 20
-37.95453906
 30
0.0
 11
37.05701232
 21
-37.844028324
 31
0.0
  0
LINE
  5
103
330
1D
100
AcDbEntity
  8
1
100
AcDbLine
 10
37.05701232
 20
-37.844028324
 30
0.0
 11
36.948077381
 21
-37.78925538
 31
0.0
  0
ARC
  5
104
330
1D
100
AcDbEntity
  8
1
100
AcDbCircle
 10
64.710394077
 20
38.002611003
 30
0.0
 40
80.706610068
100
AcDbArc
 50
247.403674643
 51
247.461812867
  0
ARC
  5
105
330
1D
100
AcDbEntity
  8
1
100
AcDbCircle
 10
72.079510132
 20
55.759747314
 30
0.0
 40
99.932102782
100
AcDbArc
 50
247.461812867
 51
249.416812296
  0
ARC
  5
106
330
1D
100
AcDbEntity
  8
1
100
AcDbCircle
 10
0.293453501
 20
38.002611003
 30
0.0
 40
80.710325315
100
AcDbArc
 50
294.216692314
 51
297.004122026
  0
ARC
  5
107
330
1D
100
AcDbEntity
  8
1
100
AcDbCircle
 10
36.762937572
 20
-33.535987139
 30
0.0
 40
0.429326421
100
AcDbArc
 50
295.5458479050001
 51
64.454152095
  0
ARC
  5
108
330
1D
100
AcDbEntity
  8
1
100
AcDbCircle
 10
75.102698922
 20
38.002611003
 30
0.0
 40
80.748506479
100
AcDbArc
 50
239.153727182
 51
241.797709987
  0
ARC
  5
109
330
1D
100
AcDbEntity
  8
1
100
AcDbCircle
 10
-10.098851345
 20
38.002611003
 30
0.0
 40
80.746063815
100
AcDbArc
 50
302.5960004319999
 51
305.494703262
  0
ARC
  5
10A
330
1D
100
AcDbEntity
  8
1
100
AcDbCircle
 10
9.649852208
 20
10.310404078
 30
0.0
 40
46.69381902
100
AcDbArc
 50
305.4947965810001
 51
305.779621786
  0
LINE
  5
10B
330
1D
100
AcDbEntity
  8
1
100
AcDbLine
 10
37.198077887
 20
-27.0000007
 30
0.0
 11
50.906904042
 21
-27.0000007
 31
0.0
  0
LINE
  5
10C
330
1D
100
AcDbEntity
  8
1
100
AcDbLine
 10
50.906904042
 20
-27.0000007
 30
0.0
 11
50.906904042
 21
-44.999554753
 31
0.0
  0
LINE
  5
10D
330
1D
100
AcDbEntity
  8
1
100
AcDbLine
 10
50.906904042
 20
-44.999554753
 30
0.0
 11
37.156332284
 21
-44.999554753
 31
0.0
  0
ARC
  5
10E
330
1D
100
AcDbEntity
  8
1
100
AcDbCircle
 10
36.695820711
 20
-90.278147808
 30
0.0
 40
45.280934839
100
AcDbArc
 50
89.41728622600002
 51
89.680807886
  0
ARC
  5
10F
330
1D
100
AcDbEntity
  8
1
100
AcDbCircle
 10
37.698076211
 20
86.557548812
 30
0.0
 40
131.559072287
100
AcDbArc
 50
268.258514872
 51
269.673359302
  0
ARC
  5
110
330
1D
100
AcDbEntity
  8
1
100
AcDbCircle
 10
27.305771366
 20
86.557548812
 30
0.0
 40
131.561343011
100
AcDbArc
 50
272.785823685
 51
274.202913096
  0
LINE
  5
111
330
1D
100
AcDbEntity
  8
1
100
AcDbLine
 10
36.948077381
 20
-44.654324651
 30
0.0
 11
37.077344954
 21
-44.640827924
 31
0.0
  0
LINE
  5
112
330
1D
100
AcDbEntity
  8
1
100
AcDbLine
 10
37.077344954
 20
-44.640827924
 30
0.0
 11
37.163641304
 21
-44.622357935
 31
0.0
  0
LINE
  5
113
330
1D
100
AcDbEntity
  8
1
100
AcDbLine
 10
37.163641304
 20
-44.622357935
 30
0.0
 11
37.197757512
 21
-44.600602239
 31
0.0
  0
LINE
  5
114
330
1D
100
AcDbEntity
  8
1
100
AcDbLine
 10
37.197757512
 20
-44.600602239
 30
0.0
 11
37.175156176
 21
-44.577818364
 31
0.0
  0
LINE
  5
115
330
1D
100
AcDbEntity
  8
1
100
AcDbLine
 10
37.175156176
 20
-44.577818364
 30
0.0
 11
37.097681314
 21
-44.556744397
 31
0.0
  0
LINE
  5
116
330
1D
100
AcDbEntity
  8
1
100
AcDbLine
 10
37.097681314
 20
-44.556744397
 30
0.0
 11
36.97437793
 21
-44.540159404
 31
0.0
  0
LINE
  5
117
330
1D
100
AcDbEntity
  8
1
100
AcDbLine
 10
36.97437793
 20
-44.540159404
 30
0.0
 11
36.948077381
 21
-44.537808746
 31
0.0
  0
ARC
  5
118
330
1D
100
AcDbEntity
  8
1
100
AcDbCircle
 10
48.090381057
 20
86.557548812
 30
0.0
 40
131.573241916
100
AcDbArc
 50
263.720905437
 51
265.141884429
  0
ARC
  5
119
330
1D
100
AcDbEntity
  8
1
100
AcDbCircle
 10
16.91346652
 20
86.557548812
 30
0.0
 40
131.576703739
100
AcDbArc
 50
277.329762228
 51
278.758042759
  0
LINE
  5
11A
330
1D
100
AcDbEntity
  8
1
100
AcDbLine
 10
36.948077381
 20
-43.487984687
 30
0.0
 11
37.077561021
 21
-43.459262699
 31
0.0
  0
LINE
  5
11B
330
1D
100
AcDbEntity
  8
1
100
AcDbLine
 10
37.077561021
 20
-43.459262699
 30
0.0
 11
37.163279951
 21
-43.420787901
 31
0.0
  0
LINE
  5
11C
330
1D
100
AcDbEntity
  8
1
100
AcDbLine
 10
37.163279951
 20
-43.420787901
 30
0.0
 11
37.197753787
 21
-43.375458568
 31
0.0
  0
LINE
  5
11D
330
1D
100
AcDbEntity
  8
1
100
AcDbLine
 10
37.197753787
 20
-43.375458568
 30
0.0
 11
37.173978984
 21
-43.327774852
 31
0.0
  0
LINE
  5
11E
330
1D
100
AcDbEntity
  8
1
100
AcDbLine
 10
37.173978984
 20
-43.327774852
 30
0.0
 11
37.091914564
 21
-43.284084648
 31
0.0
  0
LINE
  5
11F
330
1D
100
AcDbEntity
  8
1
100
AcDbLine
 10
37.091914564
 20
-43.284084648
 30
0.0
 11
36.948077381
 21
-43.248355389
 31
0.0
  0
ARC
  5
120
330
1D
100
AcDbEntity
  8
1
100
AcDbCircle
 10
58.482685902
 20
86.557548812
 30
0.0
 40
131.577200155
100
AcDbArc
 50
259.143438958
 51
260.580504153
  0
LINE
  5
121
330
1D
100
AcDbEntity
  8
1
100
AcDbLine
 10
58.534707874
 20
-46.13564536
 30
0.0
 11
58.537431061
 21
-46.136129647
 31
0.0
  0
LINE
  5
122
330
1D
100
AcDbEntity
  8
1
100
AcDbLine
 10
58.537431061
 20
-46.136129647
 30
0.0
 11
69.272793829
 21
-48.037305474
 31
0.0
  0
LINE
  5
123
330
1D
100
AcDbEntity
  8
1
100
AcDbLine
 10
58.534707874
 20
-46.313796192
 30
0.0
 11
58.534707874
 21
-46.13564536
 31
0.0
  0
ARC
  5
124
330
1D
100
AcDbEntity
  8
1
100
AcDbCircle
 10
58.44706315
 20
-45.594652591
 30
0.0
 40
0.724567496
100
AcDbArc
 50
263.401632993
 51
270.0
  0
ARC
  5
125
330
1D
100
AcDbEntity
  8
1
100
AcDbCircle
 10
58.44706315
 20
-45.594652591
 30
0.0
 40
0.725530307
100
AcDbArc
 50
270.0
 51
276.948529268
  0
LINE
  5
126
330
1D
100
AcDbEntity
  8
1
100
AcDbLine
 10
58.363802731
 20
-46.314422041
 30
0.0
 11
50.906904042
 21
-44.999554753
 31
0.0
  0
LINE
  5
127
330
1D
100
AcDbEntity
  8
1
100
AcDbLine
 10
50.906904042
 20
-27.0000007
 30
0.0
 11
56.718721986
 21
-28.675431386
 31
0.0
  0
LINE
  5
128
330
1D
100
AcDbEntity
  8
1
100
AcDbLine
 10
56.718721986
 20
-28.675431386
 30
0.0
 11
65.097473562
 21
-30.991243198
 31
0.0
  0
ARC
  5
129
330
1D
100
AcDbEntity
  8
1
100
AcDbCircle
 10
109.949709825
 20
0.321231289
 30
0.0
 40
54.700949449
100
AcDbArc
 50
214.919864422
 51
216.73363829
  0
LINE
  5
12A
330
1D
100
AcDbEntity
  8
1
100
AcDbLine
 10
65.097473562
 20
2.050264971
 30
0.0
 11
65.097473562
 21
-30.991243198
 31
0.0
  0
LINE
  5
12B
330
1D
100
AcDbEntity
  8
1
100
AcDbLine
 10
67.097477615
 20
-1.413836726
 30
0.0
 11
67.097477615
 21
-32.395929098
 31
0.0
  0
LINE
  5
12C
330
1D
100
AcDbEntity
  8
1
100
AcDbLine
 10
67.097477615
 20
-32.395929098
 30
0.0
 11
67.082151771
 21
-32.592870295
 31
0.0
  0
LINE
  5
12D
330
1D
100
AcDbEntity
  8
1
100
AcDbLine
 10
67.082151771
 20
-32.592870295
 30
0.0
 11
67.039206624
 21
-32.741419971
 31
0.0
  0
LINE
  5
12E
330
1D
100
AcDbEntity
  8
1
100
AcDbLine
 10
67.039206624
 20
-32.741419971
 30
0.0
 11
66.982224584
 21
-32.833207399
 31
0.0
  0
LINE
  5
12F
330
1D
100
AcDbEntity
  8
1
100
AcDbLine
 10
66.982224584
 20
-32.833207399
 30
0.0
 11
66.906422377
 21
-32.892372459
 31
0.0
  0
LINE
  5
130
330
1D
100
AcDbEntity
  8
1
100
AcDbLine
 10
66.906422377
 20
-32.892372459
 30
0.0
 11
66.803239286
 21
-32.916247845
 31
0.0
  0
LINE
  5
131
330
1D
100
AcDbEntity
  8
1
100
AcDbLine
 10
66.803239286
 20
-32.916247845
 30
0.0
 11
66.642917693
 21
-32.879844308
 31
0.0
  0
LINE
  5
132
330
1D
100
AcDbEntity
  8
1
100
AcDbLine
 10
66.642917693
 20
-32.879844308
 30
0.0
 11
66.365174949
 21
-32.684847712
 31
0.0
  0
LINE
  5
133
330
1D
100
AcDbEntity
  8
1
100
AcDbLine
 10
66.365174949
 20
-32.684847712
 30
0.0
 11
66.111251712
 21
-32.395001501
 31
0.0
  0
LINE
  5
134
330
1D
100
AcDbEntity
  8
1
100
AcDbLine
 10
67.097477615
 20
-1.413836726
 30
0.0
 11
65.097473562
 21
2.050264971
 31
0.0
  0
LINE
  5
135
330
1D
100
AcDbEntity
  8
1
100
AcDbLine
 10
54.299999028
 20
23.43153581
 30
0.0
 11
54.299999028
 21
36.499999464
 31
0.0
  0
ARC
  5
136
330
1D
100
AcDbEntity
  8
1
100
AcDbCircle
 10
64.3
 20
23.43153533
 30
0.0
 40
10.0
100
AcDbArc
 50
180.0
 51
210.0
  0
LINE
  5
137
330
1D
100
AcDbEntity
  8
1
100
AcDbLine
 10
65.097473562
 20
2.050264971
 30
0.0
 11
55.63974753
 21
18.431534991
 31
0.0
  0
ARC
  5
138
330
1D
100
AcDbEntity
  8
1
100
AcDbCircle
 10
69.405598416
 20
-47.242546561
 30
0.0
 40
0.803002912
100
AcDbArc
 50
260.252314018
 51
359.183023624
  0
LINE
  5
139
330
1D
100
AcDbEntity
  8
1
100
AcDbLine
 10
67.825324833
 20
-2.674504416
 30
0.0
 11
67.825324833
 21
-19.500000402
 31
0.0
  0
ARC
  5
13A
330
1D
100
AcDbEntity
  8
1
100
AcDbCircle
 10
156.031164091
 20
-19.5
 30
0.0
 40
88.205840414
100
AcDbArc
 50
180.0
 51
185.344722231
  0
ARC
  5
13B
330
1D
100
AcDbEntity
  8
1
100
AcDbCircle
 10
82.590907451
 20
-26.370591492
 30
0.0
 40
14.444900054
100
AcDbArc
 50
185.345024151
 51
192.606993773
  0
ARC
  5
13C
330
1D
100
AcDbEntity
  8
1
100
AcDbCircle
 10
72.468366217
 20
-28.634544905
 30
0.0
 40
4.072276178
100
AcDbArc
 50
192.606993773
 51
207.00288411
  0
ARC
  5
13D
330
1D
100
AcDbEntity
  8
1
100
AcDbCircle
 10
68.989353083
 20
-30.407412085
 30
0.0
 40
0.167587915
100
AcDbArc
 50
207.002623801
 51
332.997376199
  0
ARC
  5
13F
330
1D
100
AcDbEntity
  8
1
100
AcDbCircle
 10
65.510339949
 20
-28.634544905
 30
0.0
 40
4.072276178
100
AcDbArc
 50
332.9971158899999
 51
347.393006227
  0
ARC
  5
140
330
1D
100
AcDbEntity
  8
1
100
AcDbCircle
 10
55.387798715
 20
-26.370591492
 30
0.0
 40
14.444900054
100
AcDbArc
 50
347.393006227
 51
354.654975849
  0
ARC
  5
141
330
1D
100
AcDbEntity
  8
1
100
AcDbCircle
 10
-18.052457925
 20
-19.5
 30
0.0
 40
88.205840414
100
AcDbArc
 50
354.655277769
 51
0.0
  0
LINE
  5
142
330
1D
100
AcDbEntity
  8
1
100
AcDbLine
 10
70.153385401
 20
-19.500000402
 30
0.0
 11
70.153385401
 21
-6.706820335
 31
0.0
  0
LINE
  5
143
330
1D
100
AcDbEntity
  8
1
100
AcDbLine
 10
70.153385401
 20
-6.706820335
 30
0.0
 11
70.6499964
 21
-7.566987071
 31
0.0
  0
LINE
  5
144
330
1D
100
AcDbEntity
  8
1
100
AcDbLine
 10
70.6499964
 20
-7.566987071
 30
0.0
 11
70.6499964
 21
-36.264974624
 31
0.0
  0
LINE
  5
145
330
1D
100
AcDbEntity
  8
1
100
AcDbLine
 10
70.6499964
 20
-36.264974624
 30
0.0
 11
70.492342114
 21
-36.410599947
 31
0.0
  0
LINE
  5
146
330
1D
100
AcDbEntity
  8
1
100
AcDbLine
 10
70.208564401
 20
-36.360304803
 30
0.0
 11
70.492342114
 21
-36.410599947
 31
0.0
  0
LINE
  5
147
330
1D
100
AcDbEntity
  8
1
100
AcDbLine
 10
70.208564401
 20
-47.245554626
 30
0.0
 11
70.208564401
 21
-36.360304803
 31
0.0
  0
LINE
  5
148
330
1D
100
AcDbEntity
  8
1
100
AcDbLine
 10
70.208564401
 20
-47.245554626
 30
0.0
 11
70.208519697
 21
-47.253996134
 31
0.0
  0
LINE
  5
149
330
1D
100
AcDbEntity
  8
1
100
AcDbLine
 10
67.097477615
 20
-1.413836726
 30
0.0
 11
67.825324833
 21
-2.674504416
 31
0.0
  0
LINE
  5
14A
330
1D
100
AcDbEntity
  8
1
100
AcDbLine
 10
33.649999648
 20
-31.22195974
 30
0.0
 11
33.700000495
 21
-31.323704868
 31
0.0
  0
ARC
  5
14B
330
1D
100
AcDbEntity
  8
1
100
AcDbCircle
 10
35.513433882
 20
-30.206015508
 30
0.0
 40
2.122387766
100
AcDbArc
 50
185.264570522
 51
208.599215616
  0
LINE
  5
14C
330
1D
100
AcDbEntity
  8
1
100
AcDbLine
 10
33.649999648
 20
31.22195974
 30
0.0
 11
33.399999142
 21
30.568514736
 31
0.0
  0
LINE
  5
14D
330
1D
100
AcDbEntity
  8
1
100
AcDbLine
 10
33.700000495
 20
31.323704869
 30
0.0
 11
33.649999648
 21
31.22195974
 31
0.0
  0
ARC
  5
14E
330
1D
100
AcDbEntity
  8
1
100
AcDbCircle
 10
34.679605901
 20
35.652571446
 30
0.0
 40
1.287767297
100
AcDbArc
 50
143.085071114
 51
173.546312305
  0
LINE
  5
14F
330
1D
100
AcDbEntity
  8
1
100
AcDbLine
 10
33.700000495
 20
36.50854528
 30
0.0
 11
33.649999648
 21
36.426041275
 31
0.0
  0
LINE
  5
150
330
1D
100
AcDbEntity
  8
1
100
AcDbLine
 10
33.649999648
 20
-36.426041275
 30
0.0
 11
33.700000495
 21
-36.508545279
 31
0.0
  0
ARC
  5
151
330
1D
100
AcDbEntity
  8
1
100
AcDbCircle
 10
34.889698715
 20
-35.569032004
 30
0.0
 40
1.507089468
100
AcDbArc
 50
188.712345395
 51
214.656271185
  0
LINE
  5
152
330
1D
100
AcDbEntity
  8
1
100
AcDbLine
 10
33.700000495
 20
-39.426762611
 30
0.0
 11
33.649999648
 21
-39.385579526
 31
0.0
  0
LINE
  5
153
330
1D
100
AcDbEntity
  8
1
100
AcDbLine
 10
33.649999648
 20
37.450000644
 30
0.0
 11
33.700000495
 21
37.50000149
 31
0.0
  0
LINE
  5
154
330
1D
100
AcDbEntity
  8
1
100
AcDbLine
 10
53.300000727
 20
37.50000149
 30
0.0
 11
33.700000495
 21
37.50000149
 31
0.0
  0
LINE
  5
155
330
1D
100
AcDbEntity
  8
1
100
AcDbLine
 10
33.649999648
 20
-39.385579526
 30
0.0
 11
33.569909632
 21
-39.325769991
 31
0.0
  0
LINE
  5
156
330
1D
100
AcDbEntity
  8
1
100
AcDbLine
 10
33.569909632
 20
-39.325769991
 30
0.0
 11
33.492971212
 21
-39.284735918
 31
0.0
  0
LINE
  5
157
330
1D
100
AcDbEntity
  8
1
100
AcDbLine
 10
33.492971212
 20
-39.284735918
 30
0.0
 11
33.434603363
 21
-39.277032018
 31
0.0
  0
LINE
  5
158
330
1D
100
AcDbEntity
  8
1
100
AcDbLine
 10
33.434603363
 20
-39.277032018
 30
0.0
 11
33.406894654
 21
-39.299879223
 31
0.0
  0
LINE
  5
159
330
1D
100
AcDbEntity
  8
1
100
AcDbLine
 10
33.406894654
 20
-39.299879223
 30
0.0
 11
33.399999142
 21
-39.336808026
 31
0.0
  0
LINE
  5
15A
330
1D
100
AcDbEntity
  8
1
100
AcDbLine
 10
33.649999648
 20
-40.086187422
 30
0.0
 11
33.700000495
 21
-40.156859904
 31
0.0
  0
ARC
  5
15B
330
1D
100
AcDbEntity
  8
1
100
AcDbCircle
 10
34.463613292
 20
-39.36892131
 30
0.0
 40
1.084637191
100
AcDbArc
 50
191.299185385
 51
221.398779418
  0
LINE
  5
15C
330
1D
100
AcDbEntity
  8
1
100
AcDbLine
 10
33.399999142
 20
37.200000137
 30
0.0
 11
33.407595009
 21
37.207596004
 31
0.0
  0
LINE
  5
15D
330
1D
100
AcDbEntity
  8
1
100
AcDbLine
 10
33.407595009
 20
37.207596004
 30
0.0
 11
33.430155367
 21
37.230152637
 31
0.0
  0
LINE
  5
15E
330
1D
100
AcDbEntity
  8
1
100
AcDbLine
 10
33.430155367
 20
37.230152637
 30
0.0
 11
33.466987312
 21
37.266988307
 31
0.0
  0
LINE
  5
15F
330
1D
100
AcDbEntity
  8
1
100
AcDbLine
 10
33.466987312
 20
37.266988307
 30
0.0
 11
33.516976982
 21
37.316977978
 31
0.0
  0
LINE
  5
160
330
1D
100
AcDbEntity
  8
1
100
AcDbLine
 10
33.516976982
 20
37.316977978
 30
0.0
 11
33.57860446
 21
37.378605455
 31
0.0
  0
LINE
  5
161
330
1D
100
AcDbEntity
  8
1
100
AcDbLine
 10
33.57860446
 20
37.378605455
 30
0.0
 11
33.649999648
 21
37.450000644
 31
0.0
  0
LINE
  5
162
330
1D
100
AcDbEntity
  8
1
100
AcDbLine
 10
33.700000495
 20
-42.175468057
 30
0.0
 11
33.649999648
 21
-42.132858187
 31
0.0
  0
LINE
  5
163
330
1D
100
AcDbEntity
  8
1
100
AcDbLine
 10
33.649999648
 20
-42.132858187
 30
0.0
 11
33.55653584
 21
-42.059019208
 31
0.0
  0
LINE
  5
164
330
1D
100
AcDbEntity
  8
1
100
AcDbLine
 10
33.55653584
 20
-42.059019208
 30
0.0
 11
33.477492631
 21
-42.010243982
 31
0.0
  0
LINE
  5
165
330
1D
100
AcDbEntity
  8
1
100
AcDbLine
 10
33.477492631
 20
-42.010243982
 30
0.0
 11
33.421751112
 21
-41.995510459
 31
0.0
  0
LINE
  5
166
330
1D
100
AcDbEntity
  8
1
100
AcDbLine
 10
33.421751112
 20
-41.995510459
 30
0.0
 11
33.401165158
 21
-42.014349252
 31
0.0
  0
LINE
  5
167
330
1D
100
AcDbEntity
  8
1
100
AcDbLine
 10
33.401165158
 20
-42.014349252
 30
0.0
 11
33.399999142
 21
-42.02549532
 31
0.0
  0
LINE
  5
168
330
1D
100
AcDbEntity
  8
1
100
AcDbLine
 10
33.649999648
 20
-42.602211237
 30
0.0
 11
33.700000495
 21
-42.664654553
 31
0.0
  0
ARC
  5
169
330
1D
100
AcDbEntity
  8
1
100
AcDbCircle
 10
34.504288982
 20
-41.802892396
 30
0.0
 40
1.169923448
100
AcDbArc
 50
199.282956072
 51
223.09603151
  0
LINE
  5
16A
330
1D
100
AcDbEntity
  8
1
100
AcDbLine
 10
33.700000495
 20
-43.943949044
 30
0.0
 11
33.649999648
 21
-43.89911145
 31
0.0
  0
LINE
  5
16B
330
1D
100
AcDbEntity
  8
1
100
AcDbLine
 10
33.649999648
 20
-43.89911145
 30
0.0
 11
33.544007689
 21
-43.808568269
 31
0.0
  0
LINE
  5
16C
330
1D
100
AcDbEntity
  8
1
100
AcDbLine
 10
33.544007689
 20
-43.808568269
 30
0.0
 11
33.464316279
 21
-43.750036508
 31
0.0
  0
LINE
  5
16D
330
1D
100
AcDbEntity
  8
1
100
AcDbLine
 10
33.464316279
 20
-43.750036508
 30
0.0
 11
33.418286592
 21
-43.726928532
 31
0.0
  0
LINE
  5
16E
330
1D
100
AcDbEntity
  8
1
100
AcDbLine
 10
33.418286592
 20
-43.726928532
 30
0.0
 11
33.400159329
 21
-43.7342152
 31
0.0
  0
LINE
  5
16F
330
1D
100
AcDbEntity
  8
1
100
AcDbLine
 10
33.400159329
 20
-43.7342152
 30
0.0
 11
33.399999142
 21
-43.73671487
 31
0.0
  0
LINE
  5
170
330
1D
100
AcDbEntity
  8
1
100
AcDbLine
 10
33.649999648
 20
-44.170059264
 30
0.0
 11
33.700000495
 21
-44.226374477
 31
0.0
  0
ARC
  5
171
330
1D
100
AcDbEntity
  8
1
100
AcDbCircle
 10
34.436616711
 20
-43.328065777
 30
0.0
 40
1.152267085
100
AcDbArc
 50
205.890122921
 51
226.947435187
  0
LINE
  5
172
330
1D
100
AcDbEntity
  8
1
100
AcDbLine
 10
33.700000495
 20
-44.848315418
 30
0.0
 11
33.649999648
 21
-44.800516218
 31
0.0
  0
LINE
  5
173
330
1D
100
AcDbEntity
  8
1
100
AcDbLine
 10
67.825324833
 20
-2.674504416
 30
0.0
 11
70.153385401
 21
-6.706820335
 31
0.0
  0
ARC
  5
174
330
1D
100
AcDbEntity
  8
1
100
AcDbCircle
 10
69.426032942
 20
-47.316875589
 30
0.0
 40
0.736546974
100
AcDbArc
 50
257.9918573759999
 51
326.997428468
  0
ARC
  5
175
330
1D
100
AcDbEntity
  8
1
100
AcDbCircle
 10
32.83183494
 20
-45.489109318
 30
0.0
 40
1.069370818
100
AcDbArc
 50
40.08501809199999
 51
57.90619383100001
  0
LINE
  5
176
330
1D
100
AcDbEntity
  8
1
100
AcDbLine
 10
33.649999648
 20
-44.889200479
 30
0.0
 11
33.700000495
 21
-44.940758496
 31
0.0
  0
ARC
  5
177
330
1D
100
AcDbEntity
  8
1
100
AcDbCircle
 10
35.165402881
 20
-43.261012701
 30
0.0
 40
2.224284693
100
AcDbArc
 50
217.467827487
 51
227.054754548
  0
LINE
  5
178
330
1D
100
AcDbEntity
  8
1
100
AcDbLine
 10
33.399999142
 20
37.200000137
 30
0.0
 11
33.399999142
 21
-44.61408034
 31
0.0
  0
LINE
  5
179
330
1D
100
AcDbEntity
  8
1
100
AcDbLine
 10
50.906904042
 20
44.999554753
 30
0.0
 11
37.356331944
 21
44.999554753
 31
0.0
  0
LINE
  5
17A
330
1D
100
AcDbEntity
  8
1
100
AcDbLine
 10
58.30231435202663
 20
46.3035784649249
 30
0.0
 11
50.906904042
 21
44.999554753
 31
0.0
  0
LINE
  5
17B
330
1D
100
AcDbEntity
  8
1
100
AcDbLine
 10
57.313285768
 20
36.887090653
 30
0.0
 11
58.299999684
 21
38.063015789
 31
0.0
  0
ARC
  5
17C
330
1D
100
AcDbEntity
  8
1
100
AcDbCircle
 10
59.305
 20
35.215844608
 30
0.0
 40
2.6
100
AcDbArc
 50
140.0
 51
320.0
  0
LINE
  5
17D
330
1D
100
AcDbEntity
  8
1
100
AcDbLine
 10
62.283430248
 20
34.720517695
 30
0.0
 11
61.296716332
 21
33.544596285
 31
0.0
  0
LINE
  5
17E
330
1D
100
AcDbEntity
  8
1
100
AcDbLine
 10
70.6499964
 20
36.264974624
 30
0.0
 11
70.645272732
 21
36.264136434
 31
0.0
  0
LINE
  5
17F
330
1D
100
AcDbEntity
  8
1
100
AcDbLine
 10
70.6499964
 20
7.566987071
 30
0.0
 11
70.6499964
 21
36.264974624
 31
0.0
  0
LINE
  5
180
330
1D
100
AcDbEntity
  8
1
100
AcDbLine
 10
66.281199455
 20
0.0
 30
0.0
 11
70.6499964
 21
7.566987071
 31
0.0
  0
ARC
  5
182
330
1D
100
AcDbEntity
  8
1
100
AcDbCircle
 10
36.895820371
 20
90.278147808
 30
0.0
 40
45.280934839
100
AcDbArc
 50
270.319192114
 51
270.582713774
  0
LINE
  5
183
330
1D
100
AcDbEntity
  8
1
100
AcDbLine
 10
33.849999309
 20
44.889200479
 30
0.0
 11
33.900000155
 21
44.940758497
 31
0.0
  0
ARC
  5
184
330
1D
100
AcDbEntity
  8
1
100
AcDbCircle
 10
37.898076211
 20
-86.557548812
 30
0.0
 40
131.557603295
100
AcDbArc
 50
90.326640698
 51
91.74148512800001
  0
LINE
  5
185
330
1D
100
AcDbEntity
  8
1
100
AcDbLine
 10
33.599998802
 20
37.399999797
 30
0.0
 11
33.599998802
 21
44.61408034
 31
0.0
  0
ARC
  5
186
330
1D
100
AcDbEntity
  8
1
100
AcDbCircle
 10
35.365402541
 20
43.261012701
 30
0.0
 40
2.224284693
100
AcDbArc
 50
132.945245452
 51
142.532172513
  0
ARC
  5
188
330
1D
100
AcDbEntity
  8
1
100
AcDbCircle
 10
59.1
 20
46.242770513
 30
0.0
 40
0.8
100
AcDbArc
 50
100.0
 51
180.0
  0
LINE
  5
189
330
1D
100
AcDbEntity
  8
1
100
AcDbLine
 10
70.061080158
 20
48.987846822
 30
0.0
 11
58.96108225
 21
47.030616552
 31
0.0
  0
ARC
  5
18A
330
1D
100
AcDbEntity
  8
1
100
AcDbCircle
 10
70.2
 20
48.199999999
 30
0.0
 40
0.8
100
AcDbArc
 50
0.0
 51
100.0
  0
LINE
  5
18B
330
1D
100
AcDbEntity
  8
1
100
AcDbLine
 10
71.000002325
 20
36.928765476
 30
0.0
 11
71.000002325
 21
48.200000078
 31
0.0
  0
ARC
  5
18C
330
1D
100
AcDbEntity
  8
1
100
AcDbCircle
 10
70.2
 20
36.928764607
 30
0.0
 40
0.8
100
AcDbArc
 50
280.0
 51
0.0
  0
ARC
  5
18E
330
1D
100
AcDbEntity
  8
1
100
AcDbCircle
 10
59.1
 20
34.971535121
 30
0.0
 40
0.8
100
AcDbArc
 50
180.0
 51
280.0
  0
ARC
  5
18F
330
1D
100
AcDbEntity
  8
CUT
100
AcDbCircle
 10
70.2
 20
-48.199999999
 30
0.0
 40
0.8
100
AcDbArc
 50
260.0
 51
0.0
  0
ARC
  5
190
330
1D
100
AcDbEntity
  8
CUT
100
AcDbCircle
 10
70.2
 20
-48.199999999
 30
0.0
 40
0.21554549
100
AcDbArc
 50
260.0
 51
0.0
  0
ARC
  5
191
330
1D
100
AcDbEntity
  8
CUT
100
AcDbCircle
 10
70.2
 20
-36.928764607
 30
0.0
 40
0.8
100
AcDbArc
 50
0.0
 51
55.898251634
  0
ARC
  5
192
330
1D
100
AcDbEntity
  8
CUT
100
AcDbCircle
 10
70.2
 20
-36.928764607
 30
0.0
 40
0.21554549
100
AcDbArc
 50
0.0
 51
80.0
  0
LINE
  5
193
330
1D
100
AcDbEntity
  8
CUT
100
AcDbLine
 10
71.000002325
 20
-36.928765476
 30
0.0
 11
71.000002325
 21
-48.200000077
 31
0.0
  0
LINE
  5
194
330
1D
100
AcDbEntity
  8
CUT
100
AcDbLine
 10
70.41554898
 20
-48.200000077
 30
0.0
 11
70.41554898
 21
-36.928765476
 31
0.0
  0
LINE
  5
195
330
1D
100
AcDbEntity
  8
CUT
100
AcDbLine
 10
70.23742795
 20
-36.716494709
 30
0.0
 11
70.208564401
 21
-36.711402237
 31
0.0
  0
LINE
  5
196
330
1D
100
AcDbEntity
  8
CUT
100
AcDbLine
 10
59.062570333
 20
-46.455040574
 30
0.0
 11
70.162571967
 21
-48.412270844
 31
0.0
  0
ARC
  5
197
330
1D
100
AcDbEntity
  8
CUT
100
AcDbCircle
 10
59.1
 20
-46.242770513
 30
0.0
 40
0.21554549
100
AcDbArc
 50
180.0
 51
260.0
  0
LINE
  5
198
330
1D
100
AcDbEntity
  8
1
100
AcDbLine
 10
58.884453028
 20
-46.197596937
 30
0.0
 11
58.884453028
 21
-46.242769807
 31
0.0
  0
LINE
  5
199
330
1D
100
AcDbEntity
  8
CUT
100
AcDbLine
 10
70.061080158
 20
-48.987846821
 30
0.0
 11
58.96108225
 21
-47.030616552
 31
0.0
  0
ARC
  5
19A
330
1D
100
AcDbEntity
  8
CUT
100
AcDbCircle
 10
59.1
 20
-46.242770513
 30
0.0
 40
0.8
100
AcDbArc
 50
184.429224501
 51
260.0
  0
ARC
  5
19C
330
1D
100
AcDbEntity
  8
1
100
AcDbCircle
 10
63.458743816
 20
39.626737131
 30
0.0
 40
0.7
100
AcDbArc
 50
3.384161806
 51
116.615838194
  0
ARC
  5
19D
330
1D
100
AcDbEntity
  8
1
100
AcDbCircle
 10
64.457
 20
39.68576756
 30
0.0
 40
0.3
100
AcDbArc
 50
183.384161806
 51
356.615838194
  0
ARC
  5
19F
330
1D
100
AcDbEntity
  8
1
100
AcDbCircle
 10
65.455256184
 20
39.626737131
 30
0.0
 40
0.7
100
AcDbArc
 50
63.384161806
 51
176.615838194
  0
ARC
  5
1A0
330
1D
100
AcDbEntity
  8
1
100
AcDbCircle
 10
65.903262424
 20
40.52076756
 30
0.0
 40
0.3
100
AcDbArc
 50
243.384161806
 51
56.61583819400001
  0
ARC
  5
1A2
330
1D
100
AcDbEntity
  8
1
100
AcDbCircle
 10
62.460487633
 20
41.35576756
 30
0.0
 40
0.7
100
AcDbArc
 50
303.384161806
 51
56.615838194
  0
ARC
  5
1A3
330
1D
100
AcDbEntity
  8
1
100
AcDbCircle
 10
63.010737576
 20
40.52076756
 30
0.0
 40
0.3
100
AcDbArc
 50
123.384161806
 51
296.615838194
  0
ARC
  5
1A4
330
1D
100
AcDbEntity
  8
1
100
AcDbCircle
 10
66.453512367
 20
41.35576756
 30
0.0
 40
0.7
100
AcDbArc
 50
123.384161806
 51
236.615838194
  0
ARC
  5
1A5
330
1D
100
AcDbEntity
  8
1
100
AcDbCircle
 10
65.903262424
 20
42.19076756
 30
0.0
 40
0.3
100
AcDbArc
 50
303.384161806
 51
116.615838194
  0
ARC
  5
1A7
330
1D
100
AcDbEntity
  8
1
100
AcDbCircle
 10
65.455256184
 20
43.084797989
 30
0.0
 40
0.7
100
AcDbArc
 50
183.384161806
 51
296.615838194
  0
ARC
  5
1A8
330
1D
100
AcDbEntity
  8
1
100
AcDbCircle
 10
64.457
 20
43.02576756
 30
0.0
 40
0.3
100
AcDbArc
 50
3.384161806
 51
176.615838194
  0
ARC
  5
1AB
330
1D
100
AcDbEntity
  8
1
100
AcDbCircle
 10
63.458743816
 20
43.084797989
 30
0.0
 40
0.7
100
AcDbArc
 50
243.384161806
 51
356.615838194
  0
ARC
  5
1AC
330
1D
100
AcDbEntity
  8
1
100
AcDbCircle
 10
63.010737576
 20
42.19076756
 30
0.0
 40
0.3
100
AcDbArc
 50
63.384161806
 51
236.615838194
  0
LINE
  5
1AD
330
1D
100
AcDbEntity
  8
1
100
AcDbLine
 10
69.269642234
 20
-48.033956438
 30
0.0
 11
69.109521806
 21
-47.837384045
 31
0.0
  0
LINE
  5
1AE
330
1D
100
AcDbEntity
  8
1
100
AcDbLine
 10
69.109521806
 20
-47.837384045
 30
0.0
 11
68.784579635
 21
-47.28018865
 31
0.0
  0
LINE
  5
1AF
330
1D
100
AcDbEntity
  8
1
100
AcDbLine
 10
68.784579635
 20
-47.28018865
 30
0.0
 11
68.464107812
 21
-46.516869217
 31
0.0
  0
LINE
  5
1B0
330
1D
100
AcDbEntity
  8
1
100
AcDbLine
 10
68.464107812
 20
-46.516869217
 30
0.0
 11
68.142667413
 21
-45.524671674
 31
0.0
  0
LINE
  5
1B1
330
1D
100
AcDbEntity
  8
1
100
AcDbLine
 10
68.142667413
 20
-45.524671674
 30
0.0
 11
67.827783525
 21
-44.319666922
 31
0.0
  0
LINE
  5
1B2
330
1D
100
AcDbEntity
  8
1
100
AcDbLine
 10
67.827783525
 20
-44.319666922
 30
0.0
 11
67.52153486
 21
-42.911227792
 31
0.0
  0
LINE
  5
1B3
330
1D
100
AcDbEntity
  8
1
100
AcDbLine
 10
67.52153486
 20
-42.911227792
 30
0.0
 11
67.226007581
 21
-41.308727115
 31
0.0
  0
LINE
  5
1B4
330
1D
100
AcDbEntity
  8
1
100
AcDbLine
 10
67.226007581
 20
-41.308727115
 30
0.0
 11
66.943272948
 21
-39.521537721
 31
0.0
  0
LINE
  5
1B5
330
1D
100
AcDbEntity
  8
1
100
AcDbLine
 10
66.943272948
 20
-39.521537721
 30
0.0
 11
66.648215055
 21
-37.349160761
 31
0.0
  0
LINE
  5
1B6
330
1D
100
AcDbEntity
  8
1
100
AcDbLine
 10
66.648215055
 20
-37.349160761
 30
0.0
 11
66.370099783
 21
-34.967184067
 31
0.0
  0
LINE
  5
1B7
330
1D
100
AcDbEntity
  8
1
100
AcDbLine
 10
66.370099783
 20
-34.967184067
 30
0.0
 11
66.111251712
 21
-32.395001501
 31
0.0
  0
LINE
  5
1B8
330
1D
100
AcDbEntity
  8
1
100
AcDbLine
 10
69.272786379
 20
-48.037312925
 30
0.0
 11
69.269642234
 21
-48.033956438
 31
0.0
  0
ARC
  5
1B9
330
1D
100
AcDbEntity
  8
1
100
AcDbCircle
 10
230.651624272
 20
-16.014829959
 30
0.0
 40
164.372441444
100
AcDbArc
 50
185.719501146
 51
187.095933649
  0
ARC
  5
1BA
330
1D
100
AcDbEntity
  8
1
100
AcDbCircle
 10
148.915641656
 20
-26.189693927
 30
0.0
 40
82.01322166
100
AcDbArc
 50
187.095933649
 51
192.474884001
  0
ARC
  5
1BB
330
1D
100
AcDbEntity
  8
1
100
AcDbCircle
 10
81.434118181
 20
-41.118856323
 30
0.0
 40
12.90001091
100
AcDbArc
 50
192.475314839
 51
202.812008309
  0
ARC
  5
1BC
330
1D
100
AcDbEntity
  8
1
100
AcDbCircle
 10
73.928177817
 20
-44.275914391
 30
0.0
 40
4.757151682
100
AcDbArc
 50
202.812008309
 51
218.681923559
  0
LINE
  5
1BD
330
1D
100
AcDbEntity
  8
CUT
100
AcDbLine
 10
70.41554898
 20
-48.200000077
 30
0.0
 11
71.000002325
 21
-48.200000077
 31
0.0
  0
LINE
  5
1BE
330
1D
100
AcDbEntity
  8
CUT
100
AcDbLine
 10
70.162571967
 20
-48.412270844
 30
0.0
 11
70.061080158
 21
-48.987846821
 31
0.0
  0
LINE
  5
1BF
330
1D
100
AcDbEntity
  8
CUT
100
AcDbLine
 10
70.23742795
 20
-36.716494709
 30
0.0
 11
70.297457278
 21
-36.376059055
 31
0.0
  0
LINE
  5
1C0
330
1D
100
AcDbEntity
  8
CUT
100
AcDbLine
 10
70.41554898
 20
-36.928765476
 30
0.0
 11
71.000002325
 21
-36.928765476
 31
0.0
  0
LINE
  5
1C1
330
1D
100
AcDbEntity
  8
CUT
100
AcDbLine
 10
59.062570333
 20
-46.455040574
 30
0.0
 11
58.96108225
 21
-47.030616552
 31
0.0
  0
LINE
  5
1C2
330
1D
100
AcDbEntity
  8
CUT
100
AcDbLine
 10
58.884453028
 20
-46.242769807
 30
0.0
 11
58.534707874
 21
-46.242769807
 31
0.0
  0
CIRCLE
  5
1C3
330
1D
100
AcDbEntity
  8
1
100
AcDbCircle
 10
64.457
 20
41.35576756
 30
0.0
 40
3.221499288
  0
LINE
  5
1C4
330
1D
100
AcDbEntity
  8
SK2
100
AcDbLine
 10
87.730654907
 20
-48.999999999
 30
0.0
 11
70.2
 21
-48.999999999
 31
0.0
  0
LINE
  5
1C5
330
1D
100
AcDbEntity
  8
SK2
100
AcDbLine
 10
85.730654907
 20
-48.999999999
 30
0.0
 11
85.280654907
 21
-45.499999999
 31
0.0
  0
LINE
  5
1C6
330
1D
100
AcDbEntity
  8
SK2
100
AcDbLine
 10
85.280654907
 20
-45.499999999
 30
0.0
 11
86.180654907
 21
-45.499999999
 31
0.0
  0
LINE
  5
1C7
330
1D
100
AcDbEntity
  8
SK2
100
AcDbLine
 10
86.180654907
 20
-45.499999999
 30
0.0
 11
85.730654907
 21
-48.999999999
 31
0.0
  0
LINE
  5
1C8
330
1D
100
AcDbEntity
  8
SK2
100
AcDbLine
 10
87.730654907
 20
48.999999999
 30
0.0
 11
70.2
 21
48.999999999
 31
0.0
  0
LINE
  5
1C9
330
1D
100
AcDbEntity
  8
SK2
100
AcDbLine
 10
85.730654907
 20
48.999999999
 30
0.0
 11
86.180654907
 21
45.499999999
 31
0.0
  0
LINE
  5
1CA
330
1D
100
AcDbEntity
  8
SK2
100
AcDbLine
 10
86.180654907
 20
45.499999999
 30
0.0
 11
85.280654907
 21
45.499999999
 31
0.0
  0
LINE
  5
1CB
330
1D
100
AcDbEntity
  8
SK2
100
AcDbLine
 10
85.280654907
 20
45.499999999
 30
0.0
 11
85.730654907
 21
48.999999999
 31
0.0
  0
LINE
  5
1CC
330
1D
100
AcDbEntity
  8
SK2
100
AcDbLine
 10
85.730654907
 20
-45.499999999
 30
0.0
 11
85.730654907
 21
45.499999999
 31
0.0
  0
TEXT
  5
1CD
330
1D
100
AcDbEntity
  8
SK2
100
AcDbText
 10
84.230654907
 20
-3.723907345
 30
0.0
 40
3.5
  1
98
 50
90.0
  7
BMG_Text
100
AcDbText
  0
CIRCLE
  5
1CE
330
1D
100
AcDbEntity
  8
SK2
100
AcDbCircle
 10
82.980654907
 20
-5.973907345
 30
0.0
 40
1.25
  0
LINE
  5
1CF
330
1D
100
AcDbEntity
  8
SK2
100
AcDbLine
 10
84.230654907
 20
-7.223907345
 30
0.0
 11
81.730654907
 21
-4.723907345
 31
0.0
  0
TEXT
  5
1D0
330
1D
100
AcDbEntity
  8
SK2
100
AcDbText
 10
84.230654907
 20
0.996092655
 30
0.0
 40
3.5
  1
-153
 50
90.0
  7
BMG_Text
100
AcDbText
  0
LINE
  5
279
330
1D
100
AcDbEntity
  8
1
100
AcDbLine
 10
62.283430248
 20
34.720517695
 30
0.0
 11
70.33891854213354
 21
36.14091840459023
 31
0.0
  0
LINE
  5
27A
330
1D
100
AcDbEntity
  8
1
100
AcDbLine
 10
70.33891854213354
 20
36.14091840459023
 30
0.0
 11
70.6499964
 21
36.14091840459023
 31
0.0
  0
LINE
  5
27B
330
1D
100
AcDbEntity
  8
3
100
AcDbLine
 10
70.645272732
 20
36.264136434
 30
0.0
 11
70.2
 21
36.928764607
 31
0.0
  0
LINE
  5
27C
330
1D
100
AcDbEntity
  8
3
100
AcDbLine
 10
70.2
 20
36.928764607
 30
0.0
 11
70.2
 21
48.199999999
 31
0.0
  0
LINE
  5
27D
330
1D
100
AcDbEntity
  8
3
100
AcDbLine
 10
70.2
 20
48.199999999
 30
0.0
 11
59.1
 21
46.242770513
 31
0.0
  0
LINE
  5
27E
330
1D
100
AcDbEntity
  8
3
100
AcDbLine
 10
59.1
 20
46.242770513
 30
0.0
 11
58.30231435202663
 21
46.3035784649249
 31
0.0
  0
LINE
  5
284
330
1D
100
AcDbEntity
  8
1
100
AcDbLine
 10
58.299999684
 20
38.063015789
 30
0.0
 11
58.299999684
 21
46.24461432677813
 31
0.0
  0
LINE
  5
285
330
1D
100
AcDbEntity
  8
1
100
AcDbLine
 10
58.299999684
 20
46.24461432677813
 30
0.0
 11
58.28998592273743
 21
46.30140460797175
 31
0.0
  0
LINE
  5
287
330
1D
100
AcDbEntity
  8
1
100
AcDbLine
 10
59.23891854213355
 20
34.18368891859024
 30
0.0
 11
70.33891854213354
 21
36.14091840459023
 31
0.0
  0
LINE
  5
288
330
1D
100
AcDbEntity
  8
1
100
AcDbLine
 10
58.3
 20
34.971535121
 30
0.0
 11
58.3
 21
46.31657212136465
 31
0.0
  0
LINE
  5
28B
330
1D
100
AcDbEntity
  8
NOCUT
100
AcDbLine
 10
0.0
 20
0.0
 30
0.0
 11
0.0
 21
31.25
 31
0.0
  0
LINE
  5
28C
330
1D
100
AcDbEntity
  8
NOCUT
100
AcDbLine
 10
0.0
 20
31.25
 30
0.0
 11
0.500000024
 21
31.750001013
 31
0.0
  0
LINE
  5
28D
330
1D
100
AcDbEntity
  8
NOCUT
100
AcDbLine
 10
0.500000024
 20
31.750001013
 30
0.0
 11
0.500000024
 21
43.999999762
 31
0.0
  0
LINE
  5
28E
330
1D
100
AcDbEntity
  8
NOCUT
100
AcDbLine
 10
0.500000024
 20
43.999999762
 30
0.0
 11
1.500000013
 21
45.000001788
 31
0.0
  0
LINE
  5
28F
330
1D
100
AcDbEntity
  8
NOCUT
100
AcDbLine
 10
1.500000013
 20
45.000001788
 30
0.0
 11
50.90943927753116
 21
45.000001788
 31
0.0
  0
LINE
  5
290
330
1D
100
AcDbEntity
  8
NOCUT
100
AcDbLine
 10
50.90943927753116
 20
45.000001788
 30
0.0
 11
58.30231435202663
 21
46.3035784649249
 31
0.0
  0
LINE
  5
297
330
1D
100
AcDbEntity
  8
NOCUT
100
AcDbLine
 10
70.6499964
 20
36.264974624
 30
0.0
 11
70.6499964
 21
7.566987071
 31
0.0
  0
LINE
  5
298
330
1D
100
AcDbEntity
  8
NOCUT
100
AcDbLine
 10
70.6499964
 20
7.566987071
 30
0.0
 11
66.281199455
 21
0.0
 31
0.0
  0
LINE
  5
299
330
1D
100
AcDbEntity
  8
NOCUT
100
AcDbLine
 10
66.281199455
 20
0.0
 30
0.0
 11
0.0
 21
0.0
 31
0.0
  0
LWPOLYLINE
  5
2A0
330
1D
100
AcDbEntity
  8
INFTOTAL
100
AcDbPolyline
 90
        4
 70
     1
 43
0.0
 10
123.7414379672187
 20
79.11614457489245
 10
123.7414379672187
 20
-74.49972883431542
 10
-103.3549525059605
 20
-74.49972883431542
 10
-103.3549525059605
 20
79.11614457489245
  0
LINE
  5
2A3
330
1D
100
AcDbEntity
  8
SK4
100
AcDbLine
 10
-43.352515002
 20
0.0
 30
0.0
 11
75.700926738
 21
0.0
 31
0.0
  0
LINE
  5
2A6
330
1D
100
AcDbEntity
  8
SK4
100
AcDbLine
 10
-1.750111503
 20
-6.636380632
 30
0.0
 11
12.237092298
 21
-30.340964132
 31
0.0
  0
LINE
  5
2A7
330
1D
100
AcDbEntity
  8
SK4
100
AcDbLine
 10
-1.750111503
 20
6.636380632
 30
0.0
 11
12.237092298
 21
30.340964132
 31
0.0
  0
LINE
  5
2C3
330
1D
100
AcDbEntity
  8
NOCUT
100
AcDbLine
 10
58.30231435202663
 20
46.3035784649249
 30
0.0
 11
59.1
 21
46.242770513
 31
0.0
  0
LINE
  5
2C4
330
1D
100
AcDbEntity
  8
NOCUT
100
AcDbLine
 10
59.1
 20
46.242770513
 30
0.0
 11
70.2
 21
48.199999999
 31
0.0
  0
LINE
  5
2C5
330
1D
100
AcDbEntity
  8
NOCUT
100
AcDbLine
 10
70.2
 20
48.199999999
 30
0.0
 11
70.2
 21
36.928764607
 31
0.0
  0
LINE
  5
2C6
330
1D
100
AcDbEntity
  8
NOCUT
100
AcDbLine
 10
70.2
 20
36.928764607
 30
0.0
 11
70.645272732
 21
36.264136434
 31
0.0
  0
LINE
  5
2C7
330
1D
100
AcDbEntity
  8
NOCUT
100
AcDbLine
 10
70.645272732
 20
36.264136434
 30
0.0
 11
70.6499964
 21
36.264974624
 31
0.0
  0
LINE
  5
2F8
330
1D
100
AcDbEntity
  8
SK3
100
AcDbLine
 10
-3.891011002
 20
7.927552797
 30
0.0
 11
0.0
 21
14.52178000877556
 31
0.0
  0
LINE
  5
2F9
330
1D
100
AcDbEntity
  8
SK3
100
AcDbLine
 10
-3.891011002
 20
-7.927552797
 30
0.0
 11
0.0000000000000005
 21
-14.52178000877557
 31
0.0
  0
LINE
  5
2FB
330
1D
100
AcDbEntity
  8
3
100
AcDbLine
 10
-0.0000000000000071
 20
-8.000000408
 30
0.0
 11
1.000024707
 21
-8.000000408
 31
0.0
  0
LINE
  5
2FC
330
1D
100
AcDbEntity
  8
3
100
AcDbLine
 10
1.000000048
 20
8.00002248
 30
0.0
 11
0.0
 21
8.00002248
 31
0.0
  0
LINE
  5
345
330
1D
100
AcDbEntity
  8
SK1
100
AcDbLine
 10
0.0000000000010895
 20
17.80000000000082
 30
0.0
 11
0.000000000001089
 21
-17.80000000000081
 31
0.0
  0
LINE
  5
349
330
1D
100
AcDbEntity
  8
SK4
100
AcDbLine
 10
7.822908113
 20
30.588745783
 30
0.0
 11
22.174620986
 21
38.219686247
 31
0.0
  0
LINE
  5
34A
330
1D
100
AcDbEntity
  8
SK4
100
AcDbLine
 10
7.822908113
 20
-30.588745783
 30
0.0
 11
22.174620986
 21
-38.219686247
 31
0.0
  0
ARC
  5
36F
330
1D
100
AcDbEntity
  8
CUT
100
AcDbCircle
 10
59.09999999999999
 20
46.242770513
 30
0.0
 40
0.8
100
AcDbArc
 50
100.0000000000006
 51
180.0
  0
LINE
  5
370
330
1D
100
AcDbEntity
  8
CUT
100
AcDbLine
 10
70.06108015799998
 20
48.987846822
 30
0.0
 11
58.96108224999998
 21
47.030616552
 31
0.0
  0
ARC
  5
371
330
1D
100
AcDbEntity
  8
CUT
100
AcDbCircle
 10
70.19999999999999
 20
48.199999999
 30
0.0
 40
0.8
100
AcDbArc
 50
0.0
 51
99.99999999999858
  0
LINE
  5
372
330
1D
100
AcDbEntity
  8
CUT
100
AcDbLine
 10
71.00000232499997
 20
36.928765476
 30
0.0
 11
71.00000232499997
 21
48.200000078
 31
0.0
  0
ARC
  5
373
330
1D
100
AcDbEntity
  8
CUT
100
AcDbCircle
 10
70.19999999999999
 20
36.928764607
 30
0.0
 40
0.8
100
AcDbArc
 50
279.9999999999986
 51
0.0
  0
ARC
  5
374
330
1D
100
AcDbEntity
  8
CUT
100
AcDbCircle
 10
59.09999999999999
 20
34.971535121
 30
0.0
 40
0.8
100
AcDbArc
 50
180.0
 51
280.0000000000006
  0
LINE
  5
375
330
1D
100
AcDbEntity
  8
CUT
100
AcDbLine
 10
59.23891854213355
 20
34.18368891859024
 30
0.0
 11
70.33891854213351
 21
36.14091840459023
 31
0.0
  0
LINE
  5
376
330
1D
100
AcDbEntity
  8
CUT
100
AcDbLine
 10
58.29999999999998
 20
34.971535121
 30
0.0
 11
58.29999999999998
 21
46.31657212136465
 31
0.0
  0
HATCH
  5
384
330
1D
100
AcDbEntity
  8
7
100
AcDbHatch
 10
0.0
 20
0.0
 30
0.0
210
0.0
220
0.0
230
1.0
  2
ANSI37
 70
     0
 71
     0
 91
        2
 92
        7
 72
     1
 73
     1
 93
        8
 10
71.00000058124999
 20
36.92876482425
 42
0.0
 10
71.00000058124999
 20
48.20000001875
 42
0.4663071172185552
 10
70.06108113289986
 20
48.98784635655733
 42
0.0
 10
58.96108165589982
 20
47.03061667455733
 42
0.3639703733295182
 10
58.29999999999995
 20
46.242770513
 42
0.0
 10
58.29999999999995
 20
34.971535121
 42
0.4663076581550151
 10
59.23891854213355
 20
34.18368891859024
 42
0.0
 10
70.33891854213977
 20
36.14091840459133
 42
0.3639697459835039
 97
        0
 92
       22
 72
     1
 73
     1
 93
        2
 10
61.235500712
 20
41.35576756
 42
-1.0
 10
67.67849928799998
 20
41.35576756
 42
-1.0
 97
        0
 75
     0
 76
     1
 52
90.0
 41
5.0
 77
     0
 78
     2
 53
135.0
 43
-122.2017694951983
 44
-12.02496631012698
 45
-0.4419417382415922
 46
-0.4419417382415922
 79
     0
 53
225.0
 43
-122.2017694951983
 44
-12.02496631012698
 45
0.4419417382415922
 46
-0.4419417382415923
 79
     0
 47
0.0
 98
        2
 10
69.18153868060631
 20
43.55667490511043
 10
69.18153868060631
 20
43.55667490511043
1001
ACAD
1010
0.0
1020
0.0
1030
0.0
1001
PE_URL
1000

  0
LINE
  5
3CC
330
1D
100
AcDbEntity
  8
4
100
AcDbLine
 10
60.41563531771499
 20
41.35576756
 30
0.0
 11
68.49836468228659
 21
41.35576756
 31
0.0
  0
LINE
  5
3CD
330
1D
100
AcDbEntity
  8
4
100
AcDbLine
 10
64.45700000000033
 20
37.31440287771375
 30
0.0
 11
64.45700000000033
 21
45.39713224228581
 31
0.0
  0
LINE
  5
3CF
330
1D
100
AcDbEntity
  8
SK4
100
AcDbLine
 10
60.41563531771499
 20
41.35576756
 30
0.0
 11
68.49836468228659
 21
41.35576756
 31
0.0
  0
LINE
  5
3D0
330
1D
100
AcDbEntity
  8
SK4
100
AcDbLine
 10
64.45700000000033
 20
45.39713224228581
 30
0.0
 11
64.45700000000033
 21
37.31440287771375
 31
0.0
  0
ENDSEC
  0
SECTION
  2
OBJECTS
  0
DICTIONARY
  5
C
330
0
100
AcDbDictionary
281
     1
  3
ACAD_COLOR
350
360
  3
ACAD_DETAILVIEWSTYLE
350
282
  3
ACAD_GROUP
350
D
  3
ACAD_LAYOUT
350
1A
  3
ACAD_MATERIAL
350
20F
  3
ACAD_MLEADERSTYLE
350
21D
  3
ACAD_MLINESTYLE
350
17
  3
ACAD_PLOTSETTINGS
350
19
  3
ACAD_PLOTSTYLENAME
350
E
  3
ACAD_SCALELIST
350
1D8
  3
ACAD_SECTIONVIEWSTYLE
350
283
  3
ACAD_TABLESTYLE
350
266
  3
ACAD_VISUALSTYLE
350
1FE
  3
ACDB_RECOMPOSE_DATA
350
3D3
  3
AcDbVariableDictionary
350
21B
  3
APPDATA
350
269
  0
SUN
  5
2A1
330
1D1
100
AcDbSun
 90
        1
290
     0
 63
     7
421
 16777215
 40
1.0
291
     1
 91
  2455826
 92
 54000000
292
     0
 70
     2
 71
   256
280
     1
  0
DICTIONARY
  5
26A
330
2
100
AcDbDictionary
280
     1
281
     1
  3
ACAD_LAYERSTATES
360
26B
  3
ACLYDICTIONARY
360
38A
  0
DICTIONARY
  5
379
330
1D
100
AcDbDictionary
280
     1
281
     1
  3
ACAD_SORTENTS
360
37A
  0
DICTIONARY
  5
360
102
{ACAD_REACTORS
330
C
102
}
330
C
100
AcDbDictionary
281
     1
  0
DICTIONARY
  5
282
102
{ACAD_REACTORS
330
C
102
}
330
C
100
AcDbDictionary
281
     1
  0
DICTIONARY
  5
D
102
{ACAD_REACTORS
330
C
102
}
330
C
100
AcDbDictionary
281
     1
  0
DICTIONARY
  5
1A
102
{ACAD_REACTORS
330
C
102
}
330
C
100
AcDbDictionary
281
     1
  3
Layout1
350
1C
  3
Model
350
1E
  0
DICTIONARY
  5
20F
102
{ACAD_REACTORS
330
C
102
}
330
C
100
AcDbDictionary
281
     1
  3
ByBlock
350
211
  3
ByLayer
350
210
  3
Global
350
212
  0
DICTIONARY
  5
21D
102
{ACAD_REACTORS
330
C
102
}
330
C
100
AcDbDictionary
281
     1
  3
Standard
350
268
  0
DICTIONARY
  5
17
102
{ACAD_REACTORS
330
C
102
}
330
C
100
AcDbDictionary
281
     1
  3
Standard
350
18
  0
DICTIONARY
  5
19
102
{ACAD_REACTORS
330
C
102
}
330
C
100
AcDbDictionary
281
     1
  0
ACDBDICTIONARYWDFLT
  5
E
102
{ACAD_REACTORS
330
C
102
}
330
C
100
AcDbDictionary
281
     1
  3
Normal
350
F
100
AcDbDictionaryWithDefault
340
F
  0
DICTIONARY
  5
1D8
102
{ACAD_REACTORS
330
C
102
}
330
C
100
AcDbDictionary
281
     1
  3
A0
350
1D9
  3
A1
350
1DA
  3
A2
350
1DB
  3
A3
350
1DC
  3
A4
350
1DD
  3
A5
350
1DE
  3
A6
350
1DF
  3
A7
350
1E0
  3
A8
350
1E1
  3
A9
350
1E2
  3
B0
350
1E3
  3
B1
350
1E4
  3
B2
350
1E5
  3
B3
350
1E6
  3
B4
350
1E7
  3
B5
350
1E8
  3
B6
350
1E9
  3
B7
350
1EA
  3
B8
350
1EB
  3
B9
350
1EC
  3
C0
350
1ED
  3
C1
350
1EE
  3
C2
350
1EF
  3
C3
350
1F0
  3
C4
350
1F1
  3
C5
350
1F2
  3
C6
350
1F3
  3
C7
350
1F4
  3
C8
350
1F5
  3
C9
350
1F6
  3
D0
350
1F7
  3
D1
350
1F8
  3
D2
350
1F9
  0
DICTIONARY
  5
283
102
{ACAD_REACTORS
330
C
102
}
330
C
100
AcDbDictionary
281
     1
  0
DICTIONARY
  5
266
102
{ACAD_REACTORS
330
C
102
}
330
C
100
AcDbDictionary
281
     1
  3
Standard
350
267
  0
DICTIONARY
  5
1FE
102
{ACAD_REACTORS
330
C
102
}
330
C
100
AcDbDictionary
281
     1
  3
2dWireframe
350
203
  3
3D Hidden
350
205
  3
3dWireframe
350
204
  3
Basic
350
206
  3
Brighten
350
20A
  3
ColorChange
350
20E
  3
Conceptual
350
208
  3
Dim
350
209
  3
EdgeColorOff
350
260
  3
Facepattern
350
20D
  3
Flat
350
1FF
  3
FlatWithEdges
350
200
  3
Gouraud
350
201
  3
GouraudWithEdges
350
202
  3
Hidden
350
25D
  3
JitterOff
350
25E
  3
Linepattern
350
20C
  3
OverhangOff
350
25F
  3
Realistic
350
207
  3
Shaded
350
265
  3
Shaded with edges
350
264
  3
Shades of Gray
350
261
  3
Sketchy
350
262
  3
Thicken
350
20B
  3
Wireframe
350
25C
  3
X-Ray
350
263
  0
XRECORD
  5
3D3
102
{ACAD_REACTORS
330
C
102
}
330
C
100
AcDbXrecord
280
     1
 90
        1
330
267
  0
DICTIONARY
  5
21B
102
{ACAD_REACTORS
330
C
102
}
330
C
100
AcDbDictionary
281
     1
  3
CANNOSCALE
350
27F
  3
CMLEADERSTYLE
350
281
  3
CTABLESTYLE
350
280
  3
DIMASSOC
350
21F
  3
HIDETEXT
350
220
  3
MSLTSCALE
350
21E
  0
DICTIONARY
  5
269
102
{ACAD_REACTORS
330
C
102
}
330
C
100
AcDbDictionary
281
     1
  0
DICTIONARY
  5
26B
102
{ACAD_REACTORS
330
26A
102
}
330
26A
100
AcDbDictionary
281
     1
  0
DICTIONARY
  5
38A
102
{ACAD_REACTORS
330
26A
102
}
330
26A
100
AcDbDictionary
281
     1
1001
ACAD
1000
<All
  0
SORTENTSTABLE
  5
37A
102
{ACAD_REACTORS
330
379
102
}
330
379
100
AcDbSortentsTable
330
1D
331
0
  5
5F
331
34
  5
35
331
35
  5
36
331
36
  5
37
331
37
  5
38
331
38
  5
39
331
39
  5
3A
331
3A
  5
3B
331
3B
  5
3C
331
3C
  5
3D
331
3D
  5
3E
331
3E
  5
3F
331
3F
  5
40
331
40
  5
41
331
41
  5
42
331
42
  5
43
331
43
  5
44
331
44
  5
45
331
45
  5
46
331
46
  5
47
331
47
  5
48
331
48
  5
49
331
49
  5
4A
331
4A
  5
4B
331
4B
  5
4C
331
4C
  5
4D
331
4D
  5
4E
331
4E
  5
50
331
50
  5
51
331
51
  5
52
331
52
  5
53
331
53
  5
54
331
54
  5
55
331
55
  5
56
331
56
  5
57
331
57
  5
58
331
58
  5
59
331
59
  5
5A
331
5A
  5
5B
331
5B
  5
5C
331
5C
  5
5D
331
5D
  5
5E
331
60
  5
61
331
61
  5
62
331
62
  5
63
331
63
  5
64
331
66
  5
67
331
67
  5
68
331
68
  5
69
331
69
  5
6A
331
6B
  5
6C
331
6C
  5
6D
331
6E
  5
6F
331
6F
  5
70
331
71
  5
72
331
72
  5
73
331
73
  5
74
331
74
  5
75
331
75
  5
76
331
76
  5
77
331
77
  5
78
331
78
  5
79
331
79
  5
7A
331
7A
  5
7B
331
7C
  5
7D
331
7D
  5
7E
331
7E
  5
7F
331
7F
  5
80
331
80
  5
81
331
81
  5
82
331
82
  5
83
331
83
  5
84
331
85
  5
86
331
86
  5
87
331
87
  5
88
331
88
  5
89
331
8A
  5
8B
331
8B
  5
8C
331
8D
  5
8E
331
8E
  5
8F
331
8F
  5
90
331
91
  5
92
331
92
  5
93
331
93
  5
94
331
94
  5
95
331
95
  5
96
331
96
  5
98
331
97
  5
99
331
98
  5
9A
331
99
  5
9B
331
9A
  5
9C
331
9B
  5
9D
331
9C
  5
9E
331
9D
  5
9F
331
9E
  5
A0
331
9F
  5
A1
331
A0
  5
A2
331
A1
  5
A3
331
A3
  5
A5
331
A4
  5
A6
331
A6
  5
A8
331
A7
  5
A9
331
A9
  5
AB
331
AB
  5
AD
331
AD
  5
AF
331
AE
  5
B0
331
AF
  5
B1
331
B0
  5
B2
331
B1
  5
B3
331
B2
  5
B4
331
B3
  5
B5
331
B4
  5
B6
331
B5
  5
B7
331
B6
  5
B8
331
B7
  5
B9
331
B8
  5
BA
331
B9
  5
BB
331
BA
  5
BC
331
BB
  5
BD
331
BC
  5
BE
331
BD
  5
BF
331
BE
  5
C0
331
BF
  5
C1
331
C0
  5
C2
331
C1
  5
C3
331
C2
  5
C4
331
C3
  5
C5
331
C4
  5
C6
331
C5
  5
C7
331
C6
  5
C8
331
C7
  5
C9
331
C8
  5
CA
331
C9
  5
CB
331
CA
  5
CC
331
CB
  5
CD
331
CC
  5
CE
331
CD
  5
CF
331
CE
  5
D0
331
CF
  5
D1
331
D0
  5
D2
331
D1
  5
D3
331
D2
  5
D4
331
D3
  5
D5
331
D4
  5
D6
331
D5
  5
D7
331
D6
  5
D8
331
D7
  5
D9
331
D8
  5
DA
331
D9
  5
DB
331
DA
  5
DC
331
DB
  5
DD
331
DC
  5
DE
331
DD
  5
DF
331
DE
  5
E0
331
DF
  5
E2
331
E0
  5
E3
331
E1
  5
E4
331
E2
  5
E5
331
E3
  5
E6
331
E4
  5
E7
331
E5
  5
E8
331
E6
  5
E9
331
E7
  5
EA
331
E8
  5
EB
331
E9
  5
EC
331
EB
  5
EE
331
EC
  5
EF
331
EE
  5
F1
331
EF
  5
F2
331
F0
  5
F3
331
F1
  5
F4
331
F2
  5
F5
331
F3
  5
F6
331
F4
  5
F7
331
F5
  5
F8
331
F6
  5
F9
331
F7
  5
FA
331
F8
  5
FB
331
F9
  5
FC
331
FA
  5
FD
331
FB
  5
FE
331
FC
  5
FF
331
FD
  5
100
331
FE
  5
101
331
FF
  5
102
331
100
  5
103
331
101
  5
104
331
102
  5
105
331
103
  5
106
331
104
  5
107
331
105
  5
108
331
106
  5
109
331
107
  5
10A
331
108
  5
10B
331
109
  5
10C
331
10A
  5
10D
331
10B
  5
10E
331
10C
  5
10F
331
10D
  5
110
331
10E
  5
111
331
10F
  5
112
331
110
  5
113
331
111
  5
114
331
112
  5
115
331
113
  5
116
331
114
  5
117
331
115
  5
118
331
116
  5
119
331
117
  5
11A
331
118
  5
11B
331
119
  5
11C
331
11A
  5
11D
331
11B
  5
11E
331
11C
  5
11F
331
11D
  5
120
331
11E
  5
121
331
11F
  5
122
331
120
  5
123
331
121
  5
124
331
122
  5
125
331
123
  5
126
331
124
  5
127
331
125
  5
128
331
126
  5
129
331
127
  5
12A
331
128
  5
12B
331
129
  5
12C
331
12A
  5
12D
331
12B
  5
12E
331
12C
  5
12F
331
12D
  5
130
331
12E
  5
131
331
12F
  5
132
331
130
  5
133
331
131
  5
134
331
132
  5
135
331
133
  5
136
331
134
  5
137
331
135
  5
138
331
136
  5
139
331
137
  5
13A
331
138
  5
13B
331
139
  5
13C
331
13A
  5
13D
331
13B
  5
13E
331
13C
  5
13F
331
13D
  5
140
331
13F
  5
142
331
140
  5
143
331
141
  5
144
331
142
  5
145
331
143
  5
146
331
144
  5
147
331
145
  5
148
331
146
  5
149
331
147
  5
14A
331
148
  5
14B
331
149
  5
14C
331
14A
  5
14D
331
14B
  5
14E
331
14C
  5
14F
331
14D
  5
150
331
14E
  5
151
331
14F
  5
152
331
150
  5
153
331
151
  5
154
331
152
  5
155
331
153
  5
156
331
154
  5
157
331
155
  5
158
331
156
  5
159
331
157
  5
15A
331
158
  5
15B
331
159
  5
15C
331
15A
  5
15D
331
15B
  5
15E
331
15C
  5
15F
331
15D
  5
160
331
15E
  5
161
331
15F
  5
162
331
160
  5
163
331
161
  5
164
331
162
  5
165
331
163
  5
166
331
164
  5
167
331
165
  5
168
331
166
  5
169
331
167
  5
16A
331
168
  5
16B
331
169
  5
16C
331
16A
  5
16D
331
16B
  5
16E
331
16C
  5
16F
331
16D
  5
170
331
16E
  5
171
331
16F
  5
172
331
170
  5
173
331
171
  5
174
331
172
  5
175
331
173
  5
176
331
174
  5
177
331
175
  5
178
331
176
  5
179
331
177
  5
17A
331
178
  5
17B
331
179
  5
17C
331
17A
  5
17D
331
17B
  5
17E
331
17C
  5
17F
331
17D
  5
180
331
17E
  5
182
331
17F
  5
183
331
180
  5
184
331
182
  5
185
331
183
  5
186
331
184
  5
188
331
185
  5
189
331
186
  5
18A
331
188
  5
192
331
189
  5
193
331
18A
  5
194
331
18B
  5
195
331
18C
  5
196
331
18E
  5
197
331
18F
  5
198
331
190
  5
199
331
191
  5
19A
331
192
  5
19B
331
193
  5
19C
331
194
  5
19D
331
195
  5
19E
331
196
  5
19F
331
197
  5
1A0
331
198
  5
1A1
331
199
  5
1A2
331
19A
  5
1A3
331
19C
  5
1A5
331
19D
  5
1A6
331
19F
  5
1A8
331
1A0
  5
1A9
331
1A2
  5
1AB
331
1A3
  5
1AC
331
1A4
  5
1AD
331
1A5
  5
1AE
331
1A7
  5
1B0
331
1A8
  5
1B1
331
1AB
  5
1B4
331
1AC
  5
1B5
331
1AD
  5
1B6
331
1AE
  5
1B7
331
1AF
  5
1B8
331
1B0
  5
1B9
331
1B1
  5
1BA
331
1B2
  5
1BB
331
1B3
  5
1BC
331
1B4
  5
1BD
331
1B5
  5
1BE
331
1B6
  5
1BF
331
1B7
  5
1C0
331
1B8
  5
1C1
331
1B9
  5
1C2
331
1BA
  5
1C3
331
1BB
  5
1C4
331
1BC
  5
1C5
331
1BD
  5
1C6
331
1BE
  5
1C7
331
1BF
  5
1C8
331
1C0
  5
1C9
331
1C1
  5
1CA
331
1C2
  5
1CB
331
1C3
  5
1CE
331
1C4
  5
1CF
331
1C5
  5
1D0
331
1C6
  5
279
331
1C7
  5
27A
331
1C8
  5
27B
331
1C9
  5
27C
331
1CA
  5
27D
331
1CB
  5
27E
331
1CC
  5
284
331
1CD
  5
285
331
1CE
  5
287
331
1CF
  5
288
331
1D0
  5
289
331
279
  5
28B
331
27A
  5
28C
331
27B
  5
28D
331
27C
  5
28E
331
27D
  5
28F
331
27E
  5
290
331
284
  5
297
331
285
  5
298
331
287
  5
299
331
288
  5
2A0
331
28B
  5
2A6
331
28C
  5
2A7
331
28D
  5
2C3
331
28E
  5
2C4
331
28F
  5
2C5
331
290
  5
2C6
331
297
  5
2C7
331
298
  5
2F8
331
299
  5
2F9
331
2A0
  5
2FB
331
2A3
  5
2FC
331
2A6
  5
345
331
2A7
  5
349
331
2C3
  5
34A
331
2C4
  5
36B
331
2C5
  5
36C
331
2C6
  5
36F
331
2C7
  5
370
331
2F8
  5
371
331
2F9
  5
372
331
2FB
  5
373
331
2FC
  5
374
331
345
  5
375
331
349
  5
376
331
34A
  5
378
331
36F
  5
37D
331
370
  5
37E
331
371
  5
37F
331
372
  5
380
331
373
  5
381
331
374
  5
382
331
375
  5
383
331
376
  5
384
331
384
  5
1CD
  0
LAYOUT
  5
1C
102
{ACAD_REACTORS
330
1A
102
}
330
1A
100
AcDbPlotSettings
  1

  2
none_device
  4

  6

 40
0.0
 41
0.0
 42
0.0
 43
0.0
 44
0.0
 45
0.0
 46
0.0
 47
0.0
 48
0.0
 49
0.0
140
0.0
141
0.0
142
1.0
143
1.0
 70
   688
 72
     0
 73
     0
 74
     5
  7

 75
    16
 76
     0
 77
     2
 78
   300
147
1.0
148
0.0
149
0.0
100
AcDbLayout
  1
Layout1
 70
     1
 71
     1
 10
0.0
 20
0.0
 11
12.0
 21
9.0
 12
0.0
 22
0.0
 32
0.0
 14
1.000000000000000E+20
 24
1.000000000000000E+20
 34
1.000000000000000E+20
 15
-1.000000000000000E+20
 25
-1.000000000000000E+20
 35
-1.000000000000000E+20
146
0.0
 13
0.0
 23
0.0
 33
0.0
 16
1.0
 26
0.0
 36
0.0
 17
0.0
 27
1.0
 37
0.0
 76
     0
330
1B
  0
LAYOUT
  5
1E
102
{ACAD_REACTORS
330
1A
102
}
330
1A
100
AcDbPlotSettings
  1

  2
none_device
  4

  6

 40
0.0
 41
0.0
 42
0.0
 43
0.0
 44
0.0
 45
0.0
 46
0.0
 47
0.0
 48
0.0
 49
0.0
140
0.0
141
0.0
142
1.0
143
1.0
 70
  1712
 72
     0
 73
     0
 74
     0
  7

 75
     0
 76
     0
 77
     2
 78
   300
147
1.0
148
0.0
149
0.0
100
AcDbLayout
  1
Model
 70
     1
 71
     0
 10
0.0
 20
0.0
 11
12.0
 21
9.0
 12
0.0
 22
0.0
 32
0.0
 14
-103.3549525059605
 24
-74.49972883431542
 34
0.0
 15
123.7414379672187
 25
79.11614457489245
 35
0.0
146
0.0
 13
0.0
 23
0.0
 33
0.0
 16
1.0
 26
0.0
 36
0.0
 17
0.0
 27
1.0
 37
0.0
 76
     0
330
1D
331
1D1
  0
MATERIAL
  5
211
102
{ACAD_REACTORS
330
20F
102
}
330
20F
100
AcDbMaterial
  1
ByBlock
 72
     1
 94
      127
  0
MATERIAL
  5
210
102
{ACAD_REACTORS
330
20F
102
}
330
20F
100
AcDbMaterial
  1
ByLayer
 72
     1
 94
      127
  0
MATERIAL
  5
212
102
{ACAD_REACTORS
330
20F
102
}
330
20F
100
AcDbMaterial
  1
Global
 72
     1
 94
      127
  0
MLEADERSTYLE
  5
268
102
{ACAD_REACTORS
330
21D
102
}
330
21D
100
AcDbMLeaderStyle
179
     2
170
     2
171
     1
172
     0
 90
        2
 40
0.0
 41
0.0
173
     1
 91
-1056964608
340
14
 92
       -2
290
     1
 42
0.09
291
     1
 43
0.36
  3
Standard
341
0
 44
0.18
300

342
11
174
     1
178
     1
175
     1
176
     0
 93
-1056964608
 45
0.18
292
     0
297
     0
 46
0.18
343
0
 94
-1056964608
 47
1.0
 49
1.0
140
1.0
293
     1
141
0.0
294
     1
177
     0
142
1.0
295
     0
296
     0
143
0.125
271
     0
272
     9
273
     9
298
     0
  0
MLINESTYLE
  5
18
102
{ACAD_REACTORS
330
17
102
}
330
17
100
AcDbMlineStyle
  2
Standard
 70
     0
  3

 62
   256
 51
90.0
 52
90.0
 71
     2
 49
0.5
 62
   256
  6
BYLAYER
 49
-0.5
 62
   256
  6
BYLAYER
  0
ACDBPLACEHOLDER
  5
F
102
{ACAD_REACTORS
330
E
102
}
330
E
  0
SCALE
  5
1D9
102
{ACAD_REACTORS
330
1D8
102
}
330
1D8
100
AcDbScale
 70
     0
300
1:1
140
1.0
141
1.0
290
     1
  0
SCALE
  5
1DA
102
{ACAD_REACTORS
330
1D8
102
}
330
1D8
100
AcDbScale
 70
     0
300
1:2
140
1.0
141
2.0
290
     0
  0
SCALE
  5
1DB
102
{ACAD_REACTORS
330
1D8
102
}
330
1D8
100
AcDbScale
 70
     0
300
1:4
140
1.0
141
4.0
290
     0
  0
SCALE
  5
1DC
102
{ACAD_REACTORS
330
1D8
102
}
330
1D8
100
AcDbScale
 70
     0
300
1:5
140
1.0
141
5.0
290
     0
  0
SCALE
  5
1DD
102
{ACAD_REACTORS
330
1D8
102
}
330
1D8
100
AcDbScale
 70
     0
300
1:8
140
1.0
141
8.0
290
     0
  0
SCALE
  5
1DE
102
{ACAD_REACTORS
330
1D8
102
}
330
1D8
100
AcDbScale
 70
     0
300
1:10
140
1.0
141
10.0
290
     0
  0
SCALE
  5
1DF
102
{ACAD_REACTORS
330
1D8
102
}
330
1D8
100
AcDbScale
 70
     0
300
1:16
140
1.0
141
16.0
290
     0
  0
SCALE
  5
1E0
102
{ACAD_REACTORS
330
1D8
102
}
330
1D8
100
AcDbScale
 70
     0
300
1:20
140
1.0
141
20.0
290
     0
  0
SCALE
  5
1E1
102
{ACAD_REACTORS
330
1D8
102
}
330
1D8
100
AcDbScale
 70
     0
300
1:30
140
1.0
141
30.0
290
     0
  0
SCALE
  5
1E2
102
{ACAD_REACTORS
330
1D8
102
}
330
1D8
100
AcDbScale
 70
     0
300
1:40
140
1.0
141
40.0
290
     0
  0
SCALE
  5
1E3
102
{ACAD_REACTORS
330
1D8
102
}
330
1D8
100
AcDbScale
 70
     0
300
1:50
140
1.0
141
50.0
290
     0
  0
SCALE
  5
1E4
102
{ACAD_REACTORS
330
1D8
102
}
330
1D8
100
AcDbScale
 70
     0
300
1:100
140
1.0
141
100.0
290
     0
  0
SCALE
  5
1E5
102
{ACAD_REACTORS
330
1D8
102
}
330
1D8
100
AcDbScale
 70
     0
300
2:1
140
2.0
141
1.0
290
     0
  0
SCALE
  5
1E6
102
{ACAD_REACTORS
330
1D8
102
}
330
1D8
100
AcDbScale
 70
     0
300
4:1
140
4.0
141
1.0
290
     0
  0
SCALE
  5
1E7
102
{ACAD_REACTORS
330
1D8
102
}
330
1D8
100
AcDbScale
 70
     0
300
8:1
140
8.0
141
1.0
290
     0
  0
SCALE
  5
1E8
102
{ACAD_REACTORS
330
1D8
102
}
330
1D8
100
AcDbScale
 70
     0
300
10:1
140
10.0
141
1.0
290
     0
  0
SCALE
  5
1E9
102
{ACAD_REACTORS
330
1D8
102
}
330
1D8
100
AcDbScale
 70
     0
300
100:1
140
100.0
141
1.0
290
     0
  0
SCALE
  5
1EA
102
{ACAD_REACTORS
330
1D8
102
}
330
1D8
100
AcDbScale
 70
     0
300
1/128" = 1'-0"
140
0.0078125
141
12.0
290
     0
  0
SCALE
  5
1EB
102
{ACAD_REACTORS
330
1D8
102
}
330
1D8
100
AcDbScale
 70
     0
300
1/64" = 1'-0"
140
0.015625
141
12.0
290
     0
  0
SCALE
  5
1EC
102
{ACAD_REACTORS
330
1D8
102
}
330
1D8
100
AcDbScale
 70
     0
300
1/32" = 1'-0"
140
0.03125
141
12.0
290
     0
  0
SCALE
  5
1ED
102
{ACAD_REACTORS
330
1D8
102
}
330
1D8
100
AcDbScale
 70
     0
300
1/16" = 1'-0"
140
0.0625
141
12.0
290
     0
  0
SCALE
  5
1EE
102
{ACAD_REACTORS
330
1D8
102
}
330
1D8
100
AcDbScale
 70
     0
300
3/32" = 1'-0"
140
0.09375
141
12.0
290
     0
  0
SCALE
  5
1EF
102
{ACAD_REACTORS
330
1D8
102
}
330
1D8
100
AcDbScale
 70
     0
300
1/8" = 1'-0"
140
0.125
141
12.0
290
     0
  0
SCALE
  5
1F0
102
{ACAD_REACTORS
330
1D8
102
}
330
1D8
100
AcDbScale
 70
     0
300
3/16" = 1'-0"
140
0.1875
141
12.0
290
     0
  0
SCALE
  5
1F1
102
{ACAD_REACTORS
330
1D8
102
}
330
1D8
100
AcDbScale
 70
     0
300
1/4" = 1'-0"
140
0.25
141
12.0
290
     0
  0
SCALE
  5
1F2
102
{ACAD_REACTORS
330
1D8
102
}
330
1D8
100
AcDbScale
 70
     0
300
3/8" = 1'-0"
140
0.375
141
12.0
290
     0
  0
SCALE
  5
1F3
102
{ACAD_REACTORS
330
1D8
102
}
330
1D8
100
AcDbScale
 70
     0
300
1/2" = 1'-0"
140
0.5
141
12.0
290
     0
  0
SCALE
  5
1F4
102
{ACAD_REACTORS
330
1D8
102
}
330
1D8
100
AcDbScale
 70
     0
300
3/4" = 1'-0"
140
0.75
141
12.0
290
     0
  0
SCALE
  5
1F5
102
{ACAD_REACTORS
330
1D8
102
}
330
1D8
100
AcDbScale
 70
     0
300
1" = 1'-0"
140
1.0
141
12.0
290
     0
  0
SCALE
  5
1F6
102
{ACAD_REACTORS
330
1D8
102
}
330
1D8
100
AcDbScale
 70
     0
300
1-1/2" = 1'-0"
140
1.5
141
12.0
290
     0
  0
SCALE
  5
1F7
102
{ACAD_REACTORS
330
1D8
102
}
330
1D8
100
AcDbScale
 70
     0
300
3" = 1'-0"
140
3.0
141
12.0
290
     0
  0
SCALE
  5
1F8
102
{ACAD_REACTORS
330
1D8
102
}
330
1D8
100
AcDbScale
 70
     0
300
6" = 1'-0"
140
6.0
141
12.0
290
     0
  0
SCALE
  5
1F9
102
{ACAD_REACTORS
330
1D8
102
}
330
1D8
100
AcDbScale
 70
     0
300
1'-0" = 1'-0"
140
12.0
141
12.0
290
     0
  0
TABLESTYLE
  5
267
102
{ACAD_REACTORS
330
266
102
}
102
{ACAD_XDICTIONARY
360
3D1
102
}
330
266
100
AcDbTableStyle
  3
Standard
 70
     0
 71
     0
 40
0.06
 41
0.06
280
     0
281
     0
  7
Standard
140
0.18
170
     2
 62
     0
 63
   257
283
     0
 90
        4
 91
        0
  1

274
    -2
284
     1
 64
     0
275
    -2
285
     1
 65
     0
276
    -2
286
     1
 66
     0
277
    -2
287
     1
 67
     0
278
    -2
288
     1
 68
     0
279
    -2
289
     1
 69
     0
  7
Standard
140
0.25
170
     5
 62
     0
 63
   257
283
     0
 90
        4
 91
        0
  1

274
    -2
284
     1
 64
     0
275
    -2
285
     1
 65
     0
276
    -2
286
     1
 66
     0
277
    -2
287
     1
 67
     0
278
    -2
288
     1
 68
     0
279
    -2
289
     1
 69
     0
  7
Standard
140
0.18
170
     5
 62
     0
 63
   257
283
     0
 90
        4
 91
        0
  1

274
    -2
284
     1
 64
     0
275
    -2
285
     1
 65
     0
276
    -2
286
     1
 66
     0
277
    -2
287
     1
 67
     0
278
    -2
288
     1
 68
     0
279
    -2
289
     1
 69
     0
  0
VISUALSTYLE
  5
203
102
{ACAD_REACTORS
330
1FE
102
}
330
1FE
100
AcDbVisualStyle
  2
2dWireframe
 70
     4
177
     3
291
     0
 70
    58
 90
        0
176
     1
 90
        2
176
     1
 90
        0
176
     1
 90
        0
176
     1
 40
-0.6
176
     1
 40
-30.0
176
     1
 62
     7
176
     1
 90
        1
176
     1
 90
        4
176
     1
 62
     7
176
     1
 62
   257
176
     1
 90
        1
176
     1
 90
        1
176
     1
 40
1.0
176
     1
 90
        0
176
     1
 62
   257
176
     1
 40
1.0
176
     1
 90
        1
176
     1
 90
        6
176
     1
 90
        2
176
     1
 62
     7
176
     1
 90
        5
176
     1
 90
        0
176
     1
 90
        0
176
     1
290
     0
176
     1
 90
        1
176
     1
 40
0.0
176
     1
 90
        0
176
     1
290
     1
176
     1
290
     1
176
     1
290
     0
176
     1
290
     0
176
     1
290
     0
176
     1
290
     0
176
     1
290
     0
176
     1
290
     0
176
     1
290
     0
176
     1
 90
       50
176
     1
 40
0.0
176
     1
 40
1.0
176
     1
 90
        0
176
     1
 62
    18
420
        0
176
     1
 90
       50
176
     1
 90
        3
176
     1
 62
     5
420
      255
176
     1
290
     0
176
     1
 90
       50
176
     1
 90
       50
176
     1
 90
       50
176
     1
290
     0
176
     1
 90
       50
176
     1
 62
   256
176
     0
 40
1.0
176
     0
 90
        2
176
     1
  1
strokes_ogs.tif
176
     1
290
     0
176
     1
 40
1.0
176
     1
 40
1.0
176
     1
  0
VISUALSTYLE
  5
205
102
{ACAD_REACTORS
330
1FE
102
}
330
1FE
100
AcDbVisualStyle
  2
3D Hidden
 70
     6
177
     3
291
     0
 70
    58
 90
        1
176
     1
 90
        2
176
     1
 90
        2
176
     1
 90
        0
176
     1
 40
-0.6
176
     1
 40
-30.0
176
     1
 62
     7
176
     1
 90
        2
176
     1
 90
        2
176
     1
 62
     7
176
     1
 62
   257
176
     1
 90
        2
176
     1
 90
        1
176
     1
 40
40.0
176
     1
 90
        0
176
     1
 62
   257
176
     1
 40
1.0
176
     1
 90
        1
176
     1
 90
        6
176
     1
 90
        2
176
     1
 62
     7
176
     1
 90
        3
176
     1
 90
        0
176
     1
 90
        0
176
     1
290
     0
176
     1
 90
        1
176
     1
 40
0.0
176
     1
 90
        0
176
     1
290
     0
176
     1
290
     1
176
     1
290
     1
176
     1
290
     0
176
     1
290
     0
176
     1
290
     0
176
     1
290
     0
176
     1
290
     0
176
     1
290
     0
176
     1
 90
       50
176
     1
 40
0.0
176
     1
 40
1.0
176
     1
 90
        0
176
     1
 62
    18
420
        0
176
     1
 90
       50
176
     1
 90
        3
176
     1
 62
     5
420
      255
176
     1
290
     0
176
     1
 90
       50
176
     1
 90
       50
176
     1
 90
       50
176
     1
290
     0
176
     1
 90
       50
176
     1
 62
   256
176
     0
 40
1.0
176
     0
 90
        2
176
     1
  1
strokes_ogs.tif
176
     1
290
     0
176
     1
 40
1.0
176
     1
 40
1.0
176
     1
  0
VISUALSTYLE
  5
204
102
{ACAD_REACTORS
330
1FE
102
}
330
1FE
100
AcDbVisualStyle
  2
3dWireframe
 70
     5
177
     3
291
     0
 70
    58
 90
        0
176
     1
 90
        2
176
     1
 90
        0
176
     1
 90
        0
176
     1
 40
-0.6
176
     1
 40
-30.0
176
     1
 62
     7
176
     1
 90
        1
176
     1
 90
        4
176
     1
 62
     7
176
     1
 62
   257
176
     1
 90
        1
176
     1
 90
        1
176
     1
 40
1.0
176
     1
 90
        0
176
     1
 62
   257
176
     1
 40
1.0
176
     1
 90
        1
176
     1
 90
        6
176
     1
 90
        2
176
     1
 62
     7
176
     1
 90
        5
176
     1
 90
        0
176
     1
 90
        0
176
     1
290
     0
176
     1
 90
        1
176
     1
 40
0.0
176
     1
 90
        0
176
     1
290
     0
176
     1
290
     1
176
     1
290
     1
176
     1
290
     0
176
     1
290
     0
176
     1
290
     0
176
     1
290
     0
176
     1
290
     0
176
     1
290
     0
176
     1
 90
       50
176
     1
 40
0.0
176
     1
 40
1.0
176
     1
 90
        0
176
     1
 62
    18
420
        0
176
     1
 90
       50
176
     1
 90
        3
176
     1
 62
     5
420
      255
176
     1
290
     0
176
     1
 90
       50
176
     1
 90
       50
176
     1
 90
       50
176
     1
290
     0
176
     1
 90
       50
176
     1
 62
   256
176
     0
 40
1.0
176
     0
 90
        2
176
     1
  1
strokes_ogs.tif
176
     1
290
     0
176
     1
 40
1.0
176
     1
 40
1.0
176
     1
  0
VISUALSTYLE
  5
206
102
{ACAD_REACTORS
330
1FE
102
}
330
1FE
100
AcDbVisualStyle
  2
Basic
 70
     7
177
     3
291
     1
 70
    58
 90
        1
176
     1
 90
        0
176
     1
 90
        1
176
     1
 90
        0
176
     1
 40
-0.6
176
     1
 40
-30.0
176
     1
 62
     7
176
     1
 90
        0
176
     1
 90
        4
176
     1
 62
     7
176
     1
 62
   257
176
     1
 90
        1
176
     1
 90
        1
176
     1
 40
1.0
176
     1
 90
        8
176
     1
 62
     7
176
     1
 40
1.0
176
     1
 90
        1
176
     1
 90
        6
176
     1
 90
        2
176
     1
 62
     7
176
     1
 90
        5
176
     1
 90
        0
176
     1
 90
        0
176
     1
290
     0
176
     1
 90
        1
176
     1
 40
0.0
176
     1
 90
        0
176
     1
290
     0
176
     1
290
     1
176
     1
290
     1
176
     1
290
     0
176
     1
290
     0
176
     1
290
     0
176
     1
290
     0
176
     1
290
     0
176
     1
290
     0
176
     1
 90
       50
176
     1
 40
0.0
176
     1
 40
1.0
176
     1
 90
        0
176
     1
 62
    18
420
        0
176
     1
 90
       50
176
     1
 90
        3
176
     1
 62
     5
420
      255
176
     1
290
     0
176
     1
 90
       50
176
     1
 90
       50
176
     1
 90
       50
176
     1
290
     0
176
     1
 90
       50
176
     1
 62
   256
176
     0
 40
1.0
176
     0
 90
        2
176
     1
  1
strokes_ogs.tif
176
     1
290
     0
176
     1
 40
1.0
176
     1
 40
1.0
176
     1
  0
VISUALSTYLE
  5
20A
102
{ACAD_REACTORS
330
1FE
102
}
330
1FE
100
AcDbVisualStyle
  2
Brighten
 70
    12
177
     3
291
     1
 70
    58
 90
        2
176
     1
 90
        2
176
     1
 90
        0
176
     1
 90
        0
176
     1
 40
-0.6
176
     1
 40
-30.0
176
     1
 62
     7
176
     1
 90
        1
176
     1
 90
        4
176
     1
 62
     7
176
     1
 62
   257
176
     1
 90
        1
176
     1
 90
        1
176
     1
 40
1.0
176
     1
 90
        8
176
     1
 62
     7
176
     1
 40
1.0
176
     1
 90
        1
176
     1
 90
        6
176
     1
 90
        2
176
     1
 62
     7
176
     1
 90
        5
176
     1
 90
        0
176
     1
 90
        0
176
     1
290
     0
176
     1
 90
        1
176
     1
 40
50.0
176
     1
 90
        0
176
     1
290
     0
176
     1
290
     1
176
     1
290
     1
176
     1
290
     0
176
     1
290
     0
176
     1
290
     0
176
     1
290
     0
176
     1
290
     0
176
     1
290
     0
176
     1
 90
       50
176
     1
 40
0.0
176
     1
 40
1.0
176
     1
 90
        0
176
     1
 62
    18
420
        0
176
     1
 90
       50
176
     1
 90
        3
176
     1
 62
     5
420
      255
176
     1
290
     0
176
     1
 90
       50
176
     1
 90
       50
176
     1
 90
       50
176
     1
290
     0
176
     1
 90
       50
176
     1
 62
   256
176
     0
 40
1.0
176
     0
 90
        2
176
     1
  1
strokes_ogs.tif
176
     1
290
     0
176
     1
 40
1.0
176
     1
 40
1.0
176
     1
  0
VISUALSTYLE
  5
20E
102
{ACAD_REACTORS
330
1FE
102
}
330
1FE
100
AcDbVisualStyle
  2
ColorChange
 70
    16
177
     3
291
     1
 70
    58
 90
        2
176
     1
 90
        2
176
     1
 90
        3
176
     1
 90
        0
176
     1
 40
-0.6
176
     1
 40
-30.0
176
     1
 62
     8
176
     1
 90
        1
176
     1
 90
        4
176
     1
 62
     7
176
     1
 62
   257
176
     1
 90
        1
176
     1
 90
        1
176
     1
 40
1.0
176
     1
 90
        8
176
     1
 62
     8
176
     1
 40
1.0
176
     1
 90
        1
176
     1
 90
        6
176
     1
 90
        2
176
     1
 62
     7
176
     1
 90
        5
176
     1
 90
        0
176
     1
 90
        0
176
     1
290
     0
176
     1
 90
        1
176
     1
 40
0.0
176
     1
 90
        0
176
     1
290
     0
176
     1
290
     1
176
     1
290
     1
176
     1
290
     0
176
     1
290
     0
176
     1
290
     0
176
     1
290
     0
176
     1
290
     0
176
     1
290
     0
176
     1
 90
       50
176
     1
 40
0.0
176
     1
 40
1.0
176
     1
 90
        0
176
     1
 62
    18
420
        0
176
     1
 90
       50
176
     1
 90
        3
176
     1
 62
     5
420
      255
176
     1
290
     0
176
     1
 90
       50
176
     1
 90
       50
176
     1
 90
       50
176
     1
290
     0
176
     1
 90
       50
176
     1
 62
   256
176
     0
 40
1.0
176
     0
 90
        2
176
     1
  1
strokes_ogs.tif
176
     1
290
     0
176
     1
 40
1.0
176
     1
 40
1.0
176
     1
  0
VISUALSTYLE
  5
208
102
{ACAD_REACTORS
330
1FE
102
}
330
1FE
100
AcDbVisualStyle
  2
Conceptual
 70
     9
177
     3
291
     0
 70
    58
 90
        3
176
     1
 90
        2
176
     1
 90
        0
176
     1
 90
        0
176
     1
 40
-0.6
176
     1
 40
-30.0
176
     1
 62
     7
176
     1
 90
        2
176
     1
 90
        2
176
     1
 62
     7
176
     1
 62
   257
176
     1
 90
        1
176
     1
 90
        1
176
     1
 40
40.0
176
     1
 90
        8
176
     1
 62
     7
176
     1
 40
1.0
176
     1
 90
        1
176
     1
 90
        6
176
     1
 90
        2
176
     1
 62
     7
176
     1
 90
        3
176
     1
 90
        0
176
     1
 90
        0
176
     1
290
     0
176
     1
 90
        1
176
     1
 40
0.0
176
     1
 90
        0
176
     1
290
     0
176
     1
290
     1
176
     1
290
     1
176
     1
290
     0
176
     1
290
     0
176
     1
290
     0
176
     1
290
     0
176
     1
290
     0
176
     1
290
     0
176
     1
 90
       50
176
     1
 40
0.0
176
     1
 40
1.0
176
     1
 90
        0
176
     1
 62
    18
420
        0
176
     1
 90
       50
176
     1
 90
        3
176
     1
 62
     5
420
      255
176
     1
290
     0
176
     1
 90
       50
176
     1
 90
       50
176
     1
 90
       50
176
     1
290
     0
176
     1
 90
       50
176
     1
 62
   256
176
     0
 40
1.0
176
     0
 90
        2
176
     1
  1
strokes_ogs.tif
176
     1
290
     0
176
     1
 40
1.0
176
     1
 40
1.0
176
     1
  0
VISUALSTYLE
  5
209
102
{ACAD_REACTORS
330
1FE
102
}
330
1FE
100
AcDbVisualStyle
  2
Dim
 70
    11
177
     3
291
     1
 70
    58
 90
        2
176
     1
 90
        2
176
     1
 90
        0
176
     1
 90
        0
176
     1
 40
-0.6
176
     1
 40
-30.0
176
     1
 62
     7
176
     1
 90
        1
176
     1
 90
        4
176
     1
 62
     7
176
     1
 62
   257
176
     1
 90
        1
176
     1
 90
        1
176
     1
 40
1.0
176
     1
 90
        8
176
     1
 62
     7
176
     1
 40
1.0
176
     1
 90
        1
176
     1
 90
        6
176
     1
 90
        2
176
     1
 62
     7
176
     1
 90
        5
176
     1
 90
        0
176
     1
 90
        0
176
     1
290
     0
176
     1
 90
        1
176
     1
 40
-50.0
176
     1
 90
        0
176
     1
290
     0
176
     1
290
     1
176
     1
290
     1
176
     1
290
     0
176
     1
290
     0
176
     1
290
     0
176
     1
290
     0
176
     1
290
     0
176
     1
290
     0
176
     1
 90
       50
176
     1
 40
0.0
176
     1
 40
1.0
176
     1
 90
        0
176
     1
 62
    18
420
        0
176
     1
 90
       50
176
     1
 90
        3
176
     1
 62
     5
420
      255
176
     1
290
     0
176
     1
 90
       50
176
     1
 90
       50
176
     1
 90
       50
176
     1
290
     0
176
     1
 90
       50
176
     1
 62
   256
176
     0
 40
1.0
176
     0
 90
        2
176
     1
  1
strokes_ogs.tif
176
     1
290
     0
176
     1
 40
1.0
176
     1
 40
1.0
176
     1
  0
VISUALSTYLE
  5
260
102
{ACAD_REACTORS
330
1FE
102
}
330
1FE
100
AcDbVisualStyle
  2
EdgeColorOff
 70
    22
177
     3
291
     1
 70
    58
 90
        2
176
     0
 90
        2
176
     0
 90
        0
176
     0
 90
        0
176
     0
 40
0.6
176
     0
 40
30.0
176
     0
 62
     7
420
 16777215
176
     0
 90
        1
176
     0
 90
        4
176
     0
 62
     7
176
     0
 62
   257
176
     0
 90
        1
176
     0
 90
        1
176
     0
 40
1.0
176
     0
 90
        8
176
     2
 62
     7
176
     0
 40
1.0
176
     0
 90
        1
176
     0
 90
        6
176
     0
 90
        2
176
     0
 62
     7
176
     0
 90
        5
176
     0
 90
        0
176
     0
 90
        0
176
     0
290
     0
176
     0
 90
        1
176
     0
 40
0.0
176
     0
 90
        0
176
     0
290
     0
176
     0
290
     1
176
     0
290
     1
176
     0
290
     0
176
     0
290
     0
176
     0
290
     0
176
     0
290
     0
176
     0
290
     0
176
     0
290
     0
176
     0
 90
       50
176
     0
 40
0.0
176
     0
 40
1.0
176
     0
 90
        0
176
     0
 62
    18
420
        0
176
     0
 90
       50
176
     0
 90
        3
176
     0
 62
     5
420
      255
176
     0
290
     0
176
     0
 90
       50
176
     0
 90
       50
176
     0
 90
       50
176
     0
290
     0
176
     0
 90
       50
176
     0
 62
   256
176
     0
 40
1.0
176
     0
 90
        2
176
     0
  1
strokes_ogs.tif
176
     0
290
     0
176
     0
 40
1.0
176
     0
 40
1.0
176
     0
  0
VISUALSTYLE
  5
20D
102
{ACAD_REACTORS
330
1FE
102
}
330
1FE
100
AcDbVisualStyle
  2
Facepattern
 70
    15
177
     3
291
     1
 70
    58
 90
        2
176
     1
 90
        2
176
     1
 90
        0
176
     1
 90
        0
176
     1
 40
-0.6
176
     1
 40
-30.0
176
     1
 62
     7
176
     1
 90
        1
176
     1
 90
        4
176
     1
 62
     7
176
     1
 62
   257
176
     1
 90
        1
176
     1
 90
        1
176
     1
 40
1.0
176
     1
 90
        8
176
     1
 62
     7
176
     1
 40
1.0
176
     1
 90
        1
176
     1
 90
        6
176
     1
 90
        2
176
     1
 62
     7
176
     1
 90
        5
176
     1
 90
        0
176
     1
 90
        0
176
     1
290
     0
176
     1
 90
        1
176
     1
 40
0.0
176
     1
 90
        0
176
     1
290
     0
176
     1
290
     1
176
     1
290
     1
176
     1
290
     0
176
     1
290
     0
176
     1
290
     0
176
     1
290
     0
176
     1
290
     0
176
     1
290
     0
176
     1
 90
       50
176
     1
 40
0.0
176
     1
 40
1.0
176
     1
 90
        0
176
     1
 62
    18
420
        0
176
     1
 90
       50
176
     1
 90
        3
176
     1
 62
     5
420
      255
176
     1
290
     0
176
     1
 90
       50
176
     1
 90
       50
176
     1
 90
       50
176
     1
290
     0
176
     1
 90
       50
176
     1
 62
   256
176
     0
 40
1.0
176
     0
 90
        2
176
     1
  1
strokes_ogs.tif
176
     1
290
     0
176
     1
 40
1.0
176
     1
 40
1.0
176
     1
  0
VISUALSTYLE
  5
1FF
102
{ACAD_REACTORS
330
1FE
102
}
330
1FE
100
AcDbVisualStyle
  2
Flat
 70
     0
177
     3
291
     1
 70
    58
 90
        2
176
     1
 90
        1
176
     1
 90
        1
176
     1
 90
        2
176
     1
 40
-0.6
176
     1
 40
30.0
176
     1
 62
     7
176
     1
 90
        0
176
     1
 90
        4
176
     1
 62
     7
176
     1
 62
   257
176
     1
 90
        1
176
     1
 90
        1
176
     1
 40
1.0
176
     1
 90
        8
176
     1
 62
     7
176
     1
 40
1.0
176
     1
 90
        1
176
     1
 90
        6
176
     1
 90
        2
176
     1
 62
     7
176
     1
 90
        5
176
     1
 90
        0
176
     1
 90
        0
176
     1
290
     0
176
     1
 90
       13
176
     1
 40
0.0
176
     1
 90
        0
176
     1
290
     0
176
     1
290
     1
176
     1
290
     1
176
     1
290
     0
176
     1
290
     0
176
     1
290
     0
176
     1
290
     0
176
     1
290
     0
176
     1
290
     0
176
     1
 90
       50
176
     1
 40
0.0
176
     1
 40
1.0
176
     1
 90
        0
176
     1
 62
    18
420
        0
176
     1
 90
       50
176
     1
 90
        3
176
     1
 62
     5
420
      255
176
     1
290
     0
176
     1
 90
       50
176
     1
 90
       50
176
     1
 90
       50
176
     1
290
     0
176
     1
 90
       50
176
     1
 62
   256
176
     0
 40
1.0
176
     0
 90
        2
176
     1
  1
strokes_ogs.tif
176
     1
290
     0
176
     1
 40
1.0
176
     1
 40
1.0
176
     1
  0
VISUALSTYLE
  5
200
102
{ACAD_REACTORS
330
1FE
102
}
330
1FE
100
AcDbVisualStyle
  2
FlatWithEdges
 70
     1
177
     3
291
     1
 70
    58
 90
        2
176
     1
 90
        1
176
     1
 90
        1
176
     1
 90
        2
176
     1
 40
-0.6
176
     1
 40
30.0
176
     1
 62
     7
176
     1
 90
        1
176
     1
 90
        4
176
     1
 62
     7
176
     1
 62
   257
176
     1
 90
        1
176
     1
 90
        1
176
     1
 40
1.0
176
     1
 90
        0
176
     1
 62
   257
176
     1
 40
1.0
176
     1
 90
        1
176
     1
 90
        6
176
     1
 90
        2
176
     1
 62
     7
176
     1
 90
        5
176
     1
 90
        0
176
     1
 90
        0
176
     1
290
     0
176
     1
 90
       13
176
     1
 40
0.0
176
     1
 90
        0
176
     1
290
     0
176
     1
290
     1
176
     1
290
     1
176
     1
290
     0
176
     1
290
     0
176
     1
290
     0
176
     1
290
     0
176
     1
290
     0
176
     1
290
     0
176
     1
 90
       50
176
     1
 40
0.0
176
     1
 40
1.0
176
     1
 90
        0
176
     1
 62
    18
420
        0
176
     1
 90
       50
176
     1
 90
        3
176
     1
 62
     5
420
      255
176
     1
290
     0
176
     1
 90
       50
176
     1
 90
       50
176
     1
 90
       50
176
     1
290
     0
176
     1
 90
       50
176
     1
 62
   256
176
     0
 40
1.0
176
     0
 90
        2
176
     1
  1
strokes_ogs.tif
176
     1
290
     0
176
     1
 40
1.0
176
     1
 40
1.0
176
     1
  0
VISUALSTYLE
  5
201
102
{ACAD_REACTORS
330
1FE
102
}
330
1FE
100
AcDbVisualStyle
  2
Gouraud
 70
     2
177
     3
291
     1
 70
    58
 90
        2
176
     1
 90
        2
176
     1
 90
        1
176
     1
 90
        2
176
     1
 40
-0.6
176
     1
 40
30.0
176
     1
 62
     7
176
     1
 90
        0
176
     1
 90
        4
176
     1
 62
     7
176
     1
 62
   257
176
     1
 90
        1
176
     1
 90
        1
176
     1
 40
1.0
176
     1
 90
        0
176
     1
 62
     7
176
     1
 40
1.0
176
     1
 90
        1
176
     1
 90
        6
176
     1
 90
        2
176
     1
 62
     7
176
     1
 90
        5
176
     1
 90
        0
176
     1
 90
        0
176
     1
290
     0
176
     1
 90
       13
176
     1
 40
0.0
176
     1
 90
        0
176
     1
290
     0
176
     1
290
     1
176
     1
290
     1
176
     1
290
     0
176
     1
290
     0
176
     1
290
     0
176
     1
290
     0
176
     1
290
     0
176
     1
290
     0
176
     1
 90
       50
176
     1
 40
0.0
176
     1
 40
1.0
176
     1
 90
        0
176
     1
 62
    18
420
        0
176
     1
 90
       50
176
     1
 90
        3
176
     1
 62
     5
420
      255
176
     1
290
     0
176
     1
 90
       50
176
     1
 90
       50
176
     1
 90
       50
176
     1
290
     0
176
     1
 90
       50
176
     1
 62
   256
176
     0
 40
1.0
176
     0
 90
        2
176
     1
  1
strokes_ogs.tif
176
     1
290
     0
176
     1
 40
1.0
176
     1
 40
1.0
176
     1
  0
VISUALSTYLE
  5
202
102
{ACAD_REACTORS
330
1FE
102
}
330
1FE
100
AcDbVisualStyle
  2
GouraudWithEdges
 70
     3
177
     3
291
     1
 70
    58
 90
        2
176
     1
 90
        2
176
     1
 90
        1
176
     1
 90
        2
176
     1
 40
-0.6
176
     1
 40
30.0
176
     1
 62
     7
176
     1
 90
        1
176
     1
 90
        4
176
     1
 62
     7
176
     1
 62
   257
176
     1
 90
        1
176
     1
 90
        1
176
     1
 40
1.0
176
     1
 90
        0
176
     1
 62
   257
176
     1
 40
1.0
176
     1
 90
        1
176
     1
 90
        6
176
     1
 90
        2
176
     1
 62
     7
176
     1
 90
        5
176
     1
 90
        0
176
     1
 90
        0
176
     1
290
     0
176
     1
 90
       13
176
     1
 40
0.0
176
     1
 90
        0
176
     1
290
     0
176
     1
290
     1
176
     1
290
     1
176
     1
290
     0
176
     1
290
     0
176
     1
290
     0
176
     1
290
     0
176
     1
290
     0
176
     1
290
     0
176
     1
 90
       50
176
     1
 40
0.0
176
     1
 40
1.0
176
     1
 90
        0
176
     1
 62
    18
420
        0
176
     1
 90
       50
176
     1
 90
        3
176
     1
 62
     5
420
      255
176
     1
290
     0
176
     1
 90
       50
176
     1
 90
       50
176
     1
 90
       50
176
     1
290
     0
176
     1
 90
       50
176
     1
 62
   256
176
     0
 40
1.0
176
     0
 90
        2
176
     1
  1
strokes_ogs.tif
176
     1
290
     0
176
     1
 40
1.0
176
     1
 40
1.0
176
     1
  0
VISUALSTYLE
  5
25D
102
{ACAD_REACTORS
330
1FE
102
}
330
1FE
100
AcDbVisualStyle
  2
Hidden
 70
     6
177
     3
291
     0
 70
    58
 90
        1
176
     1
 90
        2
176
     1
 90
        2
176
     1
 90
        0
176
     1
 40
0.6
176
     1
 40
30.0
176
     1
 62
     7
420
 16777215
176
     1
 90
        2
176
     1
 90
        2
176
     1
 62
     7
176
     1
 62
   257
176
     1
 90
        2
176
     1
 90
        1
176
     1
 40
40.0
176
     1
 90
        0
176
     1
 62
   257
176
     1
 40
1.0
176
     1
 90
        1
176
     1
 90
        6
176
     1
 90
        2
176
     1
 62
     7
176
     1
 90
        3
176
     1
 90
        0
176
     1
 90
        0
176
     1
290
     0
176
     1
 90
        1
176
     1
 40
0.0
176
     1
 90
        0
176
     1
290
     0
176
     1
290
     1
176
     1
290
     1
176
     1
290
     0
176
     1
290
     0
176
     1
290
     0
176
     1
290
     0
176
     1
290
     0
176
     1
290
     0
176
     1
 90
       50
176
     1
 40
0.0
176
     1
 40
1.0
176
     1
 90
        0
176
     1
 62
    18
420
        0
176
     1
 90
       50
176
     1
 90
        3
176
     1
 62
     5
420
      255
176
     1
290
     0
176
     1
 90
       50
176
     1
 90
       50
176
     1
 90
       50
176
     1
290
     0
176
     1
 90
       50
176
     1
 62
   256
176
     0
 40
1.0
176
     0
 90
        2
176
     1
  1
strokes_ogs.tif
176
     1
290
     0
176
     1
 40
1.0
176
     1
 40
1.0
176
     1
  0
VISUALSTYLE
  5
25E
102
{ACAD_REACTORS
330
1FE
102
}
330
1FE
100
AcDbVisualStyle
  2
JitterOff
 70
    20
177
     3
291
     1
 70
    58
 90
        2
176
     0
 90
        2
176
     0
 90
        0
176
     0
 90
        0
176
     0
 40
0.6
176
     0
 40
30.0
176
     0
 62
     7
420
 16777215
176
     0
 90
        1
176
     0
 90
        4
176
     0
 62
     7
176
     0
 62
   257
176
     0
 90
        1
176
     0
 90
        1
176
     0
 40
1.0
176
     0
 90
       10
176
     2
 62
     7
176
     0
 40
1.0
176
     0
 90
        1
176
     0
 90
        6
176
     0
 90
        2
176
     0
 62
     7
176
     0
 90
        5
176
     0
 90
        0
176
     0
 90
        0
176
     0
290
     0
176
     0
 90
        1
176
     0
 40
0.0
176
     0
 90
        0
176
     0
290
     0
176
     0
290
     1
176
     0
290
     1
176
     0
290
     0
176
     0
290
     0
176
     0
290
     0
176
     0
290
     0
176
     0
290
     0
176
     0
290
     0
176
     0
 90
       50
176
     0
 40
0.0
176
     0
 40
1.0
176
     0
 90
        0
176
     0
 62
    18
420
        0
176
     0
 90
       50
176
     0
 90
        3
176
     0
 62
     5
420
      255
176
     0
290
     0
176
     0
 90
       50
176
     0
 90
       50
176
     0
 90
       50
176
     0
290
     0
176
     0
 90
       50
176
     0
 62
   256
176
     0
 40
1.0
176
     0
 90
        2
176
     0
  1
strokes_ogs.tif
176
     0
290
     0
176
     0
 40
1.0
176
     0
 40
1.0
176
     0
  0
VISUALSTYLE
  5
20C
102
{ACAD_REACTORS
330
1FE
102
}
330
1FE
100
AcDbVisualStyle
  2
Linepattern
 70
    14
177
     3
291
     1
 70
    58
 90
        2
176
     1
 90
        2
176
     1
 90
        0
176
     1
 90
        0
176
     1
 40
-0.6
176
     1
 40
-30.0
176
     1
 62
     7
176
     1
 90
        1
176
     1
 90
        4
176
     1
 62
     7
176
     1
 62
   257
176
     1
 90
        7
176
     1
 90
        7
176
     1
 40
1.0
176
     1
 90
        8
176
     1
 62
     7
176
     1
 40
1.0
176
     1
 90
        1
176
     1
 90
        6
176
     1
 90
        2
176
     1
 62
     7
176
     1
 90
        5
176
     1
 90
        0
176
     1
 90
        0
176
     1
290
     0
176
     1
 90
        1
176
     1
 40
0.0
176
     1
 90
        0
176
     1
290
     0
176
     1
290
     1
176
     1
290
     1
176
     1
290
     0
176
     1
290
     0
176
     1
290
     0
176
     1
290
     0
176
     1
290
     0
176
     1
290
     0
176
     1
 90
       50
176
     1
 40
0.0
176
     1
 40
1.0
176
     1
 90
        0
176
     1
 62
    18
420
        0
176
     1
 90
       50
176
     1
 90
        3
176
     1
 62
     5
420
      255
176
     1
290
     0
176
     1
 90
       50
176
     1
 90
       50
176
     1
 90
       50
176
     1
290
     0
176
     1
 90
       50
176
     1
 62
   256
176
     0
 40
1.0
176
     0
 90
        2
176
     1
  1
strokes_ogs.tif
176
     1
290
     0
176
     1
 40
1.0
176
     1
 40
1.0
176
     1
  0
VISUALSTYLE
  5
25F
102
{ACAD_REACTORS
330
1FE
102
}
330
1FE
100
AcDbVisualStyle
  2
OverhangOff
 70
    21
177
     3
291
     1
 70
    58
 90
        2
176
     0
 90
        2
176
     0
 90
        0
176
     0
 90
        0
176
     0
 40
0.6
176
     0
 40
30.0
176
     0
 62
     7
420
 16777215
176
     0
 90
        1
176
     0
 90
        4
176
     0
 62
     7
176
     0
 62
   257
176
     0
 90
        1
176
     0
 90
        1
176
     0
 40
1.0
176
     0
 90
        9
176
     2
 62
     7
176
     0
 40
1.0
176
     0
 90
        1
176
     0
 90
        6
176
     0
 90
        2
176
     0
 62
     7
176
     0
 90
        5
176
     0
 90
        0
176
     0
 90
        0
176
     0
290
     0
176
     0
 90
        1
176
     0
 40
0.0
176
     0
 90
        0
176
     0
290
     0
176
     0
290
     1
176
     0
290
     1
176
     0
290
     0
176
     0
290
     0
176
     0
290
     0
176
     0
290
     0
176
     0
290
     0
176
     0
290
     0
176
     0
 90
       50
176
     0
 40
0.0
176
     0
 40
1.0
176
     0
 90
        0
176
     0
 62
    18
420
        0
176
     0
 90
       50
176
     0
 90
        3
176
     0
 62
     5
420
      255
176
     0
290
     0
176
     0
 90
       50
176
     0
 90
       50
176
     0
 90
       50
176
     0
290
     0
176
     0
 90
       50
176
     0
 62
   256
176
     0
 40
1.0
176
     0
 90
        2
176
     0
  1
strokes_ogs.tif
176
     0
290
     0
176
     0
 40
1.0
176
     0
 40
1.0
176
     0
  0
VISUALSTYLE
  5
207
102
{ACAD_REACTORS
330
1FE
102
}
330
1FE
100
AcDbVisualStyle
  2
Realistic
 70
     8
177
     3
291
     0
 70
    58
 90
        2
176
     1
 90
        2
176
     1
 90
        0
176
     1
 90
        0
176
     1
 40
-0.6
176
     1
 40
-30.0
176
     1
 62
     7
176
     1
 90
        1
176
     1
 90
        0
176
     1
 62
     7
176
     1
 62
   257
176
     1
 90
        1
176
     1
 90
        1
176
     1
 40
1.0
176
     1
 90
        8
176
     1
 62
     8
176
     1
 40
1.0
176
     1
 90
        1
176
     1
 90
        6
176
     1
 90
        2
176
     1
 62
     7
176
     1
 90
        5
176
     1
 90
        0
176
     1
 90
        0
176
     1
290
     0
176
     1
 90
       13
176
     1
 40
0.0
176
     1
 90
        0
176
     1
290
     0
176
     1
290
     1
176
     1
290
     1
176
     1
290
     0
176
     1
290
     0
176
     1
290
     0
176
     1
290
     0
176
     1
290
     0
176
     1
290
     0
176
     1
 90
       50
176
     1
 40
0.0
176
     1
 40
1.0
176
     1
 90
        0
176
     1
 62
    18
420
        0
176
     1
 90
       50
176
     1
 90
        3
176
     1
 62
     5
420
      255
176
     1
290
     0
176
     1
 90
       50
176
     1
 90
       50
176
     1
 90
       50
176
     1
290
     0
176
     1
 90
       50
176
     1
 62
   256
176
     0
 40
1.0
176
     0
 90
        2
176
     1
  1
strokes_ogs.tif
176
     1
290
     0
176
     1
 40
1.0
176
     1
 40
1.0
176
     1
  0
VISUALSTYLE
  5
265
102
{ACAD_REACTORS
330
1FE
102
}
330
1FE
100
AcDbVisualStyle
  2
Shaded
 70
    27
177
     3
291
     0
 70
    58
 90
        2
176
     1
 90
        2
176
     1
 90
        1
176
     1
 90
        2
176
     1
 40
0.6
176
     1
 40
30.0
176
     1
 62
     7
420
 16777215
176
     1
 90
        0
176
     1
 90
        4
176
     1
 62
     7
176
     1
 62
   257
176
     1
 90
        1
176
     1
 90
        1
176
     1
 40
1.0
176
     1
 90
        8
176
     1
 62
   257
176
     1
 40
1.0
176
     1
 90
        1
176
     1
 90
        6
176
     1
 90
        2
176
     1
 62
     8
420
  7895160
176
     1
 90
        3
176
     1
 90
        0
176
     1
 90
        0
176
     1
290
     0
176
     1
 90
        5
176
     1
 40
0.0
176
     1
 90
        0
176
     1
290
     0
176
     1
290
     1
176
     1
290
     1
176
     1
290
     0
176
     1
290
     0
176
     1
290
     0
176
     1
290
     0
176
     1
290
     0
176
     1
290
     0
176
     1
 90
       50
176
     1
 40
0.0
176
     1
 40
1.0
176
     1
 90
        0
176
     1
 62
    18
420
        0
176
     1
 90
       50
176
     1
 90
        3
176
     1
 62
     5
420
      255
176
     1
290
     0
176
     1
 90
       50
176
     1
 90
       50
176
     1
 90
       50
176
     1
290
     0
176
     1
 90
       50
176
     1
 62
   256
176
     0
 40
1.0
176
     0
 90
        2
176
     1
  1
strokes_ogs.tif
176
     1
290
     0
176
     1
 40
1.0
176
     1
 40
1.0
176
     1
  0
VISUALSTYLE
  5
264
102
{ACAD_REACTORS
330
1FE
102
}
330
1FE
100
AcDbVisualStyle
  2
Shaded with edges
 70
    26
177
     3
291
     0
 70
    58
 90
        2
176
     1
 90
        2
176
     1
 90
        1
176
     1
 90
        2
176
     1
 40
0.6
176
     1
 40
30.0
176
     1
 62
     7
420
 16777215
176
     1
 90
        1
176
     1
 90
       10
176
     1
 62
     7
176
     1
 62
   257
176
     1
 90
        2
176
     1
 90
        1
176
     1
 40
1.0
176
     1
 90
        8
176
     1
 62
   257
176
     1
 40
1.0
176
     1
 90
        1
176
     1
 90
        6
176
     1
 90
        2
176
     1
 62
     7
176
     1
 90
        3
176
     1
 90
        0
176
     1
 90
        0
176
     1
290
     0
176
     1
 90
        5
176
     1
 40
0.0
176
     1
 90
        0
176
     1
290
     0
176
     1
290
     1
176
     1
290
     1
176
     1
290
     0
176
     1
290
     0
176
     1
290
     0
176
     1
290
     0
176
     1
290
     0
176
     1
290
     0
176
     1
 90
       50
176
     1
 40
0.0
176
     1
 40
1.0
176
     1
 90
        0
176
     1
 62
    18
420
        0
176
     1
 90
       50
176
     1
 90
        3
176
     1
 62
     5
420
      255
176
     1
290
     0
176
     1
 90
       50
176
     1
 90
       50
176
     1
 90
       50
176
     1
290
     0
176
     1
 90
       50
176
     1
 62
   256
176
     0
 40
1.0
176
     0
 90
        2
176
     1
  1
strokes_ogs.tif
176
     1
290
     0
176
     1
 40
1.0
176
     1
 40
1.0
176
     1
  0
VISUALSTYLE
  5
261
102
{ACAD_REACTORS
330
1FE
102
}
330
1FE
100
AcDbVisualStyle
  2
Shades of Gray
 70
    23
177
     3
291
     0
 70
    58
 90
        2
176
     1
 90
        2
176
     1
 90
        3
176
     1
 90
        0
176
     1
 40
0.6
176
     1
 40
30.0
176
     1
 62
     7
420
 16777215
176
     1
 90
        2
176
     1
 90
        2
176
     1
 62
     7
176
     1
 62
     7
176
     1
 90
        1
176
     1
 90
        1
176
     1
 40
40.0
176
     1
 90
        8
176
     1
 62
     7
176
     1
 40
1.0
176
     1
 90
        1
176
     1
 90
        6
176
     1
 90
        2
176
     1
 62
     7
176
     1
 90
        3
176
     1
 90
        0
176
     1
 90
        0
176
     1
290
     0
176
     1
 90
        1
176
     1
 40
0.0
176
     1
 90
        0
176
     1
290
     0
176
     1
290
     1
176
     1
290
     1
176
     1
290
     0
176
     1
290
     0
176
     1
290
     0
176
     1
290
     0
176
     1
290
     0
176
     1
290
     0
176
     1
 90
       50
176
     1
 40
0.0
176
     1
 40
1.0
176
     1
 90
        0
176
     1
 62
    18
420
        0
176
     1
 90
       50
176
     1
 90
        3
176
     1
 62
     5
420
      255
176
     1
290
     0
176
     1
 90
       50
176
     1
 90
       50
176
     1
 90
       50
176
     1
290
     0
176
     1
 90
       50
176
     1
 62
   256
176
     0
 40
1.0
176
     0
 90
        2
176
     1
  1
strokes_ogs.tif
176
     1
290
     0
176
     1
 40
1.0
176
     1
 40
1.0
176
     1
  0
VISUALSTYLE
  5
262
102
{ACAD_REACTORS
330
1FE
102
}
330
1FE
100
AcDbVisualStyle
  2
Sketchy
 70
    24
177
     3
291
     0
 70
    58
 90
        1
176
     1
 90
        2
176
     1
 90
        2
176
     1
 90
        0
176
     1
 40
0.6
176
     1
 40
30.0
176
     1
 62
     7
420
 16777215
176
     1
 90
        2
176
     1
 90
        2
176
     1
 62
     7
176
     1
 62
     7
176
     1
 90
        1
176
     1
 90
        1
176
     1
 40
40.0
176
     1
 90
       11
176
     1
 62
     7
176
     1
 40
1.0
176
     1
 90
        1
176
     1
 90
        6
176
     1
 90
        2
176
     1
 62
     7
176
     1
 90
        6
176
     1
 90
        0
176
     1
 90
        0
176
     1
290
     0
176
     1
 90
        1
176
     1
 40
0.0
176
     1
 90
        0
176
     1
290
     0
176
     1
290
     1
176
     1
290
     1
176
     1
290
     0
176
     1
290
     0
176
     1
290
     0
176
     1
290
     0
176
     1
290
     0
176
     1
290
     0
176
     1
 90
       50
176
     1
 40
0.0
176
     1
 40
1.0
176
     1
 90
        0
176
     1
 62
    18
420
        0
176
     1
 90
       50
176
     1
 90
        3
176
     1
 62
     5
420
      255
176
     1
290
     0
176
     1
 90
       50
176
     1
 90
       50
176
     1
 90
       50
176
     1
290
     0
176
     1
 90
       50
176
     1
 62
   256
176
     0
 40
1.0
176
     0
 90
        2
176
     1
  1
strokes_ogs.tif
176
     1
290
     0
176
     1
 40
1.0
176
     1
 40
1.0
176
     1
  0
VISUALSTYLE
  5
20B
102
{ACAD_REACTORS
330
1FE
102
}
330
1FE
100
AcDbVisualStyle
  2
Thicken
 70
    13
177
     3
291
     1
 70
    58
 90
        2
176
     1
 90
        2
176
     1
 90
        0
176
     1
 90
        0
176
     1
 40
-0.6
176
     1
 40
-30.0
176
     1
 62
     7
176
     1
 90
        1
176
     1
 90
        4
176
     1
 62
     7
176
     1
 62
   257
176
     1
 90
        1
176
     1
 90
        1
176
     1
 40
1.0
176
     1
 90
       12
176
     1
 62
     7
176
     1
 40
1.0
176
     1
 90
        1
176
     1
 90
        6
176
     1
 90
        2
176
     1
 62
     7
176
     1
 90
        5
176
     1
 90
        0
176
     1
 90
        0
176
     1
290
     0
176
     1
 90
        1
176
     1
 40
0.0
176
     1
 90
        0
176
     1
290
     0
176
     1
290
     1
176
     1
290
     1
176
     1
290
     0
176
     1
290
     0
176
     1
290
     0
176
     1
290
     0
176
     1
290
     0
176
     1
290
     0
176
     1
 90
       50
176
     1
 40
0.0
176
     1
 40
1.0
176
     1
 90
        0
176
     1
 62
    18
420
        0
176
     1
 90
       50
176
     1
 90
        3
176
     1
 62
     5
420
      255
176
     1
290
     0
176
     1
 90
       50
176
     1
 90
       50
176
     1
 90
       50
176
     1
290
     0
176
     1
 90
       50
176
     1
 62
   256
176
     0
 40
1.0
176
     0
 90
        2
176
     1
  1
strokes_ogs.tif
176
     1
290
     0
176
     1
 40
1.0
176
     1
 40
1.0
176
     1
  0
VISUALSTYLE
  5
25C
102
{ACAD_REACTORS
330
1FE
102
}
330
1FE
100
AcDbVisualStyle
  2
Wireframe
 70
     5
177
     3
291
     0
 70
    58
 90
        0
176
     1
 90
        2
176
     1
 90
        0
176
     1
 90
        0
176
     1
 40
0.6
176
     1
 40
30.0
176
     1
 62
     7
420
 16777215
176
     1
 90
        1
176
     1
 90
        4
176
     1
 62
     7
176
     1
 62
   257
176
     1
 90
        1
176
     1
 90
        1
176
     1
 40
1.0
176
     1
 90
        0
176
     1
 62
   257
176
     1
 40
1.0
176
     1
 90
        1
176
     1
 90
        6
176
     1
 90
        2
176
     1
 62
     7
176
     1
 90
        3
176
     1
 90
        0
176
     1
 90
        0
176
     1
290
     0
176
     1
 90
        1
176
     1
 40
0.0
176
     1
 90
        0
176
     1
290
     0
176
     1
290
     1
176
     1
290
     1
176
     1
290
     0
176
     1
290
     0
176
     1
290
     0
176
     1
290
     0
176
     1
290
     0
176
     1
290
     0
176
     1
 90
       50
176
     1
 40
0.0
176
     1
 40
1.0
176
     1
 90
        0
176
     1
 62
    18
420
        0
176
     1
 90
       50
176
     1
 90
        3
176
     1
 62
     5
420
      255
176
     1
290
     0
176
     1
 90
       50
176
     1
 90
       50
176
     1
 90
       50
176
     1
290
     0
176
     1
 90
       50
176
     1
 62
   256
176
     0
 40
1.0
176
     0
 90
        2
176
     1
  1
strokes_ogs.tif
176
     1
290
     0
176
     1
 40
1.0
176
     1
 40
1.0
176
     1
  0
VISUALSTYLE
  5
263
102
{ACAD_REACTORS
330
1FE
102
}
330
1FE
100
AcDbVisualStyle
  2
X-Ray
 70
    25
177
     3
291
     0
 70
    58
 90
        2
176
     1
 90
        2
176
     1
 90
        1
176
     1
 90
        1
176
     1
 40
0.5
176
     1
 40
30.0
176
     1
 62
     7
420
 16777215
176
     1
 90
        1
176
     1
 90
        0
176
     1
 62
     7
176
     1
 62
   257
176
     1
 90
        1
176
     1
 90
        1
176
     1
 40
1.0
176
     1
 90
        8
176
     1
 62
     7
176
     1
 40
1.0
176
     1
 90
        1
176
     1
 90
        6
176
     1
 90
        2
176
     1
 62
     7
176
     1
 90
        3
176
     1
 90
        0
176
     1
 90
        0
176
     1
290
     0
176
     1
 90
       13
176
     1
 40
0.0
176
     1
 90
        0
176
     1
290
     0
176
     1
290
     1
176
     1
290
     1
176
     1
290
     0
176
     1
290
     0
176
     1
290
     0
176
     1
290
     0
176
     1
290
     0
176
     1
290
     0
176
     1
 90
       50
176
     1
 40
0.0
176
     1
 40
1.0
176
     1
 90
        0
176
     1
 62
    18
420
        0
176
     1
 90
       50
176
     1
 90
        3
176
     1
 62
     5
420
      255
176
     1
290
     0
176
     1
 90
       50
176
     1
 90
       50
176
     1
 90
       50
176
     1
290
     0
176
     1
 90
       50
176
     1
 62
   256
176
     0
 40
1.0
176
     0
 90
        2
176
     1
  1
strokes_ogs.tif
176
     1
290
     0
176
     1
 40
1.0
176
     1
 40
1.0
176
     1
  0
DICTIONARYVAR
  5
27F
102
{ACAD_REACTORS
330
21B
102
}
330
21B
100
DictionaryVariables
280
     0
  1
1:1
  0
DICTIONARYVAR
  5
281
102
{ACAD_REACTORS
330
21B
102
}
330
21B
100
DictionaryVariables
280
     0
  1
Standard
  0
DICTIONARYVAR
  5
280
102
{ACAD_REACTORS
330
21B
102
}
330
21B
100
DictionaryVariables
280
     0
  1
Standard
  0
DICTIONARYVAR
  5
21F
102
{ACAD_REACTORS
330
21B
102
}
330
21B
100
DictionaryVariables
280
     0
  1
2
  0
DICTIONARYVAR
  5
220
102
{ACAD_REACTORS
330
21B
102
}
330
21B
100
DictionaryVariables
280
     0
  1
1
  0
DICTIONARYVAR
  5
21E
102
{ACAD_REACTORS
330
21B
102
}
330
21B
100
DictionaryVariables
280
     0
  1
0
  0
DICTIONARY
  5
3D1
330
267
100
AcDbDictionary
280
     1
281
     1
  3
ACAD_ROUNDTRIP_2008_TABLESTYLE_CELLSTYLEMAP
360
3D2
  0
CELLSTYLEMAP
  5
3D2
102
{ACAD_REACTORS
330
3D1
102
}
330
3D1
100
AcDbCellStyleMap
 90
        3
300
CELLSTYLE
  1
TABLEFORMAT_BEGIN
 90
        5
170
     1
 91
        0
 92
    32768
 62
   257
 93
        1
300
CONTENTFORMAT
  1
CONTENTFORMAT_BEGIN
 90
        0
 91
        0
 92
        4
 93
        0
300

 40
0.0
140
1.0
 94
        5
 62
     0
340
11
144
0.25
309
CONTENTFORMAT_END
171
     1
301
MARGIN
  1
CELLMARGIN_BEGIN
 40
0.06
 40
0.06
 40
0.06
 40
0.06
 40
0.06
 40
0.06
309
CELLMARGIN_END
 94
        6
 95
        1
302
GRIDFORMAT
  1
GRIDFORMAT_BEGIN
 90
        0
 91
        1
 62
     0
 92
       -2
340
14
 93
        0
 40
0.045
309
GRIDFORMAT_END
 95
        2
302
GRIDFORMAT
  1
GRIDFORMAT_BEGIN
 90
        0
 91
        1
 62
     0
 92
       -2
340
14
 93
        0
 40
0.045
309
GRIDFORMAT_END
 95
        4
302
GRIDFORMAT
  1
GRIDFORMAT_BEGIN
 90
        0
 91
        1
 62
     0
 92
       -2
340
14
 93
        0
 40
0.045
309
GRIDFORMAT_END
 95
        8
302
GRIDFORMAT
  1
GRIDFORMAT_BEGIN
 90
        0
 91
        1
 62
     0
 92
       -2
340
14
 93
        0
 40
0.045
309
GRIDFORMAT_END
 95
       16
302
GRIDFORMAT
  1
GRIDFORMAT_BEGIN
 90
        0
 91
        1
 62
     0
 92
       -2
340
14
 93
        0
 40
0.045
309
GRIDFORMAT_END
 95
       32
302
GRIDFORMAT
  1
GRIDFORMAT_BEGIN
 90
        0
 91
        1
 62
     0
 92
       -2
340
14
 93
        0
 40
0.045
309
GRIDFORMAT_END
309
TABLEFORMAT_END
  1
CELLSTYLE_BEGIN
 90
        1
 91
        1
300
_TITLE
309
CELLSTYLE_END
300
CELLSTYLE
  1
TABLEFORMAT_BEGIN
 90
        5
170
     1
 91
        0
 92
        0
 62
   257
 93
        1
300
CONTENTFORMAT
  1
CONTENTFORMAT_BEGIN
 90
        0
 91
        0
 92
        4
 93
        0
300

 40
0.0
140
1.0
 94
        5
 62
     0
340
11
144
0.18
309
CONTENTFORMAT_END
171
     1
301
MARGIN
  1
CELLMARGIN_BEGIN
 40
0.06
 40
0.06
 40
0.06
 40
0.06
 40
0.06
 40
0.06
309
CELLMARGIN_END
 94
        6
 95
        1
302
GRIDFORMAT
  1
GRIDFORMAT_BEGIN
 90
        0
 91
        1
 62
     0
 92
       -2
340
14
 93
        0
 40
0.045
309
GRIDFORMAT_END
 95
        2
302
GRIDFORMAT
  1
GRIDFORMAT_BEGIN
 90
        0
 91
        1
 62
     0
 92
       -2
340
14
 93
        0
 40
0.045
309
GRIDFORMAT_END
 95
        4
302
GRIDFORMAT
  1
GRIDFORMAT_BEGIN
 90
        0
 91
        1
 62
     0
 92
       -2
340
14
 93
        0
 40
0.045
309
GRIDFORMAT_END
 95
        8
302
GRIDFORMAT
  1
GRIDFORMAT_BEGIN
 90
        0
 91
        1
 62
     0
 92
       -2
340
14
 93
        0
 40
0.045
309
GRIDFORMAT_END
 95
       16
302
GRIDFORMAT
  1
GRIDFORMAT_BEGIN
 90
        0
 91
        1
 62
     0
 92
       -2
340
14
 93
        0
 40
0.045
309
GRIDFORMAT_END
 95
       32
302
GRIDFORMAT
  1
GRIDFORMAT_BEGIN
 90
        0
 91
        1
 62
     0
 92
       -2
340
14
 93
        0
 40
0.045
309
GRIDFORMAT_END
309
TABLEFORMAT_END
  1
CELLSTYLE_BEGIN
 90
        2
 91
        1
300
_HEADER
309
CELLSTYLE_END
300
CELLSTYLE
  1
TABLEFORMAT_BEGIN
 90
        5
170
     1
 91
        0
 92
        0
 62
   257
 93
        1
300
CONTENTFORMAT
  1
CONTENTFORMAT_BEGIN
 90
        0
 91
        0
 92
        4
 93
        0
300

 40
0.0
140
1.0
 94
        2
 62
     0
340
11
144
0.18
309
CONTENTFORMAT_END
171
     1
301
MARGIN
  1
CELLMARGIN_BEGIN
 40
0.06
 40
0.06
 40
0.06
 40
0.06
 40
0.06
 40
0.06
309
CELLMARGIN_END
 94
        6
 95
        1
302
GRIDFORMAT
  1
GRIDFORMAT_BEGIN
 90
        0
 91
        1
 62
     0
 92
       -2
340
14
 93
        0
 40
0.045
309
GRIDFORMAT_END
 95
        2
302
GRIDFORMAT
  1
GRIDFORMAT_BEGIN
 90
        0
 91
        1
 62
     0
 92
       -2
340
14
 93
        0
 40
0.045
309
GRIDFORMAT_END
 95
        4
302
GRIDFORMAT
  1
GRIDFORMAT_BEGIN
 90
        0
 91
        1
 62
     0
 92
       -2
340
14
 93
        0
 40
0.045
309
GRIDFORMAT_END
 95
        8
302
GRIDFORMAT
  1
GRIDFORMAT_BEGIN
 90
        0
 91
        1
 62
     0
 92
       -2
340
14
 93
        0
 40
0.045
309
GRIDFORMAT_END
 95
       16
302
GRIDFORMAT
  1
GRIDFORMAT_BEGIN
 90
        0
 91
        1
 62
     0
 92
       -2
340
14
 93
        0
 40
0.045
309
GRIDFORMAT_END
 95
       32
302
GRIDFORMAT
  1
GRIDFORMAT_BEGIN
 90
        0
 91
        1
 62
     0
 92
       -2
340
14
 93
        0
 40
0.045
309
GRIDFORMAT_END
309
TABLEFORMAT_END
  1
CELLSTYLE_BEGIN
 90
        3
 91
        2
300
_DATA
309
CELLSTYLE_END
  0
ENDSEC
  0
EOF
