  0
SECTION
  2
HEADER
  9
$ACADVER
  1
AC1015
  9
$ACADMAINTVER
 70
     6
  9
$DWGCODEPAGE
  3
ANSI_1252
  9
$INSBASE
 10
0.0
 20
0.0
 30
0.0
  9
$EXTMIN
 10
-126.038566222
 20
-55.076659202
 30
0.0
  9
$EXTMAX
 10
140.635165051
 20
63.068137306
 30
0.0
  9
$LIMMIN
 10
-126.038566222
 20
-55.076659202
  9
$LIMMAX
 10
140.635165051
 20
63.068137306
  9
$ORTHOMODE
 70
     0
  9
$REGENMODE
 70
     1
  9
$FILLMODE
 70
     1
  9
$QTEXTMODE
 70
     0
  9
$MIRRTEXT
 70
     1
  9
$LTSCALE
 40
1.0
  9
$ATTMODE
 70
     1
  9
$TEXTSIZE
 40
0.2
  9
$TRACEWID
 40
0.05
  9
$TEXTSTYLE
  7
Standard
  9
$CLAYER
  8
0
  9
$CELTYPE
  6
ByBlock
  9
$CECOLOR
 62
   256
  9
$CELTSCALE
 40
1.0
  9
$DISPSILH
 70
     0
  9
$DIMSCALE
 40
1.0
  9
$DIMASZ
 40
0.18
  9
$DIMEXO
 40
0.0625
  9
$DIMDLI
 40
0.38
  9
$DIMRND
 40
0.0
  9
$DIMDLE
 40
0.0
  9
$DIMEXE
 40
0.18
  9
$DIMTP
 40
0.0
  9
$DIMTM
 40
0.0
  9
$DIMTXT
 40
0.18
  9
$DIMCEN
 40
0.09
  9
$DIMTSZ
 40
0.0
  9
$DIMTOL
 70
     0
  9
$DIMLIM
 70
     0
  9
$DIMTIH
 70
     1
  9
$DIMTOH
 70
     1
  9
$DIMSE1
 70
     0
  9
$DIMSE2
 70
     0
  9
$DIMTAD
 70
     0
  9
$DIMZIN
 70
     0
  9
$DIMBLK
  1

  9
$DIMASO
 70
     1
  9
$DIMSHO
 70
     1
  9
$DIMPOST
  1

  9
$DIMAPOST
  1

  9
$DIMALT
 70
     0
  9
$DIMALTD
 70
     2
  9
$DIMALTF
 40
25.4
  9
$DIMLFAC
 40
1.0
  9
$DIMTOFL
 70
     0
  9
$DIMTVP
 40
0.0
  9
$DIMTIX
 70
     0
  9
$DIMSOXD
 70
     0
  9
$DIMSAH
 70
     0
  9
$DIMBLK1
  1

  9
$DIMBLK2
  1

  9
$DIMSTYLE
  2
Standard
  9
$DIMCLRD
 70
     0
  9
$DIMCLRE
 70
     0
  9
$DIMCLRT
 70
     0
  9
$DIMTFAC
 40
1.0
  9
$DIMGAP
 40
0.09
  9
$DIMJUST
 70
     0
  9
$DIMSD1
 70
     0
  9
$DIMSD2
 70
     0
  9
$DIMTOLJ
 70
     1
  9
$DIMTZIN
 70
     0
  9
$DIMALTZ
 70
     0
  9
$DIMALTTZ
 70
     0
  9
$DIMUPT
 70
     0
  9
$DIMDEC
 70
     4
  9
$DIMTDEC
 70
     4
  9
$DIMALTU
 70
     2
  9
$DIMALTTD
 70
     2
  9
$DIMTXSTY
  7
Standard
  9
$DIMAUNIT
 70
     0
  9
$DIMADEC
 70
     0
  9
$DIMALTRND
 40
0.0
  9
$DIMAZIN
 70
     0
  9
$DIMDSEP
 70
    46
  9
$DIMATFIT
 70
     3
  9
$DIMFRAC
 70
     0
  9
$DIMLDRBLK
  1

  9
$DIMLUNIT
 70
     2
  9
$DIMLWD
 70
    -2
  9
$DIMLWE
 70
    -2
  9
$DIMTMOVE
 70
     2
  9
$LUNITS
 70
     2
  9
$LUPREC
 70
     4
  9
$SKETCHINC
 40
0.1
  9
$FILLETRAD
 40
0.5
  9
$AUNITS
 70
     2
  9
$AUPREC
 70
     0
  9
$MENU
  1
.
  9
$ELEVATION
 40
0.0
  9
$PELEVATION
 40
0.0
  9
$THICKNESS
 40
0.0
  9
$LIMCHECK
 70
     0
  9
$CHAMFERA
 40
0.5
  9
$CHAMFERB
 40
0.5
  9
$CHAMFERC
 40
1.0
  9
$CHAMFERD
 40
0.0
  9
$SKPOLY
 70
     0
  9
$TDCREATE
 40
2458327.544410382
  9
$TDUCREATE
 40
2458327.461077048
  9
$TDUPDATE
 40
2458327.544410648
  9
$TDUUPDATE
 40
2458327.461077315
  9
$TDINDWG
 40
0.0000000116
  9
$TDUSRTIMER
 40
0.0000000116
  9
$USRTIMER
 70
     1
  9
$ANGBASE
 50
0.0
  9
$ANGDIR
 70
     0
  9
$PDMODE
 70
     0
  9
$PDSIZE
 40
0.0
  9
$PLINEWID
 40
0.0
  9
$SPLFRAME
 70
     0
  9
$SPLINETYPE
 70
     6
  9
$SPLINESEGS
 70
     8
  9
$HANDSEED
  5
23B
  9
$SURFTAB1
 70
     6
  9
$SURFTAB2
 70
     6
  9
$SURFTYPE
 70
     6
  9
$SURFU
 70
     6
  9
$SURFV
 70
     6
  9
$UCSBASE
  2

  9
$UCSNAME
  2

  9
$UCSORG
 10
0.0
 20
0.0
 30
0.0
  9
$UCSXDIR
 10
1.0
 20
0.0
 30
0.0
  9
$UCSYDIR
 10
0.0
 20
1.0
 30
0.0
  9
$UCSORTHOREF
  2

  9
$UCSORTHOVIEW
 70
     0
  9
$UCSORGTOP
 10
0.0
 20
0.0
 30
0.0
  9
$UCSORGBOTTOM
 10
0.0
 20
0.0
 30
0.0
  9
$UCSORGLEFT
 10
0.0
 20
0.0
 30
0.0
  9
$UCSORGRIGHT
 10
0.0
 20
0.0
 30
0.0
  9
$UCSORGFRONT
 10
0.0
 20
0.0
 30
0.0
  9
$UCSORGBACK
 10
0.0
 20
0.0
 30
0.0
  9
$PUCSBASE
  2

  9
$PUCSNAME
  2

  9
$PUCSORG
 10
0.0
 20
0.0
 30
0.0
  9
$PUCSXDIR
 10
1.0
 20
0.0
 30
0.0
  9
$PUCSYDIR
 10
0.0
 20
1.0
 30
0.0
  9
$PUCSORTHOREF
  2

  9
$PUCSORTHOVIEW
 70
     0
  9
$PUCSORGTOP
 10
0.0
 20
0.0
 30
0.0
  9
$PUCSORGBOTTOM
 10
0.0
 20
0.0
 30
0.0
  9
$PUCSORGLEFT
 10
0.0
 20
0.0
 30
0.0
  9
$PUCSORGRIGHT
 10
0.0
 20
0.0
 30
0.0
  9
$PUCSORGFRONT
 10
0.0
 20
0.0
 30
0.0
  9
$PUCSORGBACK
 10
0.0
 20
0.0
 30
0.0
  9
$USERI1
 70
     0
  9
$USERI2
 70
     0
  9
$USERI3
 70
     0
  9
$USERI4
 70
     0
  9
$USERI5
 70
     0
  9
$USERR1
 40
0.0
  9
$USERR2
 40
0.0
  9
$USERR3
 40
0.0
  9
$USERR4
 40
0.0
  9
$USERR5
 40
0.0
  9
$WORLDVIEW
 70
     1
  9
$SHADEDGE
 70
     3
  9
$SHADEDIF
 70
    70
  9
$TILEMODE
 70
     1
  9
$MAXACTVP
 70
    64
  9
$PINSBASE
 10
0.0
 20
0.0
 30
0.0
  9
$PLIMCHECK
 70
     0
  9
$PEXTMIN
 10
1.000000000000000E+20
 20
1.000000000000000E+20
 30
1.000000000000000E+20
  9
$PEXTMAX
 10
-1.000000000000000E+20
 20
-1.000000000000000E+20
 30
-1.000000000000000E+20
  9
$PLIMMIN
 10
0.0
 20
0.0
  9
$PLIMMAX
 10
12.0
 20
9.0
  9
$UNITMODE
 70
     0
  9
$VISRETAIN
 70
     1
  9
$PLINEGEN
 70
     0
  9
$PSLTSCALE
 70
     1
  9
$TREEDEPTH
 70
  3020
  9
$CMLSTYLE
  2
Standard
  9
$CMLJUST
 70
     0
  9
$CMLSCALE
 40
1.0
  9
$PROXYGRAPHICS
 70
     1
  9
$MEASUREMENT
 70
     0
  9
$CELWEIGHT
370
    -1
  9
$ENDCAPS
280
     0
  9
$JOINSTYLE
280
     0
  9
$LWDISPLAY
290
     0
  9
$INSUNITS
 70
     0
  9
$HYPERLINKBASE
  1

  9
$STYLESHEET
  1

  9
$XEDIT
290
     1
  9
$CEPSNTYPE
380
     0
  9
$PSTYLEMODE
290
     1
  9
$FINGERPRINTGUID
  2
{A31055D4-4A20-4D5B-AEB5-803775175B60}
  9
$VERSIONGUID
  2
{FAEB1C32-E019-11D5-929B-00C0DF256EC4}
  9
$EXTNAMES
290
     1
  9
$PSVPSCALE
 40
0.0
  9
$OLESTARTUP
290
     0
  0
ENDSEC
  0
SECTION
  2
CLASSES
  0
CLASS
  1
ACDBDICTIONARYWDFLT
  2
AcDbDictionaryWithDefault
  3
ObjectDBX Classes
 90
        0
280
     0
281
     0
  0
CLASS
  1
SCALE
  2
AcDbScale
  3
ObjectDBX Classes
 90
     1153
280
     0
281
     0
  0
CLASS
  1
VISUALSTYLE
  2
AcDbVisualStyle
  3
ObjectDBX Classes
 90
     4095
280
     0
281
     0
  0
CLASS
  1
MATERIAL
  2
AcDbMaterial
  3
ObjectDBX Classes
 90
     1153
280
     0
281
     0
  0
CLASS
  1
DICTIONARYVAR
  2
AcDbDictionaryVar
  3
ObjectDBX Classes
 90
        0
280
     0
281
     0
  0
CLASS
  1
ACDBPLACEHOLDER
  2
AcDbPlaceHolder
  3
ObjectDBX Classes
 90
        0
280
     0
281
     0
  0
CLASS
  1
LAYOUT
  2
AcDbLayout
  3
ObjectDBX Classes
 90
        0
280
     0
281
     0
  0
ENDSEC
  0
SECTION
  2
TABLES
  0
TABLE
  2
VPORT
  5
8
102
{ACAD_XDICTIONARY
360
200
102
}
330
0
100
AcDbSymbolTable
 70
     1
  0
VPORT
  5
1B0
330
8
100
AcDbSymbolTableRecord
100
AcDbViewportTableRecord
  2
*Active
 70
     0
 10
0.0
 20
0.0
 11
1.0
 21
1.0
 12
10.42990654205607
 22
4.5
 13
0.0
 23
0.0
 14
0.5
 24
0.5
 15
0.5
 25
0.5
 16
0.0
 26
0.0
 36
1.0
 17
0.0
 27
0.0
 37
0.0
 40
9.0
 41
1.972972972850329
 42
50.0
 43
0.0
 44
0.0
 50
0.0
 51
0.0
 71
     0
 72
   100
 73
     1
 74
     3
 75
     0
 76
     0
 77
     0
 78
     0
281
     0
 65
     1
110
0.0
120
0.0
130
0.0
111
1.0
121
0.0
131
0.0
112
0.0
122
1.0
132
0.0
 79
     0
146
0.0
  0
ENDTAB
  0
TABLE
  2
LTYPE
  5
5
330
0
100
AcDbSymbolTable
 70
     5
  0
LTYPE
  5
14
330
5
100
AcDbSymbolTableRecord
100
AcDbLinetypeTableRecord
  2
ByBlock
 70
     0
  3

 72
    65
 73
     0
 40
0.0
  0
LTYPE
  5
15
330
5
100
AcDbSymbolTableRecord
100
AcDbLinetypeTableRecord
  2
ByLayer
 70
     0
  3

 72
    65
 73
     0
 40
0.0
  0
LTYPE
  5
16
330
5
100
AcDbSymbolTableRecord
100
AcDbLinetypeTableRecord
  2
Continuous
 70
     0
  3
Solid line
 72
    65
 73
     0
 40
0.0
  0
LTYPE
  5
20
330
5
100
AcDbSymbolTableRecord
100
AcDbLinetypeTableRecord
  2
PUNKT
 70
     0
  3
..............
 72
    65
 73
     2
 40
1.5
 49
0.7
 74
     0
 49
-0.8
 74
     0
  0
LTYPE
  5
21
330
5
100
AcDbSymbolTableRecord
100
AcDbLinetypeTableRecord
  2
GESTRICHELT
 70
     0
  3
-- -- -- -- --
 72
    65
 73
     7
 40
2.8
 49
0.9
 74
     0
 49
0.0
 74
     0
 49
0.9
 74
     0
 49
0.0
 74
     0
 49
0.2
 74
     0
 49
0.0
 74
     0
 49
-0.8
 74
     0
  0
LTYPE
  5
22
330
5
100
AcDbSymbolTableRecord
100
AcDbLinetypeTableRecord
  2
STRICHPUNKT
 70
     0
  3
--.--.--.--.--
 72
    65
 73
     4
 40
8.8
 49
5.5
 74
     0
 49
-1.3
 74
     0
 49
0.7
 74
     0
 49
-1.3
 74
     0
  0
LTYPE
  5
25
330
5
100
AcDbSymbolTableRecord
100
AcDbLinetypeTableRecord
  2
PHANTOM
 70
     0
  3
--..--..--..--
 72
    65
 73
     6
 40
14.2
 49
7.0
 74
     0
 49
-1.8
 74
     0
 49
0.9
 74
     0
 49
-1.8
 74
     0
 49
0.9
 74
     0
 49
-1.8
 74
     0
  0
LTYPE
  5
22A
330
5
100
AcDbSymbolTableRecord
100
AcDbLinetypeTableRecord
  2
DASH
 70
     0
  3
DASH _ _ _ _ _
 72
    65
 73
     2
 40
0.75
 49
0.40
 74
     0
 49
-0.35
 74
     0
  0
LTYPE
  5
22B
330
5
100
AcDbSymbolTableRecord
100
AcDbLinetypeTableRecord
  2
LONGDASH_DASH
 70
     0
  3
LONGDASH_DASH __ . __ . __
 72
    65
 73
     4
 40
0.85
 49
0.40
 74
     0
 49
-0.20
 74
     0
 49
0.05
 74
     0
 49
-0.20
 74
     0
  0
LTYPE
  5
22C
330
5
100
AcDbSymbolTableRecord
100
AcDbLinetypeTableRecord
  2
LONGDASH_DASH_DASH
 70
     0
  3
LONGDASH_DASH_DASH __ . . __ . . __
 72
    65
 73
     6
 40
1.10
 49
0.40
 74
     0
 49
-0.20
 74
     0
 49
0.05
 74
     0
 49
-0.20
 74
     0
 49
0.05
 74
     0
 49
-0.20
 74
     0
  0
ENDTAB
  0
TABLE
  2
LAYER
  5
2
330
0
100
AcDbSymbolTable
 70
    14
  0
LAYER
  5
1F3
330
2
100
AcDbSymbolTableRecord
100
AcDbLayerTableRecord
  2
200
 70
     0
 62
     2
  6
Continuous
370
    50
390
F
  0
LAYER
  5
22D
330
2
100
AcDbSymbolTableRecord
100
AcDbLayerTableRecord
  2
0
 70
     0
 62
     -1
  6
CONTINUOUS
370
    -3
390
F
  0
LAYER
  5
22E
330
2
100
AcDbSymbolTableRecord
100
AcDbLayerTableRecord
  2
1
 70
     0
 62
     4
  6
CONTINUOUS
370
    50
390
F
  0
LAYER
  5
22F
330
2
100
AcDbSymbolTableRecord
100
AcDbLayerTableRecord
  2
2
 70
     0
 62
     7
  6
CONTINUOUS
370
    25
390
F
  0
LAYER
  5
230
330
2
100
AcDbSymbolTableRecord
100
AcDbLayerTableRecord
  2
3
 70
     0
 62
     1
  6
DASH
370
    35
390
F
  0
LAYER
  5
231
330
2
100
AcDbSymbolTableRecord
100
AcDbLayerTableRecord
  2
4
 70
     0
 62
     2
  6
LONGDASH_DASH
370
    25
390
F
  0
LAYER
  5
232
330
2
100
AcDbSymbolTableRecord
100
AcDbLayerTableRecord
  2
6
 70
     0
 62
     5
  6
CONTINUOUS
370
    -3
390
F
  0
LAYER
  5
233
330
2
100
AcDbSymbolTableRecord
100
AcDbLayerTableRecord
  2
CUT
 70
     0
 62
     1
  6
CONTINUOUS
370
    25
390
F
  0
LAYER
  5
234
330
2
100
AcDbSymbolTableRecord
100
AcDbLayerTableRecord
  2
NOCUT
 70
     0
 62
     7
  6
CONTINUOUS
370
    25
390
F
  0
LAYER
  5
235
330
2
100
AcDbSymbolTableRecord
100
AcDbLayerTableRecord
  2
SK1
 70
     0
 62
     4
  6
CONTINUOUS
370
    50
390
F
  0
LAYER
  5
236
330
2
100
AcDbSymbolTableRecord
100
AcDbLayerTableRecord
  2
SK2
 70
     0
 62
     7
  6
CONTINUOUS
370
    25
390
F
  0
LAYER
  5
237
330
2
100
AcDbSymbolTableRecord
100
AcDbLayerTableRecord
  2
SK3
 70
     0
 62
     1
  6
DASH
370
    35
390
F
  0
LAYER
  5
238
330
2
100
AcDbSymbolTableRecord
100
AcDbLayerTableRecord
  2
SK4
 70
     0
 62
     2
  6
LONGDASH_DASH
370
    25
390
F
  0
LAYER
  5
239
330
2
100
AcDbSymbolTableRecord
100
AcDbLayerTableRecord
  2
SK6
 70
     0
 62
     5
  6
CONTINUOUS
370
    -3
390
F
  0
LAYER
  5
23A
330
2
100
AcDbSymbolTableRecord
100
AcDbLayerTableRecord
  2
INFTOTAL
 70
     0
 62
     9
  6
CONTINUOUS
370
    18
390
F
  0
ENDTAB
  0
TABLE
  2
STYLE
  5
3
330
0
100
AcDbSymbolTable
 70
     2
  0
STYLE
  5
11
330
3
100
AcDbSymbolTableRecord
100
AcDbTextStyleTableRecord
  2
Standard
 70
     0
 40
0.0
 41
1.0
 50
0.0
 71
     0
 42
0.2
  3
txt
  4

  0
STYLE
  5
1F2
330
3
100
AcDbSymbolTableRecord
100
AcDbTextStyleTableRecord
  2
BMG_Text
 70
     0
 40
3.5
 41
1.0
 50
0.0
 71
     0
 42
0.2
  3
monos.ttf
  4

1001
ACAD
1000
Monospac821 BT
1071
       49
  0
ENDTAB
  0
TABLE
  2
VIEW
  5
6
330
0
100
AcDbSymbolTable
 70
     0
  0
ENDTAB
  0
TABLE
  2
UCS
  5
7
330
0
100
AcDbSymbolTable
 70
     0
  0
ENDTAB
  0
TABLE
  2
APPID
  5
9
330
0
100
AcDbSymbolTable
 70
     1
  0
APPID
  5
12
330
9
100
AcDbSymbolTableRecord
100
AcDbRegAppTableRecord
  2
ACAD
 70
     0
  0
ENDTAB
  0
TABLE
  2
DIMSTYLE
  5
A
330
0
100
AcDbSymbolTable
 70
     1
100
AcDbDimStyleTable
  0
DIMSTYLE
105
28
330
A
100
AcDbSymbolTableRecord
100
AcDbDimStyleTableRecord
  2
Standard
 70
     0
178
     0
340
11
  0
ENDTAB
  0
TABLE
  2
BLOCK_RECORD
  5
1
330
0
100
AcDbSymbolTable
 70
     0
  0
BLOCK_RECORD
  5
1D
330
1
100
AcDbSymbolTableRecord
100
AcDbBlockTableRecord
  2
*Model_Space
340
1E
  0
BLOCK_RECORD
  5
1B
330
1
100
AcDbSymbolTableRecord
100
AcDbBlockTableRecord
  2
*Paper_Space
340
1C
  0
ENDTAB
  0
ENDSEC
  0
SECTION
  2
BLOCKS
  0
BLOCK
  5
1DB
330
1D
100
AcDbEntity
  8
0
100
AcDbBlockBegin
  2
*Model_Space
 70
     0
 10
0.0
 20
0.0
 30
0.0
  3
*Model_Space
  1

  0
ENDBLK
  5
1DC
330
1D
100
AcDbEntity
  8
0
100
AcDbBlockEnd
  0
BLOCK
  5
1D9
330
1B
100
AcDbEntity
 67
     1
  8
0
100
AcDbBlockBegin
  2
*Paper_Space
 70
     0
 10
0.0
 20
0.0
 30
0.0
  3
*Paper_Space
  1

  0
ENDBLK
  5
1DA
330
1B
100
AcDbEntity
 67
     1
  8
0
100
AcDbBlockEnd
  0
ENDSEC
  0
SECTION
  2
ENTITIES
  0
LINE
  5
29
330
1D
100
AcDbEntity
  8
SK1
  6
CONTINUOUS
370
    50
100
AcDbLine
 10
7.822908113
 20
-30.588745783
 30
0.0
 11
22.174620986
 21
-38.219686247
 31
0.0
  0
LINE
  5
2A
330
1D
100
AcDbEntity
  8
1
  6
CONTINUOUS
370
    50
100
AcDbLine
 10
26.48120001
 20
-37.000000477
 30
0.0
 11
37.000000817
 21
-36.999999894
 31
0.0
  0
ARC
  5
2B
330
1D
100
AcDbEntity
  8
1
  6
CONTINUOUS
370
    50
100
AcDbCircle
 10
26.468662135
 20
-51.979084575
 30
0.0
 40
14.979089345
100
AcDbArc
 50
89.952041984
 51
151.929253223
  0
LINE
  5
2C
330
1D
100
AcDbEntity
  8
SK3
  6
DASH
370
    35
100
AcDbLine
 10
13.753248379
 20
-26.946542785
 30
0.0
 11
32.661051576
 21
-37.000000128
 31
0.0
  0
LINE
  5
2D
330
1D
100
AcDbEntity
  8
SK3
  6
DASH
370
    35
100
AcDbLine
 10
9.008219466
 20
-31.218985096
 30
0.0
 11
13.753248379
 21
-26.946542785
 31
0.0
  0
LINE
  5
2E
330
1D
100
AcDbEntity
  8
SK3
  6
DASH
370
    35
100
AcDbLine
 10
8.119589649
 20
-37.541914731
 30
0.0
 11
9.008219466
 21
-31.218985096
 31
0.0
  0
LINE
  5
2F
330
1D
100
AcDbEntity
  8
SK3
  6
DASH
370
    35
100
AcDbLine
 10
8.119589649
 20
-37.541914731
 30
0.0
 11
13.753248379
 21
-26.946542785
 31
0.0
  0
LINE
  5
30
330
1D
100
AcDbEntity
  8
SK3
  6
DASH
370
    35
100
AcDbLine
 10
15.696571725
 20
-41.570665587
 30
0.0
 11
8.119589649
 21
-37.541914731
 31
0.0
  0
LINE
  5
31
330
1D
100
AcDbEntity
  8
SK3
  6
DASH
370
    35
100
AcDbLine
 10
1.376465741
 20
-7.015668757
 30
0.0
 11
13.35077462
 21
-27.308931707
 31
0.0
  0
LINE
  5
32
330
1D
100
AcDbEntity
  8
SK1
  6
CONTINUOUS
370
    50
100
AcDbLine
 10
12.237092298
 20
-30.340964132
 30
0.0
 11
-1.750111503
 21
-6.636380632
 31
0.0
  0
LINE
  5
33
330
1D
100
AcDbEntity
  8
SK3
  6
DASH
370
    35
100
AcDbLine
 10
9.559509173
 20
-30.72260172
 30
0.0
 11
-3.891011002
 21
-7.927552797
 31
0.0
  0
LINE
  5
34
330
1D
100
AcDbEntity
  8
SK1
  6
CONTINUOUS
370
    50
100
AcDbLine
 10
75.700926738
 20
0.0
 30
0.0
 11
-43.352515002
 21
0.0
 31
0.0
  0
LINE
  5
35
330
1D
100
AcDbEntity
  8
SK3
  6
DASH
370
    35
100
AcDbLine
 10
-16.999980383
 20
-9.000000408
 30
0.0
 11
-13.267955003
 21
-8.000007221
 31
0.0
  0
LINE
  5
36
330
1D
100
AcDbEntity
  8
SK3
  6
DASH
370
    35
100
AcDbLine
 10
-37.000005811
 20
-9.250000408
 30
0.0
 11
-36.278326123
 21
-8.000000408
 31
0.0
  0
LINE
  5
37
330
1D
100
AcDbEntity
  8
SK3
  6
DASH
370
    35
100
AcDbLine
 10
-36.278326123
 20
8.000007221
 30
0.0
 11
-37.000005811
 21
9.25002248
 31
0.0
  0
LINE
  5
38
330
1D
100
AcDbEntity
  8
SK3
  6
DASH
370
    35
100
AcDbLine
 10
-37.000005811
 20
9.25002248
 30
0.0
 11
-39.567022412
 21
9.25002248
 31
0.0
  0
LINE
  5
39
330
1D
100
AcDbEntity
  8
SK3
  6
DASH
370
    35
100
AcDbLine
 10
-39.567022412
 20
-9.250000408
 30
0.0
 11
-37.000005811
 21
-9.250000408
 31
0.0
  0
LINE
  5
3A
330
1D
100
AcDbEntity
  8
SK3
  6
DASH
370
    35
100
AcDbLine
 10
-37.000005811
 20
-9.250000408
 30
0.0
 11
-37.000005811
 21
9.25002248
 31
0.0
  0
LINE
  5
3B
330
1D
100
AcDbEntity
  8
SK3
  6
DASH
370
    35
100
AcDbLine
 10
-36.278326123
 20
-8.000000408
 30
0.0
 11
1.000024707
 21
-8.000000408
 31
0.0
  0
LINE
  5
3C
330
1D
100
AcDbEntity
  8
SK3
  6
DASH
370
    35
100
AcDbLine
 10
1.000024707
 20
8.00002248
 30
0.0
 11
-36.278326123
 21
8.00002248
 31
0.0
  0
LINE
  5
3D
330
1D
100
AcDbEntity
  8
SK3
  6
DASH
370
    35
100
AcDbLine
 10
-36.278326123
 20
8.00002248
 30
0.0
 11
-36.278326123
 21
-8.000000408
 31
0.0
  0
LINE
  5
3E
330
1D
100
AcDbEntity
  8
SK3
  6
DASH
370
    35
100
AcDbLine
 10
-17.000005811
 20
-9.000000408
 30
0.0
 11
-16.99988374
 21
9.000007221
 31
0.0
  0
LINE
  5
3F
330
1D
100
AcDbEntity
  8
SK3
  6
DASH
370
    35
100
AcDbLine
 10
-16.99988374
 20
9.000007221
 30
0.0
 11
-36.855596631
 21
9.000007221
 31
0.0
  0
LINE
  5
40
330
1D
100
AcDbEntity
  8
SK3
  6
DASH
370
    35
100
AcDbLine
 10
-36.855596631
 20
-9.000000408
 30
0.0
 11
-16.999980383
 21
-9.000000408
 31
0.0
  0
LINE
  5
41
330
1D
100
AcDbEntity
  8
SK3
  6
DASH
370
    35
100
AcDbLine
 10
-17.000005811
 20
9.000007221
 30
0.0
 11
-13.267955003
 21
8.000007221
 31
0.0
  0
LINE
  5
42
330
1D
100
AcDbEntity
  8
2
  6
CONTINUOUS
370
    25
100
AcDbLine
 10
-50.0
 20
-18.0
 30
0.0
 11
-35.0
 21
-18.0
 31
0.0
  0
LINE
  5
43
330
1D
100
AcDbEntity
  8
2
  6
CONTINUOUS
370
    25
100
AcDbLine
 10
-48.0
 20
-18.0
 30
0.0
 11
-48.45
 21
-14.5
 31
0.0
  0
LINE
  5
44
330
1D
100
AcDbEntity
  8
2
  6
CONTINUOUS
370
    25
100
AcDbLine
 10
-48.45
 20
-14.5
 30
0.0
 11
-47.55
 21
-14.5
 31
0.0
  0
LINE
  5
45
330
1D
100
AcDbEntity
  8
2
  6
CONTINUOUS
370
    25
100
AcDbLine
 10
-47.55
 20
-14.5
 30
0.0
 11
-48.0
 21
-18.0
 31
0.0
  0
LINE
  5
46
330
1D
100
AcDbEntity
  8
2
  6
CONTINUOUS
370
    25
100
AcDbLine
 10
-50.0
 20
18.0
 30
0.0
 11
-35.0
 21
18.0
 31
0.0
  0
LINE
  5
47
330
1D
100
AcDbEntity
  8
2
  6
CONTINUOUS
370
    25
100
AcDbLine
 10
-48.0
 20
18.0
 30
0.0
 11
-47.55
 21
14.5
 31
0.0
  0
LINE
  5
48
330
1D
100
AcDbEntity
  8
2
  6
CONTINUOUS
370
    25
100
AcDbLine
 10
-47.55
 20
14.5
 30
0.0
 11
-48.45
 21
14.5
 31
0.0
  0
LINE
  5
49
330
1D
100
AcDbEntity
  8
2
  6
CONTINUOUS
370
    25
100
AcDbLine
 10
-48.45
 20
14.5
 30
0.0
 11
-48.0
 21
18.0
 31
0.0
  0
LINE
  5
4A
330
1D
100
AcDbEntity
  8
2
  6
CONTINUOUS
370
    25
100
AcDbLine
 10
-48.0
 20
-14.5
 30
0.0
 11
-48.0
 21
14.5
 31
0.0
  0
TEXT
  5
4B
330
1D
100
AcDbEntity
  8
2
  6
CONTINUOUS
370
    25
100
AcDbText
 10
-49.5
 20
0.331405848
 30
0.0
 40
3.5
  1
36
 50
90.0
  7
BMG_Text
100
AcDbText
  0
CIRCLE
  5
4C
330
1D
100
AcDbEntity
  8
2
  6
CONTINUOUS
370
    25
100
AcDbCircle
 10
-50.75
 20
-1.918594152
 30
0.0
 40
1.25
  0
LINE
  5
4D
330
1D
100
AcDbEntity
  8
2
  6
CONTINUOUS
370
    25
100
AcDbLine
 10
-49.5
 20
-3.168594152
 30
0.0
 11
-52.0
 21
-0.668594152
 31
0.0
  0
TEXT
  5
4E
330
1D
100
AcDbEntity
  8
SK6
  6
CONTINUOUS
370
    35
100
AcDbText
 10
15.740511693
 20
-23.167712571
 30
0.0
 40
3.5
  1
319.602
  7
BMG_Text
100
AcDbText
  0
LINE
  5
4F
330
1D
100
AcDbEntity
  8
SK1
  6
CONTINUOUS
370
    50
100
AcDbLine
 10
-15.5
 20
-5.5
 30
0.0
 11
-15.5
 21
5.5
 31
0.0
  0
ARC
  5
50
330
1D
100
AcDbEntity
  8
SK1
  6
CONTINUOUS
370
    50
100
AcDbCircle
 10
-0.3
 20
-18.2
 30
0.0
 40
0.5
100
AcDbArc
 50
53.130102354
 51
105.0
  0
ARC
  5
51
330
1D
100
AcDbEntity
  8
SK1
  6
CONTINUOUS
370
    50
100
AcDbCircle
 10
-0.3
 20
18.2
 30
0.0
 40
0.5
100
AcDbArc
 50
255.0
 51
306.8698976460001
  0
ARC
  5
52
330
1D
100
AcDbEntity
  8
SK1
  6
CONTINUOUS
370
    50
100
AcDbCircle
 10
-39.018504542
 20
-17.0
 30
0.0
 40
1.0
100
AcDbArc
 50
227.039385809
 51
280.0
  0
ARC
  5
53
330
1D
100
AcDbEntity
  8
SK1
  6
CONTINUOUS
370
    50
100
AcDbCircle
 10
-39.018504542
 20
17.0
 30
0.0
 40
1.0
100
AcDbArc
 50
80.0
 51
132.960614191
  0
LINE
  5
54
330
1D
100
AcDbEntity
  8
SK1
  6
CONTINUOUS
370
    50
100
AcDbLine
 10
-35.000000149
 20
-17.999999225
 30
0.0
 11
-1.485441462
 21
-17.999999225
 31
0.0
  0
LINE
  5
55
330
1D
100
AcDbEntity
  8
SK1
  6
CONTINUOUS
370
    50
100
AcDbLine
 10
-1.485441462
 20
17.999999225
 30
0.0
 11
-35.000000149
 21
17.999999225
 31
0.0
  0
LINE
  5
56
330
1D
100
AcDbEntity
  8
SK1
  6
CONTINUOUS
370
    50
100
AcDbLine
 10
-1.485441462
 20
-17.999999225
 30
0.0
 11
-0.429409527
 21
-17.71703735
 31
0.0
  0
LINE
  5
57
330
1D
100
AcDbEntity
  8
SK1
  6
CONTINUOUS
370
    50
100
AcDbLine
 10
-0.429409527
 20
17.71703735
 30
0.0
 11
-1.485441462
 21
17.999999225
 31
0.0
  0
LINE
  5
58
330
1D
100
AcDbEntity
  8
SK1
  6
CONTINUOUS
370
    50
100
AcDbLine
 10
-35.000000149
 20
17.999999225
 30
0.0
 11
-37.187486887
 21
17.692569643
 31
0.0
  0
LINE
  5
59
330
1D
100
AcDbEntity
  8
SK1
  6
CONTINUOUS
370
    50
100
AcDbLine
 10
-37.187486887
 20
-17.692569643
 30
0.0
 11
-35.000000149
 21
-17.999999225
 31
0.0
  0
LINE
  5
5A
330
1D
100
AcDbEntity
  8
SK1
  6
CONTINUOUS
370
    50
100
AcDbLine
 10
-38.844857365
 20
-17.984807491
 30
0.0
 11
-37.187486887
 21
-17.692569643
 31
0.0
  0
LINE
  5
5B
330
1D
100
AcDbEntity
  8
SK1
  6
CONTINUOUS
370
    50
100
AcDbLine
 10
-37.187486887
 20
17.692569643
 30
0.0
 11
-38.844857365
 21
17.984807491
 31
0.0
  0
LINE
  5
5C
330
1D
100
AcDbEntity
  8
SK1
  6
CONTINUOUS
370
    50
100
AcDbLine
 10
-39.700001478
 20
-17.731823027
 30
0.0
 11
-39.700001478
 21
17.731823027
 31
0.0
  0
LINE
  5
5D
330
1D
100
AcDbEntity
  8
SK1
  6
CONTINUOUS
370
    50
100
AcDbLine
 10
-1.485441462
 20
0.0
 30
0.0
 11
-1.485441462
 21
-17.999999225
 31
0.0
  0
LINE
  5
5E
330
1D
100
AcDbEntity
  8
SK1
  6
CONTINUOUS
370
    50
100
AcDbLine
 10
-1.485441462
 20
17.999999225
 30
0.0
 11
-1.485441462
 21
0.0
 31
0.0
  0
LINE
  5
5F
330
1D
100
AcDbEntity
  8
SK1
  6
CONTINUOUS
370
    50
100
AcDbLine
 10
-35.000000149
 20
-17.999999225
 30
0.0
 11
-35.000000149
 21
17.999999225
 31
0.0
  0
LINE
  5
60
330
1D
100
AcDbEntity
  8
SK1
  6
CONTINUOUS
370
    50
100
AcDbLine
 10
-37.187486887
 20
0.0
 30
0.0
 11
-37.187486887
 21
17.692569643
 31
0.0
  0
LINE
  5
61
330
1D
100
AcDbEntity
  8
SK1
  6
CONTINUOUS
370
    50
100
AcDbLine
 10
-37.187486887
 20
-17.692569643
 30
0.0
 11
-37.187486887
 21
0.0
 31
0.0
  0
LINE
  5
62
330
1D
100
AcDbEntity
  8
SK3
  6
DASH
370
    35
100
AcDbLine
 10
8.119589649
 20
37.541914731
 30
0.0
 11
13.753248379
 21
26.946542785
 31
0.0
  0
LINE
  5
63
330
1D
100
AcDbEntity
  8
SK3
  6
DASH
370
    35
100
AcDbLine
 10
8.119589649
 20
37.541914731
 30
0.0
 11
9.008219466
 21
31.218985096
 31
0.0
  0
LINE
  5
64
330
1D
100
AcDbEntity
  8
1
  6
CONTINUOUS
370
    50
100
AcDbLine
 10
37.000000817
 20
-44.699408114
 30
0.0
 11
37.000000817
 21
44.700000435
 31
0.0
  0
LINE
  5
65
330
1D
100
AcDbEntity
  8
1
  6
CONTINUOUS
370
    50
100
AcDbLine
 10
37.000000817
 20
44.700000435
 30
0.0
 11
36.699999464
 21
45.000001788
 31
0.0
  0
LINE
  5
66
330
1D
100
AcDbEntity
  8
1
  6
CONTINUOUS
370
    50
100
AcDbLine
 10
36.699999464
 20
45.000001788
 30
0.0
 11
16.125041991
 21
45.000001788
 31
0.0
  0
ARC
  5
67
330
1D
100
AcDbEntity
  8
1
  6
CONTINUOUS
370
    50
100
AcDbCircle
 10
26.468662135
 20
51.979084575
 30
0.0
 40
14.979089345
100
AcDbArc
 50
208.070746777
 51
270.047958016
  0
LINE
  5
68
330
1D
100
AcDbEntity
  8
1
  6
CONTINUOUS
370
    50
100
AcDbLine
 10
26.48120001
 20
37.000000477
 30
0.0
 11
37.000000817
 21
36.999999894
 31
0.0
  0
LINE
  5
69
330
1D
100
AcDbEntity
  8
1
  6
CONTINUOUS
370
    50
100
AcDbLine
 10
16.125041992
 20
-45.000001788
 30
0.0
 11
1.500000013
 21
-45.000001788
 31
0.0
  0
LINE
  5
6A
330
1D
100
AcDbEntity
  8
1
  6
CONTINUOUS
370
    50
100
AcDbLine
 10
1.500000013
 20
-45.000001788
 30
0.0
 11
0.500000024
 21
-43.999999762
 31
0.0
  0
LINE
  5
6B
330
1D
100
AcDbEntity
  8
1
  6
CONTINUOUS
370
    50
100
AcDbLine
 10
0.500000024
 20
-43.999999762
 30
0.0
 11
0.500000024
 21
-26.664583012
 31
0.0
  0
LINE
  5
6C
330
1D
100
AcDbEntity
  8
1
  6
CONTINUOUS
370
    50
100
AcDbLine
 10
0.500000024
 20
-26.664583012
 30
0.0
 11
1.500000013
 21
-27.0000007
 31
0.0
  0
LINE
  5
6D
330
1D
100
AcDbEntity
  8
1
  6
CONTINUOUS
370
    50
100
AcDbLine
 10
1.500000013
 20
-27.0000007
 30
0.0
 11
37.000000817
 21
-27.0000007
 31
0.0
  0
LINE
  5
6E
330
1D
100
AcDbEntity
  8
1
  6
CONTINUOUS
370
    50
100
AcDbLine
 10
16.125041992
 20
-45.000001788
 30
0.0
 11
36.705308715
 21
-44.994682054
 31
0.0
  0
LINE
  5
6F
330
1D
100
AcDbEntity
  8
1
  6
CONTINUOUS
370
    50
100
AcDbLine
 10
37.000000817
 20
27.0000007
 30
0.0
 11
1.500000013
 21
27.0000007
 31
0.0
  0
LINE
  5
70
330
1D
100
AcDbEntity
  8
1
  6
CONTINUOUS
370
    50
100
AcDbLine
 10
1.500000013
 20
27.0000007
 30
0.0
 11
1.500000013
 21
-27.0000007
 31
0.0
  0
LINE
  5
71
330
1D
100
AcDbEntity
  8
1
  6
CONTINUOUS
370
    50
100
AcDbLine
 10
1.500000013
 20
-27.0000007
 30
0.0
 11
1.500000013
 21
-45.000001788
 31
0.0
  0
LINE
  5
72
330
1D
100
AcDbEntity
  8
1
  6
CONTINUOUS
370
    50
100
AcDbLine
 10
36.705308715
 20
-44.994682054
 30
0.0
 11
37.000000817
 21
-44.699408114
 31
0.0
  0
LINE
  5
73
330
1D
100
AcDbEntity
  8
1
  6
CONTINUOUS
370
    50
100
AcDbLine
 10
0.500000024
 20
26.664583012
 30
0.0
 11
0.500000024
 21
43.999999762
 31
0.0
  0
LINE
  5
74
330
1D
100
AcDbEntity
  8
1
  6
CONTINUOUS
370
    50
100
AcDbLine
 10
0.500000024
 20
43.999999762
 30
0.0
 11
1.500000013
 21
45.000001788
 31
0.0
  0
LINE
  5
75
330
1D
100
AcDbEntity
  8
1
  6
CONTINUOUS
370
    50
100
AcDbLine
 10
1.500000013
 20
45.000001788
 30
0.0
 11
16.125042265
 21
45.0
 31
0.0
  0
LINE
  5
76
330
1D
100
AcDbEntity
  8
1
  6
CONTINUOUS
370
    50
100
AcDbLine
 10
0.500000024
 20
-26.664583012
 30
0.0
 11
0.500000024
 21
26.664583012
 31
0.0
  0
LINE
  5
77
330
1D
100
AcDbEntity
  8
1
  6
CONTINUOUS
370
    50
100
AcDbLine
 10
0.500000024
 20
26.664583012
 30
0.0
 11
1.500000013
 21
27.0000007
 31
0.0
  0
LINE
  5
78
330
1D
100
AcDbEntity
  8
1
  6
CONTINUOUS
370
    50
100
AcDbLine
 10
1.500000013
 20
27.0000007
 30
0.0
 11
1.500000013
 21
45.000001788
 31
0.0
  0
LINE
  5
79
330
1D
100
AcDbEntity
  8
1
  6
CONTINUOUS
370
    50
100
AcDbLine
 10
0.500000024
 20
31.750001013
 30
0.0
 11
0.0
 21
31.25
 31
0.0
  0
LINE
  5
7A
330
1D
100
AcDbEntity
  8
1
  6
CONTINUOUS
370
    50
100
AcDbLine
 10
0.0
 20
31.25
 30
0.0
 11
0.0
 21
0.0
 31
0.0
  0
LINE
  5
7B
330
1D
100
AcDbEntity
  8
1
  6
CONTINUOUS
370
    50
100
AcDbLine
 10
0.0
 20
0.0
 30
0.0
 11
0.0
 21
-31.25
 31
0.0
  0
LINE
  5
7C
330
1D
100
AcDbEntity
  8
1
  6
CONTINUOUS
370
    50
100
AcDbLine
 10
0.0
 20
-31.25
 30
0.0
 11
0.500000024
 21
-31.750001013
 31
0.0
  0
LINE
  5
7D
330
1D
100
AcDbEntity
  8
SK3
  6
DASH
370
    35
100
AcDbLine
 10
1.000000048
 20
8.00002248
 30
0.0
 11
1.000000048
 21
-8.049931377
 31
0.0
  0
LINE
  5
7E
330
1D
100
AcDbEntity
  8
SK3
  6
DASH
370
    35
100
AcDbLine
 10
1.018800656
 20
7.99834542
 30
0.0
 11
3.929960557
 21
0.0
 31
0.0
  0
LINE
  5
7F
330
1D
100
AcDbEntity
  8
SK3
  6
DASH
370
    35
100
AcDbLine
 10
3.929960557
 20
0.0
 30
0.0
 11
1.018800656
 21
-7.99834542
 31
0.0
  0
LINE
  5
80
330
1D
100
AcDbEntity
  8
SK3
  6
DASH
370
    35
100
AcDbLine
 10
13.753248379
 20
26.946542785
 30
0.0
 11
32.661051576
 21
37.000000128
 31
0.0
  0
LINE
  5
81
330
1D
100
AcDbEntity
  8
SK3
  6
DASH
370
    35
100
AcDbLine
 10
15.696571725
 20
41.570665587
 30
0.0
 11
8.119589649
 21
37.541914731
 31
0.0
  0
LINE
  5
82
330
1D
100
AcDbEntity
  8
SK3
  6
DASH
370
    35
100
AcDbLine
 10
9.559509173
 20
30.72260172
 30
0.0
 11
-3.891011002
 21
7.927552797
 31
0.0
  0
LINE
  5
83
330
1D
100
AcDbEntity
  8
SK3
  6
DASH
370
    35
100
AcDbLine
 10
1.376465741
 20
7.015668757
 30
0.0
 11
13.35077462
 21
27.308931707
 31
0.0
  0
LINE
  5
84
330
1D
100
AcDbEntity
  8
SK3
  6
DASH
370
    35
100
AcDbLine
 10
9.008219466
 20
31.218985096
 30
0.0
 11
13.753248379
 21
26.946542785
 31
0.0
  0
LINE
  5
85
330
1D
100
AcDbEntity
  8
SK1
  6
CONTINUOUS
370
    50
100
AcDbLine
 10
7.822908113
 20
30.588745783
 30
0.0
 11
22.174620986
 21
38.219686247
 31
0.0
  0
LINE
  5
86
330
1D
100
AcDbEntity
  8
SK1
  6
CONTINUOUS
370
    50
100
AcDbLine
 10
12.237092298
 20
30.340964132
 30
0.0
 11
-1.750111503
 21
6.636380632
 31
0.0
  0
LINE
  5
87
330
1D
100
AcDbEntity
  8
2
  6
CONTINUOUS
370
    25
100
AcDbLine
 10
0.0
 20
-55.918376923
 30
0.0
 11
0.0
 21
-31.25
 31
0.0
  0
LINE
  5
88
330
1D
100
AcDbEntity
  8
2
  6
CONTINUOUS
370
    25
100
AcDbLine
 10
0.0
 20
-53.918376923
 30
0.0
 11
3.499999995
 21
-53.468376883
 31
0.0
  0
LINE
  5
89
330
1D
100
AcDbEntity
  8
2
  6
CONTINUOUS
370
    25
100
AcDbLine
 10
3.499999995
 20
-53.468376883
 30
0.0
 11
3.500000005
 21
-54.368376883
 31
0.0
  0
LINE
  5
8A
330
1D
100
AcDbEntity
  8
2
  6
CONTINUOUS
370
    25
100
AcDbLine
 10
3.500000005
 20
-54.368376883
 30
0.0
 11
0.0
 21
-53.918376923
 31
0.0
  0
LINE
  5
8B
330
1D
100
AcDbEntity
  8
2
  6
CONTINUOUS
370
    25
100
AcDbLine
 10
37.000000817
 20
-55.918376505
 30
0.0
 11
37.000000817
 21
-44.699408114
 31
0.0
  0
LINE
  5
8C
330
1D
100
AcDbEntity
  8
2
  6
CONTINUOUS
370
    25
100
AcDbLine
 10
37.000000817
 20
-53.918376505
 30
0.0
 11
33.500000822
 21
-54.368376545
 31
0.0
  0
LINE
  5
8D
330
1D
100
AcDbEntity
  8
2
  6
CONTINUOUS
370
    25
100
AcDbLine
 10
33.500000822
 20
-54.368376545
 30
0.0
 11
33.500000812
 21
-53.468376545
 31
0.0
  0
LINE
  5
8E
330
1D
100
AcDbEntity
  8
2
  6
CONTINUOUS
370
    25
100
AcDbLine
 10
33.500000812
 20
-53.468376545
 30
0.0
 11
37.000000817
 21
-53.918376505
 31
0.0
  0
LINE
  5
8F
330
1D
100
AcDbEntity
  8
2
  6
CONTINUOUS
370
    25
100
AcDbLine
 10
3.5
 20
-53.918376883
 30
0.0
 11
33.500000817
 21
-53.918376545
 31
0.0
  0
TEXT
  5
90
330
1D
100
AcDbEntity
  8
2
  6
CONTINUOUS
370
    25
100
AcDbText
 10
17.026718728
 20
-52.418376731
 30
0.0
 40
3.5
  1
37
 50
0.000000646
  7
BMG_Text
100
AcDbText
  0
LINE
  5
91
330
1D
100
AcDbEntity
  8
2
  6
CONTINUOUS
370
    25
100
AcDbLine
 10
-68.134056078
 20
-45.000001788
 30
0.0
 11
1.500000013
 21
-45.000001788
 31
0.0
  0
LINE
  5
92
330
1D
100
AcDbEntity
  8
2
  6
CONTINUOUS
370
    25
100
AcDbLine
 10
-66.134056078
 20
-45.000001788
 30
0.0
 11
-66.584056078
 21
-41.500001788
 31
0.0
  0
LINE
  5
93
330
1D
100
AcDbEntity
  8
2
  6
CONTINUOUS
370
    25
100
AcDbLine
 10
-66.584056078
 20
-41.500001788
 30
0.0
 11
-65.684056078
 21
-41.500001788
 31
0.0
  0
LINE
  5
94
330
1D
100
AcDbEntity
  8
2
  6
CONTINUOUS
370
    25
100
AcDbLine
 10
-65.684056078
 20
-41.500001788
 30
0.0
 11
-66.134056078
 21
-45.000001788
 31
0.0
  0
LINE
  5
95
330
1D
100
AcDbEntity
  8
2
  6
CONTINUOUS
370
    25
100
AcDbLine
 10
-68.134056078
 20
45.000001788
 30
0.0
 11
1.500000013
 21
45.000001788
 31
0.0
  0
LINE
  5
96
330
1D
100
AcDbEntity
  8
2
  6
CONTINUOUS
370
    25
100
AcDbLine
 10
-66.134056078
 20
45.000001788
 30
0.0
 11
-65.684056078
 21
41.500001788
 31
0.0
  0
LINE
  5
97
330
1D
100
AcDbEntity
  8
2
  6
CONTINUOUS
370
    25
100
AcDbLine
 10
-65.684056078
 20
41.500001788
 30
0.0
 11
-66.584056078
 21
41.500001788
 31
0.0
  0
LINE
  5
98
330
1D
100
AcDbEntity
  8
2
  6
CONTINUOUS
370
    25
100
AcDbLine
 10
-66.584056078
 20
41.500001788
 30
0.0
 11
-66.134056078
 21
45.000001788
 31
0.0
  0
LINE
  5
99
330
1D
100
AcDbEntity
  8
2
  6
CONTINUOUS
370
    25
100
AcDbLine
 10
-66.134056078
 20
-41.500001788
 30
0.0
 11
-66.134056078
 21
41.500001788
 31
0.0
  0
TEXT
  5
9A
330
1D
100
AcDbEntity
  8
2
  6
CONTINUOUS
370
    25
100
AcDbText
 10
-67.634056078
 20
0.139998994
 30
0.0
 40
3.5
  1
90
 50
90.0
  7
BMG_Text
100
AcDbText
  0
CIRCLE
  5
9B
330
1D
100
AcDbEntity
  8
2
  6
CONTINUOUS
370
    25
100
AcDbCircle
 10
-68.884056078
 20
-2.110001006
 30
0.0
 40
1.25
  0
LINE
  5
9C
330
1D
100
AcDbEntity
  8
2
  6
CONTINUOUS
370
    25
100
AcDbLine
 10
-67.634056078
 20
-3.360001006
 30
0.0
 11
-70.134056078
 21
-0.860001006
 31
0.0
  0
LINE
  5
9D
330
1D
100
AcDbEntity
  8
2
  6
CONTINUOUS
370
    25
100
AcDbLine
 10
-58.0897331
 20
-31.750001013
 30
0.0
 11
0.500000024
 21
-31.750001013
 31
0.0
  0
LINE
  5
9E
330
1D
100
AcDbEntity
  8
2
  6
CONTINUOUS
370
    25
100
AcDbLine
 10
-56.0897331
 20
-31.750001013
 30
0.0
 11
-56.5397331
 21
-28.250001013
 31
0.0
  0
LINE
  5
9F
330
1D
100
AcDbEntity
  8
2
  6
CONTINUOUS
370
    25
100
AcDbLine
 10
-56.5397331
 20
-28.250001013
 30
0.0
 11
-55.6397331
 21
-28.250001013
 31
0.0
  0
LINE
  5
A0
330
1D
100
AcDbEntity
  8
2
  6
CONTINUOUS
370
    25
100
AcDbLine
 10
-55.6397331
 20
-28.250001013
 30
0.0
 11
-56.0897331
 21
-31.750001013
 31
0.0
  0
LINE
  5
A1
330
1D
100
AcDbEntity
  8
2
  6
CONTINUOUS
370
    25
100
AcDbLine
 10
-58.0897331
 20
31.750001013
 30
0.0
 11
0.500000024
 21
31.750001013
 31
0.0
  0
LINE
  5
A2
330
1D
100
AcDbEntity
  8
2
  6
CONTINUOUS
370
    25
100
AcDbLine
 10
-56.0897331
 20
31.750001013
 30
0.0
 11
-55.6397331
 21
28.250001013
 31
0.0
  0
LINE
  5
A3
330
1D
100
AcDbEntity
  8
2
  6
CONTINUOUS
370
    25
100
AcDbLine
 10
-55.6397331
 20
28.250001013
 30
0.0
 11
-56.5397331
 21
28.250001013
 31
0.0
  0
LINE
  5
A4
330
1D
100
AcDbEntity
  8
2
  6
CONTINUOUS
370
    25
100
AcDbLine
 10
-56.5397331
 20
28.250001013
 30
0.0
 11
-56.0897331
 21
31.750001013
 31
0.0
  0
LINE
  5
A5
330
1D
100
AcDbEntity
  8
2
  6
CONTINUOUS
370
    25
100
AcDbLine
 10
-56.0897331
 20
-28.250001013
 30
0.0
 11
-56.0897331
 21
28.250001013
 31
0.0
  0
TEXT
  5
A6
330
1D
100
AcDbEntity
  8
2
  6
CONTINUOUS
370
    25
100
AcDbText
 10
-57.5897331
 20
-1.17250071
 30
0.0
 40
3.5
  1
63.5
 50
90.0
  7
BMG_Text
100
AcDbText
  0
CIRCLE
  5
A7
330
1D
100
AcDbEntity
  8
2
  6
CONTINUOUS
370
    25
100
AcDbCircle
 10
-58.8397331
 20
-3.42250071
 30
0.0
 40
1.25
  0
LINE
  5
A8
330
1D
100
AcDbEntity
  8
2
  6
CONTINUOUS
370
    25
100
AcDbLine
 10
-57.5897331
 20
-4.67250071
 30
0.0
 11
-60.0897331
 21
-2.17250071
 31
0.0
  0
LINE
  5
A9
330
1D
100
AcDbEntity
  8
2
  6
CONTINUOUS
370
    25
100
AcDbLine
 10
0.0
 20
58.909854889
 30
0.0
 11
0.0
 21
31.25
 31
0.0
  0
LINE
  5
AA
330
1D
100
AcDbEntity
  8
2
  6
CONTINUOUS
370
    25
100
AcDbLine
 10
0.0
 20
56.909854889
 30
0.0
 11
3.499999999
 21
57.359854898
 31
0.0
  0
LINE
  5
AB
330
1D
100
AcDbEntity
  8
2
  6
CONTINUOUS
370
    25
100
AcDbLine
 10
3.499999999
 20
57.359854898
 30
0.0
 11
3.500000001
 21
56.459854898
 31
0.0
  0
LINE
  5
AC
330
1D
100
AcDbEntity
  8
2
  6
CONTINUOUS
370
    25
100
AcDbLine
 10
3.500000001
 20
56.459854898
 30
0.0
 11
0.0
 21
56.909854889
 31
0.0
  0
LINE
  5
AD
330
1D
100
AcDbEntity
  8
2
  6
CONTINUOUS
370
    25
100
AcDbLine
 10
71.0
 20
58.909855079
 30
0.0
 11
71.0
 21
48.199999999
 31
0.0
  0
LINE
  5
AE
330
1D
100
AcDbEntity
  8
2
  6
CONTINUOUS
370
    25
100
AcDbLine
 10
71.0
 20
56.909855079
 30
0.0
 11
67.500000001
 21
56.459855069
 31
0.0
  0
LINE
  5
AF
330
1D
100
AcDbEntity
  8
2
  6
CONTINUOUS
370
    25
100
AcDbLine
 10
67.500000001
 20
56.459855069
 30
0.0
 11
67.499999999
 21
57.359855069
 31
0.0
  0
LINE
  5
B0
330
1D
100
AcDbEntity
  8
2
  6
CONTINUOUS
370
    25
100
AcDbLine
 10
67.499999999
 20
57.359855069
 30
0.0
 11
71.0
 21
56.909855079
 31
0.0
  0
LINE
  5
B1
330
1D
100
AcDbEntity
  8
2
  6
CONTINUOUS
370
    25
100
AcDbLine
 10
3.5
 20
56.909854898
 30
0.0
 11
67.5
 21
56.909855069
 31
0.0
  0
TEXT
  5
B2
330
1D
100
AcDbEntity
  8
2
  6
CONTINUOUS
370
    25
100
AcDbText
 10
34.218124203
 20
58.40985498
 30
0.0
 40
3.5
  1
71
 50
0.000000153
  7
BMG_Text
100
AcDbText
  0
CIRCLE
  5
B3
330
1D
100
AcDbEntity
  8
SK1
  6
CONTINUOUS
370
    50
100
AcDbCircle
 10
-15.5
 20
0.0
 30
0.0
 40
4.860346304
  0
LINE
  5
B4
330
1D
100
AcDbEntity
  8
SK1
  6
CONTINUOUS
370
    50
100
AcDbLine
 10
-13.430801392
 20
-21.5
 30
0.0
 11
-4.569198609
 21
-21.5
 31
0.0
  0
LINE
  5
B5
330
1D
100
AcDbEntity
  8
SK1
  6
CONTINUOUS
370
    50
100
AcDbLine
 10
-13.430801392
 20
21.5
 30
0.0
 11
-4.569198609
 21
21.5
 31
0.0
  0
LINE
  5
B6
330
1D
100
AcDbEntity
  8
SK1
  6
CONTINUOUS
370
    50
100
AcDbLine
 10
-15.866012574
 20
-18.282051086
 30
0.0
 11
-14.296813965
 21
-21.0
 31
0.0
  0
LINE
  5
B7
330
1D
100
AcDbEntity
  8
SK1
  6
CONTINUOUS
370
    50
100
AcDbLine
 10
-2.133972168
 20
-18.282066345
 30
0.0
 11
-3.703186035
 21
-20.999992371
 31
0.0
  0
LINE
  5
B8
330
1D
100
AcDbEntity
  8
SK1
  6
CONTINUOUS
370
    50
100
AcDbLine
 10
-15.866027832
 20
18.282066345
 30
0.0
 11
-14.296813965
 21
21.0
 31
0.0
  0
LINE
  5
B9
330
1D
100
AcDbEntity
  8
SK1
  6
CONTINUOUS
370
    50
100
AcDbLine
 10
-2.133987427
 20
18.282066345
 30
0.0
 11
-3.703170777
 21
21.0
 31
0.0
  0
ARC
  5
BA
330
1D
100
AcDbEntity
  8
SK1
  6
CONTINUOUS
370
    50
100
AcDbCircle
 10
-15.0
 20
-17.782043457
 30
0.0
 40
1.0
100
AcDbArc
 50
192.589039226
 51
210.000746548
  0
ARC
  5
BB
330
1D
100
AcDbEntity
  8
SK1
  6
CONTINUOUS
370
    50
100
AcDbCircle
 10
-13.430801392
 20
-20.5
 30
0.0
 40
0.999988854
100
AcDbArc
 50
210.000366211
 51
269.999997854
  0
ARC
  5
BC
330
1D
100
AcDbEntity
  8
SK1
  6
CONTINUOUS
370
    50
100
AcDbCircle
 10
-4.569198609
 20
-20.5
 30
0.0
 40
1.0
100
AcDbArc
 50
270.0
 51
330.000001788
  0
ARC
  5
BD
330
1D
100
AcDbEntity
  8
SK1
  6
CONTINUOUS
370
    50
100
AcDbCircle
 10
-3.0
 20
-17.782058716
 30
0.0
 40
1.000005841
100
AcDbArc
 50
329.999694824
 51
347.41193131
  0
ARC
  5
BE
330
1D
100
AcDbEntity
  8
SK1
  6
CONTINUOUS
370
    50
100
AcDbCircle
 10
-15.0
 20
17.782066345
 30
0.0
 40
1.0
100
AcDbArc
 50
150.000068843
 51
167.412304472
  0
ARC
  5
BF
330
1D
100
AcDbEntity
  8
SK1
  6
CONTINUOUS
370
    50
100
AcDbCircle
 10
-13.430801392
 20
20.5
 30
0.0
 40
0.999988854
100
AcDbArc
 50
90.000002146
 51
149.999633789
  0
ARC
  5
C0
330
1D
100
AcDbEntity
  8
SK1
  6
CONTINUOUS
370
    50
100
AcDbCircle
 10
-4.569198609
 20
20.5
 30
0.0
 40
1.0
100
AcDbArc
 50
29.99993920299999
 51
90.0
  0
ARC
  5
C1
330
1D
100
AcDbEntity
  8
SK1
  6
CONTINUOUS
370
    50
100
AcDbCircle
 10
-3.0
 20
17.782058716
 30
0.0
 40
0.999992669
100
AcDbArc
 50
12.58823723
 51
30.000732422
  0
LINE
  5
C2
330
1D
100
AcDbEntity
  8
SK1
  6
CONTINUOUS
370
    50
100
AcDbLine
 10
-9.0
 20
22.339381391
 30
0.0
 11
-9.0
 21
17.109295048
 31
0.0
  0
LINE
  5
C3
330
1D
100
AcDbEntity
  8
SK1
  6
CONTINUOUS
370
    50
100
AcDbLine
 10
-9.0
 20
-22.339381391
 30
0.0
 11
-9.0
 21
-17.109295048
 31
0.0
  0
ARC
  5
C4
330
1D
100
AcDbEntity
  8
CUT
  6
CONTINUOUS
370
    25
100
AcDbCircle
 10
75.102698922
 20
-38.002611003
 30
0.0
 40
80.735831416
100
AcDbArc
 50
118.202290013
 51
120.846272818
  0
ARC
  5
C5
330
1D
100
AcDbEntity
  8
CUT
  6
CONTINUOUS
370
    25
100
AcDbCircle
 10
36.763282054
 20
33.535987139
 30
0.0
 40
0.429177981
100
AcDbArc
 50
295.5043550589999
 51
64.49564494099998
  0
ARC
  5
C6
330
1D
100
AcDbEntity
  8
CUT
  6
CONTINUOUS
370
    25
100
AcDbCircle
 10
0.293453501
 20
-38.002611003
 30
0.0
 40
80.727345779
100
AcDbArc
 50
62.995877974
 51
65.783307686
  0
ARC
  5
C7
330
1D
100
AcDbEntity
  8
CUT
  6
CONTINUOUS
370
    25
100
AcDbCircle
 10
72.079510132
 20
-55.759747314
 30
0.0
 40
99.929647607
100
AcDbArc
 50
111.052120891
 51
112.538187133
  0
ARC
  5
C8
330
1D
100
AcDbEntity
  8
CUT
  6
CONTINUOUS
370
    25
100
AcDbCircle
 10
64.710394077
 20
-38.002611003
 30
0.0
 40
80.706605093
100
AcDbArc
 50
112.538187133
 51
112.596325357
  0
LINE
  5
C9
330
1D
100
AcDbEntity
  8
CUT
  6
CONTINUOUS
370
    25
100
AcDbLine
 10
53.300000727
 20
37.50000149
 30
0.0
 11
36.183074117
 21
37.50000149
 31
0.0
  0
LINE
  5
CA
330
1D
100
AcDbEntity
  8
CUT
  6
CONTINUOUS
370
    25
100
AcDbLine
 10
54.299999028
 20
36.499999464
 30
0.0
 11
53.792942315
 21
37.007056177
 31
0.0
  0
LINE
  5
CB
330
1D
100
AcDbEntity
  8
CUT
  6
CONTINUOUS
370
    25
100
AcDbLine
 10
53.792942315
 20
37.007056177
 30
0.0
 11
53.300000727
 21
37.50000149
 31
0.0
  0
LINE
  5
CC
330
1D
100
AcDbEntity
  8
CUT
  6
CONTINUOUS
370
    25
100
AcDbLine
 10
54.299999028
 20
27.0000007
 30
0.0
 11
54.299999028
 21
36.499999464
 31
0.0
  0
LINE
  5
CD
330
1D
100
AcDbEntity
  8
CUT
  6
CONTINUOUS
370
    25
100
AcDbLine
 10
54.299999028
 20
27.0000007
 30
0.0
 11
37.198077887
 21
27.0000007
 31
0.0
  0
ARC
  5
CE
330
1D
100
AcDbEntity
  8
CUT
  6
CONTINUOUS
370
    25
100
AcDbCircle
 10
36.525984087
 20
27.043114774
 30
0.0
 40
0.67347524
100
AcDbArc
 50
356.3295683220001
 51
51.190050096
  0
ARC
  5
CF
330
1D
100
AcDbEntity
  8
CUT
  6
CONTINUOUS
370
    25
100
AcDbCircle
 10
9.649852208
 20
-10.310404078
 30
0.0
 40
46.690035034
100
AcDbArc
 50
54.220378214
 51
54.50520341899999
  0
ARC
  5
D0
330
1D
100
AcDbEntity
  8
CUT
  6
CONTINUOUS
370
    25
100
AcDbCircle
 10
-10.098851345
 20
-38.002611003
 30
0.0
 40
80.706605093
100
AcDbArc
 50
54.505296738
 51
57.403999568
  0
ARC
  5
D1
330
1D
100
AcDbEntity
  8
CUT
  6
CONTINUOUS
370
    25
100
AcDbCircle
 10
36.481963043
 20
-27.023736054
 30
0.0
 40
0.716508086
100
AcDbArc
 50
310.5820297139999
 51
1.898351868
  0
LINE
  5
D2
330
1D
100
AcDbEntity
  8
CUT
  6
CONTINUOUS
370
    25
100
AcDbLine
 10
37.198077887
 20
27.0000007
 30
0.0
 11
37.198077887
 21
-27.0000007
 31
0.0
  0
ARC
  5
D3
330
1D
100
AcDbEntity
  8
CUT
  6
CONTINUOUS
370
    25
100
AcDbCircle
 10
6.521161675
 20
86.557548812
 30
0.0
 40
131.570814858
100
AcDbArc
 50
281.921534352
 51
283.136063108
  0
ARC
  5
D4
330
1D
100
AcDbEntity
  8
CUT
  6
CONTINUOUS
370
    25
100
AcDbCircle
 10
13.708947136
 20
55.759747314
 30
0.0
 40
99.932102782
100
AcDbArc
 50
283.135797857
 51
283.447627668
  0
LINE
  5
D5
330
1D
100
AcDbEntity
  8
CUT
  6
CONTINUOUS
370
    25
100
AcDbLine
 10
36.948077381
 20
-41.429471224
 30
0.0
 11
37.077985704
 21
-41.383530945
 31
0.0
  0
LINE
  5
D6
330
1D
100
AcDbEntity
  8
CUT
  6
CONTINUOUS
370
    25
100
AcDbLine
 10
37.077985704
 20
-41.383530945
 30
0.0
 11
37.16269508
 21
-41.323319077
 31
0.0
  0
LINE
  5
D7
330
1D
100
AcDbEntity
  8
CUT
  6
CONTINUOUS
370
    25
100
AcDbLine
 10
37.16269508
 20
-41.323319077
 30
0.0
 11
37.197768688
 21
-41.250806302
 31
0.0
  0
LINE
  5
D8
330
1D
100
AcDbEntity
  8
CUT
  6
CONTINUOUS
370
    25
100
AcDbLine
 10
37.197768688
 20
-41.250806302
 30
0.0
 11
37.171434611
 21
-41.172523051
 31
0.0
  0
LINE
  5
D9
330
1D
100
AcDbEntity
  8
CUT
  6
CONTINUOUS
370
    25
100
AcDbLine
 10
37.171434611
 20
-41.172523051
 30
0.0
 11
37.080045789
 21
-41.100859642
 31
0.0
  0
LINE
  5
DA
330
1D
100
AcDbEntity
  8
CUT
  6
CONTINUOUS
370
    25
100
AcDbLine
 10
37.080045789
 20
-41.100859642
 30
0.0
 11
36.948077381
 21
-41.051480919
 31
0.0
  0
ARC
  5
DB
330
1D
100
AcDbEntity
  8
CUT
  6
CONTINUOUS
370
    25
100
AcDbCircle
 10
61.687205287
 20
55.759747314
 30
0.0
 40
99.916360361
100
AcDbArc
 50
253.733448918
 51
255.665407909
  0
ARC
  5
DC
330
1D
100
AcDbEntity
  8
CUT
  6
CONTINUOUS
370
    25
100
AcDbCircle
 10
3.31664229
 20
55.759747314
 30
0.0
 40
99.918068416
100
AcDbArc
 50
287.7029864759999
 51
289.667891257
  0
LINE
  5
DD
330
1D
100
AcDbEntity
  8
CUT
  6
CONTINUOUS
370
    25
100
AcDbLine
 10
36.948077381
 20
-38.335323334
 30
0.0
 11
37.078712136
 21
-38.26822713
 31
0.0
  0
LINE
  5
DE
330
1D
100
AcDbEntity
  8
CUT
  6
CONTINUOUS
370
    25
100
AcDbLine
 10
37.078712136
 20
-38.26822713
 30
0.0
 11
37.161894143
 21
-38.182836026
 31
0.0
  0
LINE
  5
DF
330
1D
100
AcDbEntity
  8
CUT
  6
CONTINUOUS
370
    25
100
AcDbLine
 10
37.161894143
 20
-38.182836026
 30
0.0
 11
37.197839469
 21
-38.075447082
 31
0.0
  0
LINE
  5
E0
330
1D
100
AcDbEntity
  8
CUT
  6
CONTINUOUS
370
    25
100
AcDbLine
 10
37.197839469
 20
-38.075447082
 30
0.0
 11
37.166278809
 21
-37.95453906
 31
0.0
  0
LINE
  5
E1
330
1D
100
AcDbEntity
  8
CUT
  6
CONTINUOUS
370
    25
100
AcDbLine
 10
37.166278809
 20
-37.95453906
 30
0.0
 11
37.05701232
 21
-37.844028324
 31
0.0
  0
LINE
  5
E2
330
1D
100
AcDbEntity
  8
CUT
  6
CONTINUOUS
370
    25
100
AcDbLine
 10
37.05701232
 20
-37.844028324
 30
0.0
 11
36.948077381
 21
-37.78925538
 31
0.0
  0
ARC
  5
E3
330
1D
100
AcDbEntity
  8
CUT
  6
CONTINUOUS
370
    25
100
AcDbCircle
 10
64.710394077
 20
38.002611003
 30
0.0
 40
80.706610068
100
AcDbArc
 50
247.403674643
 51
247.461812867
  0
ARC
  5
E4
330
1D
100
AcDbEntity
  8
CUT
  6
CONTINUOUS
370
    25
100
AcDbCircle
 10
72.079510132
 20
55.759747314
 30
0.0
 40
99.932102782
100
AcDbArc
 50
247.461812867
 51
249.416812296
  0
ARC
  5
E5
330
1D
100
AcDbEntity
  8
CUT
  6
CONTINUOUS
370
    25
100
AcDbCircle
 10
0.293453501
 20
38.002611003
 30
0.0
 40
80.710325315
100
AcDbArc
 50
294.216692314
 51
297.004122026
  0
ARC
  5
E6
330
1D
100
AcDbEntity
  8
CUT
  6
CONTINUOUS
370
    25
100
AcDbCircle
 10
36.762937572
 20
-33.535987139
 30
0.0
 40
0.429326421
100
AcDbArc
 50
295.5458479050001
 51
64.454152095
  0
ARC
  5
E7
330
1D
100
AcDbEntity
  8
CUT
  6
CONTINUOUS
370
    25
100
AcDbCircle
 10
75.102698922
 20
38.002611003
 30
0.0
 40
80.748506479
100
AcDbArc
 50
239.153727182
 51
241.797709987
  0
ARC
  5
E8
330
1D
100
AcDbEntity
  8
CUT
  6
CONTINUOUS
370
    25
100
AcDbCircle
 10
-10.098851345
 20
38.002611003
 30
0.0
 40
80.746063815
100
AcDbArc
 50
302.5960004319999
 51
305.494703262
  0
ARC
  5
E9
330
1D
100
AcDbEntity
  8
CUT
  6
CONTINUOUS
370
    25
100
AcDbCircle
 10
9.649852208
 20
10.310404078
 30
0.0
 40
46.69381902
100
AcDbArc
 50
305.4947965810001
 51
305.779621786
  0
LINE
  5
EA
330
1D
100
AcDbEntity
  8
CUT
  6
CONTINUOUS
370
    25
100
AcDbLine
 10
37.198077887
 20
-27.0000007
 30
0.0
 11
50.906904042
 21
-27.0000007
 31
0.0
  0
LINE
  5
EB
330
1D
100
AcDbEntity
  8
CUT
  6
CONTINUOUS
370
    25
100
AcDbLine
 10
50.906904042
 20
-27.0000007
 30
0.0
 11
50.906904042
 21
-44.999554753
 31
0.0
  0
LINE
  5
EC
330
1D
100
AcDbEntity
  8
CUT
  6
CONTINUOUS
370
    25
100
AcDbLine
 10
50.906904042
 20
-44.999554753
 30
0.0
 11
37.156332284
 21
-44.999554753
 31
0.0
  0
ARC
  5
ED
330
1D
100
AcDbEntity
  8
CUT
  6
CONTINUOUS
370
    25
100
AcDbCircle
 10
36.695820711
 20
-90.278147808
 30
0.0
 40
45.280934839
100
AcDbArc
 50
89.41728622600002
 51
89.680807886
  0
ARC
  5
EE
330
1D
100
AcDbEntity
  8
CUT
  6
CONTINUOUS
370
    25
100
AcDbCircle
 10
37.698076211
 20
86.557548812
 30
0.0
 40
131.559072287
100
AcDbArc
 50
268.258514872
 51
269.673359302
  0
ARC
  5
EF
330
1D
100
AcDbEntity
  8
CUT
  6
CONTINUOUS
370
    25
100
AcDbCircle
 10
27.305771366
 20
86.557548812
 30
0.0
 40
131.561343011
100
AcDbArc
 50
272.785823685
 51
274.202913096
  0
LINE
  5
F0
330
1D
100
AcDbEntity
  8
CUT
  6
CONTINUOUS
370
    25
100
AcDbLine
 10
36.948077381
 20
-44.654324651
 30
0.0
 11
37.077344954
 21
-44.640827924
 31
0.0
  0
LINE
  5
F1
330
1D
100
AcDbEntity
  8
CUT
  6
CONTINUOUS
370
    25
100
AcDbLine
 10
37.077344954
 20
-44.640827924
 30
0.0
 11
37.163641304
 21
-44.622357935
 31
0.0
  0
LINE
  5
F2
330
1D
100
AcDbEntity
  8
CUT
  6
CONTINUOUS
370
    25
100
AcDbLine
 10
37.163641304
 20
-44.622357935
 30
0.0
 11
37.197757512
 21
-44.600602239
 31
0.0
  0
LINE
  5
F3
330
1D
100
AcDbEntity
  8
CUT
  6
CONTINUOUS
370
    25
100
AcDbLine
 10
37.197757512
 20
-44.600602239
 30
0.0
 11
37.175156176
 21
-44.577818364
 31
0.0
  0
LINE
  5
F4
330
1D
100
AcDbEntity
  8
CUT
  6
CONTINUOUS
370
    25
100
AcDbLine
 10
37.175156176
 20
-44.577818364
 30
0.0
 11
37.097681314
 21
-44.556744397
 31
0.0
  0
LINE
  5
F5
330
1D
100
AcDbEntity
  8
CUT
  6
CONTINUOUS
370
    25
100
AcDbLine
 10
37.097681314
 20
-44.556744397
 30
0.0
 11
36.97437793
 21
-44.540159404
 31
0.0
  0
LINE
  5
F6
330
1D
100
AcDbEntity
  8
CUT
  6
CONTINUOUS
370
    25
100
AcDbLine
 10
36.97437793
 20
-44.540159404
 30
0.0
 11
36.948077381
 21
-44.537808746
 31
0.0
  0
ARC
  5
F7
330
1D
100
AcDbEntity
  8
CUT
  6
CONTINUOUS
370
    25
100
AcDbCircle
 10
48.090381057
 20
86.557548812
 30
0.0
 40
131.573241916
100
AcDbArc
 50
263.720905437
 51
265.141884429
  0
ARC
  5
F8
330
1D
100
AcDbEntity
  8
CUT
  6
CONTINUOUS
370
    25
100
AcDbCircle
 10
16.91346652
 20
86.557548812
 30
0.0
 40
131.576703739
100
AcDbArc
 50
277.329762228
 51
278.758042759
  0
LINE
  5
F9
330
1D
100
AcDbEntity
  8
CUT
  6
CONTINUOUS
370
    25
100
AcDbLine
 10
36.948077381
 20
-43.487984687
 30
0.0
 11
37.077561021
 21
-43.459262699
 31
0.0
  0
LINE
  5
FA
330
1D
100
AcDbEntity
  8
CUT
  6
CONTINUOUS
370
    25
100
AcDbLine
 10
37.077561021
 20
-43.459262699
 30
0.0
 11
37.163279951
 21
-43.420787901
 31
0.0
  0
LINE
  5
FB
330
1D
100
AcDbEntity
  8
CUT
  6
CONTINUOUS
370
    25
100
AcDbLine
 10
37.163279951
 20
-43.420787901
 30
0.0
 11
37.197753787
 21
-43.375458568
 31
0.0
  0
LINE
  5
FC
330
1D
100
AcDbEntity
  8
CUT
  6
CONTINUOUS
370
    25
100
AcDbLine
 10
37.197753787
 20
-43.375458568
 30
0.0
 11
37.173978984
 21
-43.327774852
 31
0.0
  0
LINE
  5
FD
330
1D
100
AcDbEntity
  8
CUT
  6
CONTINUOUS
370
    25
100
AcDbLine
 10
37.173978984
 20
-43.327774852
 30
0.0
 11
37.091914564
 21
-43.284084648
 31
0.0
  0
LINE
  5
FE
330
1D
100
AcDbEntity
  8
CUT
  6
CONTINUOUS
370
    25
100
AcDbLine
 10
37.091914564
 20
-43.284084648
 30
0.0
 11
36.948077381
 21
-43.248355389
 31
0.0
  0
ARC
  5
FF
330
1D
100
AcDbEntity
  8
CUT
  6
CONTINUOUS
370
    25
100
AcDbCircle
 10
58.482685902
 20
86.557548812
 30
0.0
 40
131.577200155
100
AcDbArc
 50
259.143438958
 51
260.580504153
  0
LINE
  5
100
330
1D
100
AcDbEntity
  8
CUT
  6
CONTINUOUS
370
    25
100
AcDbLine
 10
58.534707874
 20
-46.13564536
 30
0.0
 11
58.537431061
 21
-46.136129647
 31
0.0
  0
LINE
  5
101
330
1D
100
AcDbEntity
  8
CUT
  6
CONTINUOUS
370
    25
100
AcDbLine
 10
58.537431061
 20
-46.136129647
 30
0.0
 11
69.272793829
 21
-48.037305474
 31
0.0
  0
LINE
  5
102
330
1D
100
AcDbEntity
  8
CUT
  6
CONTINUOUS
370
    25
100
AcDbLine
 10
58.534707874
 20
-46.313796192
 30
0.0
 11
58.534707874
 21
-46.13564536
 31
0.0
  0
ARC
  5
103
330
1D
100
AcDbEntity
  8
CUT
  6
CONTINUOUS
370
    25
100
AcDbCircle
 10
58.44706315
 20
-45.594652591
 30
0.0
 40
0.724567496
100
AcDbArc
 50
263.401632993
 51
270.0
  0
ARC
  5
104
330
1D
100
AcDbEntity
  8
CUT
  6
CONTINUOUS
370
    25
100
AcDbCircle
 10
58.44706315
 20
-45.594652591
 30
0.0
 40
0.725530307
100
AcDbArc
 50
270.0
 51
276.948529268
  0
LINE
  5
105
330
1D
100
AcDbEntity
  8
CUT
  6
CONTINUOUS
370
    25
100
AcDbLine
 10
58.363802731
 20
-46.314422041
 30
0.0
 11
50.906904042
 21
-44.999554753
 31
0.0
  0
LINE
  5
106
330
1D
100
AcDbEntity
  8
CUT
  6
CONTINUOUS
370
    25
100
AcDbLine
 10
50.906904042
 20
-27.0000007
 30
0.0
 11
56.718721986
 21
-28.675431386
 31
0.0
  0
LINE
  5
107
330
1D
100
AcDbEntity
  8
CUT
  6
CONTINUOUS
370
    25
100
AcDbLine
 10
56.718721986
 20
-28.675431386
 30
0.0
 11
65.097473562
 21
-30.991243198
 31
0.0
  0
ARC
  5
108
330
1D
100
AcDbEntity
  8
CUT
  6
CONTINUOUS
370
    25
100
AcDbCircle
 10
109.949709825
 20
0.321231289
 30
0.0
 40
54.700949449
100
AcDbArc
 50
214.919864422
 51
216.73363829
  0
LINE
  5
109
330
1D
100
AcDbEntity
  8
CUT
  6
CONTINUOUS
370
    25
100
AcDbLine
 10
65.097473562
 20
2.050264971
 30
0.0
 11
65.097473562
 21
-30.991243198
 31
0.0
  0
LINE
  5
10A
330
1D
100
AcDbEntity
  8
CUT
  6
CONTINUOUS
370
    25
100
AcDbLine
 10
67.097477615
 20
-1.413836726
 30
0.0
 11
67.097477615
 21
-32.395929098
 31
0.0
  0
LINE
  5
10B
330
1D
100
AcDbEntity
  8
CUT
  6
CONTINUOUS
370
    25
100
AcDbLine
 10
67.097477615
 20
-32.395929098
 30
0.0
 11
67.082151771
 21
-32.592870295
 31
0.0
  0
LINE
  5
10C
330
1D
100
AcDbEntity
  8
CUT
  6
CONTINUOUS
370
    25
100
AcDbLine
 10
67.082151771
 20
-32.592870295
 30
0.0
 11
67.039206624
 21
-32.741419971
 31
0.0
  0
LINE
  5
10D
330
1D
100
AcDbEntity
  8
CUT
  6
CONTINUOUS
370
    25
100
AcDbLine
 10
67.039206624
 20
-32.741419971
 30
0.0
 11
66.982224584
 21
-32.833207399
 31
0.0
  0
LINE
  5
10E
330
1D
100
AcDbEntity
  8
CUT
  6
CONTINUOUS
370
    25
100
AcDbLine
 10
66.982224584
 20
-32.833207399
 30
0.0
 11
66.906422377
 21
-32.892372459
 31
0.0
  0
LINE
  5
10F
330
1D
100
AcDbEntity
  8
CUT
  6
CONTINUOUS
370
    25
100
AcDbLine
 10
66.906422377
 20
-32.892372459
 30
0.0
 11
66.803239286
 21
-32.916247845
 31
0.0
  0
LINE
  5
110
330
1D
100
AcDbEntity
  8
CUT
  6
CONTINUOUS
370
    25
100
AcDbLine
 10
66.803239286
 20
-32.916247845
 30
0.0
 11
66.642917693
 21
-32.879844308
 31
0.0
  0
LINE
  5
111
330
1D
100
AcDbEntity
  8
CUT
  6
CONTINUOUS
370
    25
100
AcDbLine
 10
66.642917693
 20
-32.879844308
 30
0.0
 11
66.365174949
 21
-32.684847712
 31
0.0
  0
LINE
  5
112
330
1D
100
AcDbEntity
  8
CUT
  6
CONTINUOUS
370
    25
100
AcDbLine
 10
66.365174949
 20
-32.684847712
 30
0.0
 11
66.111251712
 21
-32.395001501
 31
0.0
  0
LINE
  5
113
330
1D
100
AcDbEntity
  8
CUT
  6
CONTINUOUS
370
    25
100
AcDbLine
 10
67.097477615
 20
-1.413836726
 30
0.0
 11
65.097473562
 21
2.050264971
 31
0.0
  0
LINE
  5
114
330
1D
100
AcDbEntity
  8
CUT
  6
CONTINUOUS
370
    25
100
AcDbLine
 10
54.299999028
 20
23.43153581
 30
0.0
 11
54.299999028
 21
27.0000007
 31
0.0
  0
ARC
  5
115
330
1D
100
AcDbEntity
  8
CUT
  6
CONTINUOUS
370
    25
100
AcDbCircle
 10
64.3
 20
23.43153533
 30
0.0
 40
10.0
100
AcDbArc
 50
180.0
 51
210.0
  0
LINE
  5
116
330
1D
100
AcDbEntity
  8
CUT
  6
CONTINUOUS
370
    25
100
AcDbLine
 10
65.097473562
 20
2.050264971
 30
0.0
 11
55.63974753
 21
18.431534991
 31
0.0
  0
ARC
  5
117
330
1D
100
AcDbEntity
  8
CUT
  6
CONTINUOUS
370
    25
100
AcDbCircle
 10
69.405598416
 20
-47.242546561
 30
0.0
 40
0.803002912
100
AcDbArc
 50
260.252314018
 51
359.183023624
  0
LINE
  5
118
330
1D
100
AcDbEntity
  8
CUT
  6
CONTINUOUS
370
    25
100
AcDbLine
 10
67.825324833
 20
-2.674504416
 30
0.0
 11
67.825324833
 21
-19.500000402
 31
0.0
  0
ARC
  5
119
330
1D
100
AcDbEntity
  8
CUT
  6
CONTINUOUS
370
    25
100
AcDbCircle
 10
156.031164091
 20
-19.5
 30
0.0
 40
88.205840414
100
AcDbArc
 50
180.0
 51
185.344722231
  0
ARC
  5
11A
330
1D
100
AcDbEntity
  8
CUT
  6
CONTINUOUS
370
    25
100
AcDbCircle
 10
82.590907451
 20
-26.370591492
 30
0.0
 40
14.444900054
100
AcDbArc
 50
185.345024151
 51
192.606993773
  0
ARC
  5
11B
330
1D
100
AcDbEntity
  8
CUT
  6
CONTINUOUS
370
    25
100
AcDbCircle
 10
72.468366217
 20
-28.634544905
 30
0.0
 40
4.072276178
100
AcDbArc
 50
192.606993773
 51
207.00288411
  0
ARC
  5
11C
330
1D
100
AcDbEntity
  8
CUT
  6
CONTINUOUS
370
    25
100
AcDbCircle
 10
68.989353083
 20
-30.407412085
 30
0.0
 40
0.167587915
100
AcDbArc
 50
207.002623801
 51
270.0
  0
ARC
  5
11D
330
1D
100
AcDbEntity
  8
CUT
  6
CONTINUOUS
370
    25
100
AcDbCircle
 10
68.989353083
 20
-30.407412085
 30
0.0
 40
0.167587915
100
AcDbArc
 50
270.0
 51
332.997376199
  0
ARC
  5
11E
330
1D
100
AcDbEntity
  8
CUT
  6
CONTINUOUS
370
    25
100
AcDbCircle
 10
65.510339949
 20
-28.634544905
 30
0.0
 40
4.072276178
100
AcDbArc
 50
332.9971158899999
 51
347.393006227
  0
ARC
  5
11F
330
1D
100
AcDbEntity
  8
CUT
  6
CONTINUOUS
370
    25
100
AcDbCircle
 10
55.387798715
 20
-26.370591492
 30
0.0
 40
14.444900054
100
AcDbArc
 50
347.393006227
 51
354.654975849
  0
ARC
  5
120
330
1D
100
AcDbEntity
  8
CUT
  6
CONTINUOUS
370
    25
100
AcDbCircle
 10
-18.052457925
 20
-19.5
 30
0.0
 40
88.205840414
100
AcDbArc
 50
354.655277769
 51
0.0
  0
LINE
  5
121
330
1D
100
AcDbEntity
  8
CUT
  6
CONTINUOUS
370
    25
100
AcDbLine
 10
70.153385401
 20
-19.500000402
 30
0.0
 11
70.153385401
 21
-6.706820335
 31
0.0
  0
LINE
  5
122
330
1D
100
AcDbEntity
  8
CUT
  6
CONTINUOUS
370
    25
100
AcDbLine
 10
70.153385401
 20
-6.706820335
 30
0.0
 11
70.6499964
 21
-7.566987071
 31
0.0
  0
LINE
  5
123
330
1D
100
AcDbEntity
  8
CUT
  6
CONTINUOUS
370
    25
100
AcDbLine
 10
70.6499964
 20
-7.566987071
 30
0.0
 11
70.6499964
 21
-36.264974624
 31
0.0
  0
LINE
  5
124
330
1D
100
AcDbEntity
  8
CUT
  6
CONTINUOUS
370
    25
100
AcDbLine
 10
70.6499964
 20
-36.264974624
 30
0.0
 11
70.492342114
 21
-36.410599947
 31
0.0
  0
LINE
  5
125
330
1D
100
AcDbEntity
  8
CUT
  6
CONTINUOUS
370
    25
100
AcDbLine
 10
70.208564401
 20
-36.360304803
 30
0.0
 11
70.492342114
 21
-36.410599947
 31
0.0
  0
LINE
  5
126
330
1D
100
AcDbEntity
  8
CUT
  6
CONTINUOUS
370
    25
100
AcDbLine
 10
70.208564401
 20
-47.245554626
 30
0.0
 11
70.208564401
 21
-36.360304803
 31
0.0
  0
LINE
  5
127
330
1D
100
AcDbEntity
  8
CUT
  6
CONTINUOUS
370
    25
100
AcDbLine
 10
70.208564401
 20
-47.245554626
 30
0.0
 11
70.208519697
 21
-47.253996134
 31
0.0
  0
LINE
  5
128
330
1D
100
AcDbEntity
  8
CUT
  6
CONTINUOUS
370
    25
100
AcDbLine
 10
67.097477615
 20
-1.413836726
 30
0.0
 11
67.825324833
 21
-2.674504416
 31
0.0
  0
LINE
  5
129
330
1D
100
AcDbEntity
  8
CUT
  6
CONTINUOUS
370
    25
100
AcDbLine
 10
33.649999648
 20
-31.22195974
 30
0.0
 11
33.700000495
 21
-31.323704868
 31
0.0
  0
ARC
  5
12A
330
1D
100
AcDbEntity
  8
CUT
  6
CONTINUOUS
370
    25
100
AcDbCircle
 10
35.513433882
 20
-30.206015508
 30
0.0
 40
2.122387766
100
AcDbArc
 50
185.264570522
 51
208.599215616
  0
LINE
  5
12B
330
1D
100
AcDbEntity
  8
CUT
  6
CONTINUOUS
370
    25
100
AcDbLine
 10
33.649999648
 20
31.22195974
 30
0.0
 11
33.399999142
 21
30.568514736
 31
0.0
  0
LINE
  5
12C
330
1D
100
AcDbEntity
  8
CUT
  6
CONTINUOUS
370
    25
100
AcDbLine
 10
33.700000495
 20
31.323704869
 30
0.0
 11
33.649999648
 21
31.22195974
 31
0.0
  0
ARC
  5
12D
330
1D
100
AcDbEntity
  8
CUT
  6
CONTINUOUS
370
    25
100
AcDbCircle
 10
34.679605901
 20
35.652571446
 30
0.0
 40
1.287767297
100
AcDbArc
 50
143.085071114
 51
173.546312305
  0
LINE
  5
12E
330
1D
100
AcDbEntity
  8
CUT
  6
CONTINUOUS
370
    25
100
AcDbLine
 10
33.700000495
 20
36.50854528
 30
0.0
 11
33.649999648
 21
36.426041275
 31
0.0
  0
LINE
  5
12F
330
1D
100
AcDbEntity
  8
CUT
  6
CONTINUOUS
370
    25
100
AcDbLine
 10
33.649999648
 20
-36.426041275
 30
0.0
 11
33.700000495
 21
-36.508545279
 31
0.0
  0
ARC
  5
130
330
1D
100
AcDbEntity
  8
CUT
  6
CONTINUOUS
370
    25
100
AcDbCircle
 10
34.889698715
 20
-35.569032004
 30
0.0
 40
1.507089468
100
AcDbArc
 50
188.712345395
 51
214.656271185
  0
LINE
  5
131
330
1D
100
AcDbEntity
  8
CUT
  6
CONTINUOUS
370
    25
100
AcDbLine
 10
33.700000495
 20
-39.426762611
 30
0.0
 11
33.649999648
 21
-39.385579526
 31
0.0
  0
LINE
  5
132
330
1D
100
AcDbEntity
  8
CUT
  6
CONTINUOUS
370
    25
100
AcDbLine
 10
33.649999648
 20
37.450000644
 30
0.0
 11
33.700000495
 21
37.50000149
 31
0.0
  0
LINE
  5
133
330
1D
100
AcDbEntity
  8
CUT
  6
CONTINUOUS
370
    25
100
AcDbLine
 10
36.183074117
 20
37.50000149
 30
0.0
 11
33.700000495
 21
37.50000149
 31
0.0
  0
LINE
  5
134
330
1D
100
AcDbEntity
  8
CUT
  6
CONTINUOUS
370
    25
100
AcDbLine
 10
33.649999648
 20
-39.385579526
 30
0.0
 11
33.569909632
 21
-39.325769991
 31
0.0
  0
LINE
  5
135
330
1D
100
AcDbEntity
  8
CUT
  6
CONTINUOUS
370
    25
100
AcDbLine
 10
33.569909632
 20
-39.325769991
 30
0.0
 11
33.492971212
 21
-39.284735918
 31
0.0
  0
LINE
  5
136
330
1D
100
AcDbEntity
  8
CUT
  6
CONTINUOUS
370
    25
100
AcDbLine
 10
33.492971212
 20
-39.284735918
 30
0.0
 11
33.434603363
 21
-39.277032018
 31
0.0
  0
LINE
  5
137
330
1D
100
AcDbEntity
  8
CUT
  6
CONTINUOUS
370
    25
100
AcDbLine
 10
33.434603363
 20
-39.277032018
 30
0.0
 11
33.406894654
 21
-39.299879223
 31
0.0
  0
LINE
  5
138
330
1D
100
AcDbEntity
  8
CUT
  6
CONTINUOUS
370
    25
100
AcDbLine
 10
33.406894654
 20
-39.299879223
 30
0.0
 11
33.399999142
 21
-39.336808026
 31
0.0
  0
LINE
  5
139
330
1D
100
AcDbEntity
  8
CUT
  6
CONTINUOUS
370
    25
100
AcDbLine
 10
33.649999648
 20
-40.086187422
 30
0.0
 11
33.700000495
 21
-40.156859904
 31
0.0
  0
ARC
  5
13A
330
1D
100
AcDbEntity
  8
CUT
  6
CONTINUOUS
370
    25
100
AcDbCircle
 10
34.463613292
 20
-39.36892131
 30
0.0
 40
1.084637191
100
AcDbArc
 50
191.299185385
 51
221.398779418
  0
LINE
  5
13B
330
1D
100
AcDbEntity
  8
CUT
  6
CONTINUOUS
370
    25
100
AcDbLine
 10
33.399999142
 20
37.200000137
 30
0.0
 11
33.407595009
 21
37.207596004
 31
0.0
  0
LINE
  5
13C
330
1D
100
AcDbEntity
  8
CUT
  6
CONTINUOUS
370
    25
100
AcDbLine
 10
33.407595009
 20
37.207596004
 30
0.0
 11
33.430155367
 21
37.230152637
 31
0.0
  0
LINE
  5
13D
330
1D
100
AcDbEntity
  8
CUT
  6
CONTINUOUS
370
    25
100
AcDbLine
 10
33.430155367
 20
37.230152637
 30
0.0
 11
33.466987312
 21
37.266988307
 31
0.0
  0
LINE
  5
13E
330
1D
100
AcDbEntity
  8
CUT
  6
CONTINUOUS
370
    25
100
AcDbLine
 10
33.466987312
 20
37.266988307
 30
0.0
 11
33.516976982
 21
37.316977978
 31
0.0
  0
LINE
  5
13F
330
1D
100
AcDbEntity
  8
CUT
  6
CONTINUOUS
370
    25
100
AcDbLine
 10
33.516976982
 20
37.316977978
 30
0.0
 11
33.57860446
 21
37.378605455
 31
0.0
  0
LINE
  5
140
330
1D
100
AcDbEntity
  8
CUT
  6
CONTINUOUS
370
    25
100
AcDbLine
 10
33.57860446
 20
37.378605455
 30
0.0
 11
33.649999648
 21
37.450000644
 31
0.0
  0
LINE
  5
141
330
1D
100
AcDbEntity
  8
CUT
  6
CONTINUOUS
370
    25
100
AcDbLine
 10
33.700000495
 20
-42.175468057
 30
0.0
 11
33.649999648
 21
-42.132858187
 31
0.0
  0
LINE
  5
142
330
1D
100
AcDbEntity
  8
CUT
  6
CONTINUOUS
370
    25
100
AcDbLine
 10
33.649999648
 20
-42.132858187
 30
0.0
 11
33.55653584
 21
-42.059019208
 31
0.0
  0
LINE
  5
143
330
1D
100
AcDbEntity
  8
CUT
  6
CONTINUOUS
370
    25
100
AcDbLine
 10
33.55653584
 20
-42.059019208
 30
0.0
 11
33.477492631
 21
-42.010243982
 31
0.0
  0
LINE
  5
144
330
1D
100
AcDbEntity
  8
CUT
  6
CONTINUOUS
370
    25
100
AcDbLine
 10
33.477492631
 20
-42.010243982
 30
0.0
 11
33.421751112
 21
-41.995510459
 31
0.0
  0
LINE
  5
145
330
1D
100
AcDbEntity
  8
CUT
  6
CONTINUOUS
370
    25
100
AcDbLine
 10
33.421751112
 20
-41.995510459
 30
0.0
 11
33.401165158
 21
-42.014349252
 31
0.0
  0
LINE
  5
146
330
1D
100
AcDbEntity
  8
CUT
  6
CONTINUOUS
370
    25
100
AcDbLine
 10
33.401165158
 20
-42.014349252
 30
0.0
 11
33.399999142
 21
-42.02549532
 31
0.0
  0
LINE
  5
147
330
1D
100
AcDbEntity
  8
CUT
  6
CONTINUOUS
370
    25
100
AcDbLine
 10
33.649999648
 20
-42.602211237
 30
0.0
 11
33.700000495
 21
-42.664654553
 31
0.0
  0
ARC
  5
148
330
1D
100
AcDbEntity
  8
CUT
  6
CONTINUOUS
370
    25
100
AcDbCircle
 10
34.504288982
 20
-41.802892396
 30
0.0
 40
1.169923448
100
AcDbArc
 50
199.282956072
 51
223.09603151
  0
LINE
  5
149
330
1D
100
AcDbEntity
  8
CUT
  6
CONTINUOUS
370
    25
100
AcDbLine
 10
33.700000495
 20
-43.943949044
 30
0.0
 11
33.649999648
 21
-43.89911145
 31
0.0
  0
LINE
  5
14A
330
1D
100
AcDbEntity
  8
CUT
  6
CONTINUOUS
370
    25
100
AcDbLine
 10
33.649999648
 20
-43.89911145
 30
0.0
 11
33.544007689
 21
-43.808568269
 31
0.0
  0
LINE
  5
14B
330
1D
100
AcDbEntity
  8
CUT
  6
CONTINUOUS
370
    25
100
AcDbLine
 10
33.544007689
 20
-43.808568269
 30
0.0
 11
33.464316279
 21
-43.750036508
 31
0.0
  0
LINE
  5
14C
330
1D
100
AcDbEntity
  8
CUT
  6
CONTINUOUS
370
    25
100
AcDbLine
 10
33.464316279
 20
-43.750036508
 30
0.0
 11
33.418286592
 21
-43.726928532
 31
0.0
  0
LINE
  5
14D
330
1D
100
AcDbEntity
  8
CUT
  6
CONTINUOUS
370
    25
100
AcDbLine
 10
33.418286592
 20
-43.726928532
 30
0.0
 11
33.400159329
 21
-43.7342152
 31
0.0
  0
LINE
  5
14E
330
1D
100
AcDbEntity
  8
CUT
  6
CONTINUOUS
370
    25
100
AcDbLine
 10
33.400159329
 20
-43.7342152
 30
0.0
 11
33.399999142
 21
-43.73671487
 31
0.0
  0
LINE
  5
14F
330
1D
100
AcDbEntity
  8
CUT
  6
CONTINUOUS
370
    25
100
AcDbLine
 10
33.649999648
 20
-44.170059264
 30
0.0
 11
33.700000495
 21
-44.226374477
 31
0.0
  0
ARC
  5
150
330
1D
100
AcDbEntity
  8
CUT
  6
CONTINUOUS
370
    25
100
AcDbCircle
 10
34.436616711
 20
-43.328065777
 30
0.0
 40
1.152267085
100
AcDbArc
 50
205.890122921
 51
226.947435187
  0
LINE
  5
151
330
1D
100
AcDbEntity
  8
CUT
  6
CONTINUOUS
370
    25
100
AcDbLine
 10
33.700000495
 20
-44.848315418
 30
0.0
 11
33.649999648
 21
-44.800516218
 31
0.0
  0
LINE
  5
152
330
1D
100
AcDbEntity
  8
CUT
  6
CONTINUOUS
370
    25
100
AcDbLine
 10
67.825324833
 20
-2.674504416
 30
0.0
 11
70.153385401
 21
-6.706820335
 31
0.0
  0
ARC
  5
153
330
1D
100
AcDbEntity
  8
CUT
  6
CONTINUOUS
370
    25
100
AcDbCircle
 10
69.426032942
 20
-47.316875589
 30
0.0
 40
0.736546974
100
AcDbArc
 50
257.9918573759999
 51
326.997428468
  0
ARC
  5
154
330
1D
100
AcDbEntity
  8
CUT
  6
CONTINUOUS
370
    25
100
AcDbCircle
 10
32.83183494
 20
-45.489109318
 30
0.0
 40
1.069370818
100
AcDbArc
 50
40.08501809199999
 51
57.90619383100001
  0
LINE
  5
155
330
1D
100
AcDbEntity
  8
CUT
  6
CONTINUOUS
370
    25
100
AcDbLine
 10
33.649999648
 20
-44.889200479
 30
0.0
 11
33.700000495
 21
-44.940758496
 31
0.0
  0
ARC
  5
156
330
1D
100
AcDbEntity
  8
CUT
  6
CONTINUOUS
370
    25
100
AcDbCircle
 10
35.165402881
 20
-43.261012701
 30
0.0
 40
2.224284693
100
AcDbArc
 50
217.467827487
 51
227.054754548
  0
LINE
  5
157
330
1D
100
AcDbEntity
  8
CUT
  6
CONTINUOUS
370
    25
100
AcDbLine
 10
33.399999142
 20
37.200000137
 30
0.0
 11
33.399999142
 21
-44.61408034
 31
0.0
  0
LINE
  5
158
330
1D
100
AcDbEntity
  8
CUT
  6
CONTINUOUS
370
    25
100
AcDbLine
 10
50.906904042
 20
44.999554753
 30
0.0
 11
37.356331944
 21
44.999554753
 31
0.0
  0
LINE
  5
159
330
1D
100
AcDbEntity
  8
CUT
  6
CONTINUOUS
370
    25
100
AcDbLine
 10
58.305986226
 20
46.304225922
 30
0.0
 11
50.906904042
 21
44.999554753
 31
0.0
  0
LINE
  5
15A
330
1D
100
AcDbEntity
  8
CUT
  6
CONTINUOUS
370
    25
100
AcDbLine
 10
57.313285768
 20
36.887090653
 30
0.0
 11
58.299999684
 21
38.063015789
 31
0.0
  0
ARC
  5
15B
330
1D
100
AcDbEntity
  8
CUT
  6
CONTINUOUS
370
    25
100
AcDbCircle
 10
59.305
 20
35.215844608
 30
0.0
 40
2.6
100
AcDbArc
 50
140.0
 51
320.0
  0
LINE
  5
15C
330
1D
100
AcDbEntity
  8
CUT
  6
CONTINUOUS
370
    25
100
AcDbLine
 10
62.283430248
 20
34.720517695
 30
0.0
 11
61.296716332
 21
33.544596285
 31
0.0
  0
LINE
  5
15D
330
1D
100
AcDbEntity
  8
CUT
  6
CONTINUOUS
370
    25
100
AcDbLine
 10
70.6499964
 20
36.264974624
 30
0.0
 11
70.645272732
 21
36.264136434
 31
0.0
  0
LINE
  5
15E
330
1D
100
AcDbEntity
  8
CUT
  6
CONTINUOUS
370
    25
100
AcDbLine
 10
70.6499964
 20
7.566987071
 30
0.0
 11
70.6499964
 21
36.264974624
 31
0.0
  0
LINE
  5
15F
330
1D
100
AcDbEntity
  8
CUT
  6
CONTINUOUS
370
    25
100
AcDbLine
 10
66.281199455
 20
0.0
 30
0.0
 11
70.6499964
 21
7.566987071
 31
0.0
  0
LINE
  5
160
330
1D
100
AcDbEntity
  8
CUT
  6
CONTINUOUS
370
    25
100
AcDbLine
 10
70.6499964
 20
36.264974624
 30
0.0
 11
70.648528635
 21
36.26633063
 31
0.0
  0
ARC
  5
161
330
1D
100
AcDbEntity
  8
CUT
  6
CONTINUOUS
370
    25
100
AcDbCircle
 10
36.895820371
 20
90.278147808
 30
0.0
 40
45.280934839
100
AcDbArc
 50
270.319192114
 51
270.582713774
  0
LINE
  5
162
330
1D
100
AcDbEntity
  8
CUT
  6
CONTINUOUS
370
    25
100
AcDbLine
 10
33.849999309
 20
44.889200479
 30
0.0
 11
33.900000155
 21
44.940758497
 31
0.0
  0
ARC
  5
163
330
1D
100
AcDbEntity
  8
CUT
  6
CONTINUOUS
370
    25
100
AcDbCircle
 10
37.898076211
 20
-86.557548812
 30
0.0
 40
131.557603295
100
AcDbArc
 50
90.326640698
 51
91.74148512800001
  0
LINE
  5
164
330
1D
100
AcDbEntity
  8
CUT
  6
CONTINUOUS
370
    25
100
AcDbLine
 10
33.599998802
 20
37.399999797
 30
0.0
 11
33.599998802
 21
44.61408034
 31
0.0
  0
ARC
  5
165
330
1D
100
AcDbEntity
  8
CUT
  6
CONTINUOUS
370
    25
100
AcDbCircle
 10
35.365402541
 20
43.261012701
 30
0.0
 40
2.224284693
100
AcDbArc
 50
132.945245452
 51
142.532172513
  0
LINE
  5
166
330
1D
100
AcDbEntity
  8
CUT
  6
CONTINUOUS
370
    25
100
AcDbLine
 10
58.299999684
 20
46.242769808
 30
0.0
 11
58.299999684
 21
34.971535206
 31
0.0
  0
ARC
  5
167
330
1D
100
AcDbEntity
  8
CUT
  6
CONTINUOUS
370
    25
100
AcDbCircle
 10
59.1
 20
46.242770513
 30
0.0
 40
0.8
100
AcDbArc
 50
100.0
 51
180.0
  0
LINE
  5
168
330
1D
100
AcDbEntity
  8
CUT
  6
CONTINUOUS
370
    25
100
AcDbLine
 10
70.061080158
 20
48.987846822
 30
0.0
 11
58.96108225
 21
47.030616552
 31
0.0
  0
ARC
  5
169
330
1D
100
AcDbEntity
  8
CUT
  6
CONTINUOUS
370
    25
100
AcDbCircle
 10
70.2
 20
48.199999999
 30
0.0
 40
0.8
100
AcDbArc
 50
0.0
 51
100.0
  0
LINE
  5
16A
330
1D
100
AcDbEntity
  8
CUT
  6
CONTINUOUS
370
    25
100
AcDbLine
 10
71.000002325
 20
36.928765476
 30
0.0
 11
71.000002325
 21
48.200000078
 31
0.0
  0
ARC
  5
16B
330
1D
100
AcDbEntity
  8
CUT
  6
CONTINUOUS
370
    25
100
AcDbCircle
 10
70.2
 20
36.928764607
 30
0.0
 40
0.8
100
AcDbArc
 50
280.0
 51
0.0
  0
LINE
  5
16C
330
1D
100
AcDbEntity
  8
CUT
  6
CONTINUOUS
370
    25
100
AcDbLine
 10
59.238918126
 20
34.183688462
 30
0.0
 11
70.338919759
 21
36.140918732
 31
0.0
  0
ARC
  5
16D
330
1D
100
AcDbEntity
  8
CUT
  6
CONTINUOUS
370
    25
100
AcDbCircle
 10
59.1
 20
34.971535121
 30
0.0
 40
0.8
100
AcDbArc
 50
180.0
 51
280.0
  0
ARC
  5
16E
330
1D
100
AcDbEntity
  8
CUT
  6
CONTINUOUS
370
    25
100
AcDbCircle
 10
70.2
 20
-48.199999999
 30
0.0
 40
0.8
100
AcDbArc
 50
260.0
 51
0.0
  0
ARC
  5
16F
330
1D
100
AcDbEntity
  8
CUT
  6
CONTINUOUS
370
    25
100
AcDbCircle
 10
70.2
 20
-48.199999999
 30
0.0
 40
0.21554549
100
AcDbArc
 50
260.0
 51
0.0
  0
ARC
  5
170
330
1D
100
AcDbEntity
  8
CUT
  6
CONTINUOUS
370
    25
100
AcDbCircle
 10
70.2
 20
-36.928764607
 30
0.0
 40
0.8
100
AcDbArc
 50
0.0
 51
55.898251634
  0
ARC
  5
171
330
1D
100
AcDbEntity
  8
CUT
  6
CONTINUOUS
370
    25
100
AcDbCircle
 10
70.2
 20
-36.928764607
 30
0.0
 40
0.21554549
100
AcDbArc
 50
0.0
 51
80.0
  0
LINE
  5
172
330
1D
100
AcDbEntity
  8
CUT
  6
CONTINUOUS
370
    25
100
AcDbLine
 10
71.000002325
 20
-36.928765476
 30
0.0
 11
71.000002325
 21
-48.200000077
 31
0.0
  0
LINE
  5
173
330
1D
100
AcDbEntity
  8
CUT
  6
CONTINUOUS
370
    25
100
AcDbLine
 10
70.41554898
 20
-48.200000077
 30
0.0
 11
70.41554898
 21
-36.928765476
 31
0.0
  0
LINE
  5
174
330
1D
100
AcDbEntity
  8
CUT
  6
CONTINUOUS
370
    25
100
AcDbLine
 10
70.23742795
 20
-36.716494709
 30
0.0
 11
70.208564401
 21
-36.711402237
 31
0.0
  0
LINE
  5
175
330
1D
100
AcDbEntity
  8
CUT
  6
CONTINUOUS
370
    25
100
AcDbLine
 10
59.062570333
 20
-46.455040574
 30
0.0
 11
70.162571967
 21
-48.412270844
 31
0.0
  0
ARC
  5
176
330
1D
100
AcDbEntity
  8
CUT
  6
CONTINUOUS
370
    25
100
AcDbCircle
 10
59.1
 20
-46.242770513
 30
0.0
 40
0.21554549
100
AcDbArc
 50
180.0
 51
260.0
  0
LINE
  5
177
330
1D
100
AcDbEntity
  8
CUT
  6
CONTINUOUS
370
    25
100
AcDbLine
 10
58.884453028
 20
-46.197596937
 30
0.0
 11
58.884453028
 21
-46.242769807
 31
0.0
  0
LINE
  5
178
330
1D
100
AcDbEntity
  8
CUT
  6
CONTINUOUS
370
    25
100
AcDbLine
 10
70.061080158
 20
-48.987846821
 30
0.0
 11
58.96108225
 21
-47.030616552
 31
0.0
  0
ARC
  5
179
330
1D
100
AcDbEntity
  8
CUT
  6
CONTINUOUS
370
    25
100
AcDbCircle
 10
59.1
 20
-46.242770513
 30
0.0
 40
0.8
100
AcDbArc
 50
184.429224501
 51
260.0
  0
ARC
  5
17A
330
1D
100
AcDbEntity
  8
CUT
  6
CONTINUOUS
370
    25
100
AcDbCircle
 10
63.010737576
 20
40.52076756
 30
0.0
 40
0.3
100
AcDbArc
 50
210.0
 51
296.615838194
  0
ARC
  5
17B
330
1D
100
AcDbEntity
  8
CUT
  6
CONTINUOUS
370
    25
100
AcDbCircle
 10
63.458743816
 20
39.626737131
 30
0.0
 40
0.7
100
AcDbArc
 50
3.384161806
 51
116.615838194
  0
ARC
  5
17C
330
1D
100
AcDbEntity
  8
CUT
  6
CONTINUOUS
370
    25
100
AcDbCircle
 10
64.457
 20
39.68576756
 30
0.0
 40
0.3
100
AcDbArc
 50
183.384161806
 51
270.0
  0
ARC
  5
17D
330
1D
100
AcDbEntity
  8
CUT
  6
CONTINUOUS
370
    25
100
AcDbCircle
 10
64.457
 20
39.68576756
 30
0.0
 40
0.3
100
AcDbArc
 50
270.0
 51
356.615838194
  0
ARC
  5
17E
330
1D
100
AcDbEntity
  8
CUT
  6
CONTINUOUS
370
    25
100
AcDbCircle
 10
65.455256184
 20
39.626737131
 30
0.0
 40
0.7
100
AcDbArc
 50
63.384161806
 51
176.615838194
  0
ARC
  5
17F
330
1D
100
AcDbEntity
  8
CUT
  6
CONTINUOUS
370
    25
100
AcDbCircle
 10
65.903262424
 20
40.52076756
 30
0.0
 40
0.3
100
AcDbArc
 50
243.384161806
 51
330.0
  0
ARC
  5
180
330
1D
100
AcDbEntity
  8
CUT
  6
CONTINUOUS
370
    25
100
AcDbCircle
 10
63.010737576
 20
42.19076756
 30
0.0
 40
0.3
100
AcDbArc
 50
150.0
 51
236.615838194
  0
ARC
  5
181
330
1D
100
AcDbEntity
  8
CUT
  6
CONTINUOUS
370
    25
100
AcDbCircle
 10
62.460487633
 20
41.35576756
 30
0.0
 40
0.7
100
AcDbArc
 50
303.384161806
 51
56.615838194
  0
ARC
  5
182
330
1D
100
AcDbEntity
  8
CUT
  6
CONTINUOUS
370
    25
100
AcDbCircle
 10
63.010737576
 20
40.52076756
 30
0.0
 40
0.3
100
AcDbArc
 50
123.384161806
 51
210.0
  0
ARC
  5
183
330
1D
100
AcDbEntity
  8
CUT
  6
CONTINUOUS
370
    25
100
AcDbCircle
 10
66.453512367
 20
41.35576756
 30
0.0
 40
0.7
100
AcDbArc
 50
123.384161806
 51
236.615838194
  0
ARC
  5
184
330
1D
100
AcDbEntity
  8
CUT
  6
CONTINUOUS
370
    25
100
AcDbCircle
 10
65.903262424
 20
42.19076756
 30
0.0
 40
0.3
100
AcDbArc
 50
303.384161806
 51
30.0
  0
ARC
  5
185
330
1D
100
AcDbEntity
  8
CUT
  6
CONTINUOUS
370
    25
100
AcDbCircle
 10
65.903262424
 20
40.52076756
 30
0.0
 40
0.3
100
AcDbArc
 50
330.0
 51
56.615838194
  0
ARC
  5
186
330
1D
100
AcDbEntity
  8
CUT
  6
CONTINUOUS
370
    25
100
AcDbCircle
 10
65.455256184
 20
43.084797989
 30
0.0
 40
0.7
100
AcDbArc
 50
183.384161806
 51
296.615838194
  0
ARC
  5
187
330
1D
100
AcDbEntity
  8
CUT
  6
CONTINUOUS
370
    25
100
AcDbCircle
 10
64.457
 20
43.02576756
 30
0.0
 40
0.3
100
AcDbArc
 50
3.384161806
 51
90.0
  0
ARC
  5
188
330
1D
100
AcDbEntity
  8
CUT
  6
CONTINUOUS
370
    25
100
AcDbCircle
 10
65.903262424
 20
42.19076756
 30
0.0
 40
0.3
100
AcDbArc
 50
30.0
 51
116.615838194
  0
ARC
  5
189
330
1D
100
AcDbEntity
  8
CUT
  6
CONTINUOUS
370
    25
100
AcDbCircle
 10
64.457
 20
43.02576756
 30
0.0
 40
0.3
100
AcDbArc
 50
90.0
 51
176.615838194
  0
ARC
  5
18A
330
1D
100
AcDbEntity
  8
CUT
  6
CONTINUOUS
370
    25
100
AcDbCircle
 10
63.458743816
 20
43.084797989
 30
0.0
 40
0.7
100
AcDbArc
 50
243.384161806
 51
356.615838194
  0
ARC
  5
18B
330
1D
100
AcDbEntity
  8
CUT
  6
CONTINUOUS
370
    25
100
AcDbCircle
 10
63.010737576
 20
42.19076756
 30
0.0
 40
0.3
100
AcDbArc
 50
63.384161806
 51
150.0
  0
LINE
  5
18C
330
1D
100
AcDbEntity
  8
CUT
  6
CONTINUOUS
370
    25
100
AcDbLine
 10
69.269642234
 20
-48.033956438
 30
0.0
 11
69.109521806
 21
-47.837384045
 31
0.0
  0
LINE
  5
18D
330
1D
100
AcDbEntity
  8
CUT
  6
CONTINUOUS
370
    25
100
AcDbLine
 10
69.109521806
 20
-47.837384045
 30
0.0
 11
68.784579635
 21
-47.28018865
 31
0.0
  0
LINE
  5
18E
330
1D
100
AcDbEntity
  8
CUT
  6
CONTINUOUS
370
    25
100
AcDbLine
 10
68.784579635
 20
-47.28018865
 30
0.0
 11
68.464107812
 21
-46.516869217
 31
0.0
  0
LINE
  5
18F
330
1D
100
AcDbEntity
  8
CUT
  6
CONTINUOUS
370
    25
100
AcDbLine
 10
68.464107812
 20
-46.516869217
 30
0.0
 11
68.142667413
 21
-45.524671674
 31
0.0
  0
LINE
  5
190
330
1D
100
AcDbEntity
  8
CUT
  6
CONTINUOUS
370
    25
100
AcDbLine
 10
68.142667413
 20
-45.524671674
 30
0.0
 11
67.827783525
 21
-44.319666922
 31
0.0
  0
LINE
  5
191
330
1D
100
AcDbEntity
  8
CUT
  6
CONTINUOUS
370
    25
100
AcDbLine
 10
67.827783525
 20
-44.319666922
 30
0.0
 11
67.52153486
 21
-42.911227792
 31
0.0
  0
LINE
  5
192
330
1D
100
AcDbEntity
  8
CUT
  6
CONTINUOUS
370
    25
100
AcDbLine
 10
67.52153486
 20
-42.911227792
 30
0.0
 11
67.226007581
 21
-41.308727115
 31
0.0
  0
LINE
  5
193
330
1D
100
AcDbEntity
  8
CUT
  6
CONTINUOUS
370
    25
100
AcDbLine
 10
67.226007581
 20
-41.308727115
 30
0.0
 11
66.943272948
 21
-39.521537721
 31
0.0
  0
LINE
  5
194
330
1D
100
AcDbEntity
  8
CUT
  6
CONTINUOUS
370
    25
100
AcDbLine
 10
66.943272948
 20
-39.521537721
 30
0.0
 11
66.648215055
 21
-37.349160761
 31
0.0
  0
LINE
  5
195
330
1D
100
AcDbEntity
  8
CUT
  6
CONTINUOUS
370
    25
100
AcDbLine
 10
66.648215055
 20
-37.349160761
 30
0.0
 11
66.370099783
 21
-34.967184067
 31
0.0
  0
LINE
  5
196
330
1D
100
AcDbEntity
  8
CUT
  6
CONTINUOUS
370
    25
100
AcDbLine
 10
66.370099783
 20
-34.967184067
 30
0.0
 11
66.111251712
 21
-32.395001501
 31
0.0
  0
LINE
  5
197
330
1D
100
AcDbEntity
  8
CUT
  6
CONTINUOUS
370
    25
100
AcDbLine
 10
69.272786379
 20
-48.037312925
 30
0.0
 11
69.269642234
 21
-48.033956438
 31
0.0
  0
ARC
  5
198
330
1D
100
AcDbEntity
  8
CUT
  6
CONTINUOUS
370
    25
100
AcDbCircle
 10
230.651624272
 20
-16.014829959
 30
0.0
 40
164.372441444
100
AcDbArc
 50
185.719501146
 51
187.095933649
  0
ARC
  5
199
330
1D
100
AcDbEntity
  8
CUT
  6
CONTINUOUS
370
    25
100
AcDbCircle
 10
148.915641656
 20
-26.189693927
 30
0.0
 40
82.01322166
100
AcDbArc
 50
187.095933649
 51
192.474884001
  0
ARC
  5
19A
330
1D
100
AcDbEntity
  8
CUT
  6
CONTINUOUS
370
    25
100
AcDbCircle
 10
81.434118181
 20
-41.118856323
 30
0.0
 40
12.90001091
100
AcDbArc
 50
192.475314839
 51
202.812008309
  0
ARC
  5
19B
330
1D
100
AcDbEntity
  8
CUT
  6
CONTINUOUS
370
    25
100
AcDbCircle
 10
73.928177817
 20
-44.275914391
 30
0.0
 40
4.757151682
100
AcDbArc
 50
202.812008309
 51
218.681923559
  0
LINE
  5
19C
330
1D
100
AcDbEntity
  8
CUT
  6
CONTINUOUS
370
    25
100
AcDbLine
 10
70.41554898
 20
-48.200000077
 30
0.0
 11
71.000002325
 21
-48.200000077
 31
0.0
  0
LINE
  5
19D
330
1D
100
AcDbEntity
  8
CUT
  6
CONTINUOUS
370
    25
100
AcDbLine
 10
70.162571967
 20
-48.412270844
 30
0.0
 11
70.061080158
 21
-48.987846821
 31
0.0
  0
LINE
  5
19E
330
1D
100
AcDbEntity
  8
CUT
  6
CONTINUOUS
370
    25
100
AcDbLine
 10
70.23742795
 20
-36.716494709
 30
0.0
 11
70.297457278
 21
-36.376059055
 31
0.0
  0
LINE
  5
19F
330
1D
100
AcDbEntity
  8
CUT
  6
CONTINUOUS
370
    25
100
AcDbLine
 10
70.41554898
 20
-36.928765476
 30
0.0
 11
71.000002325
 21
-36.928765476
 31
0.0
  0
LINE
  5
1A0
330
1D
100
AcDbEntity
  8
CUT
  6
CONTINUOUS
370
    25
100
AcDbLine
 10
59.062570333
 20
-46.455040574
 30
0.0
 11
58.96108225
 21
-47.030616552
 31
0.0
  0
LINE
  5
1A1
330
1D
100
AcDbEntity
  8
CUT
  6
CONTINUOUS
370
    25
100
AcDbLine
 10
58.884453028
 20
-46.242769807
 30
0.0
 11
58.534707874
 21
-46.242769807
 31
0.0
  0
CIRCLE
  5
1A2
330
1D
100
AcDbEntity
  8
CUT
  6
CONTINUOUS
370
    25
100
AcDbCircle
 10
64.457
 20
41.35576756
 30
0.0
 40
3.221499288
  0
LINE
  5
1A3
330
1D
100
AcDbEntity
  8
2
  6
CONTINUOUS
370
    25
100
AcDbLine
 10
87.730654907
 20
-48.999999999
 30
0.0
 11
70.2
 21
-48.999999999
 31
0.0
  0
LINE
  5
1A4
330
1D
100
AcDbEntity
  8
2
  6
CONTINUOUS
370
    25
100
AcDbLine
 10
85.730654907
 20
-48.999999999
 30
0.0
 11
85.280654907
 21
-45.499999999
 31
0.0
  0
LINE
  5
1A5
330
1D
100
AcDbEntity
  8
2
  6
CONTINUOUS
370
    25
100
AcDbLine
 10
85.280654907
 20
-45.499999999
 30
0.0
 11
86.180654907
 21
-45.499999999
 31
0.0
  0
LINE
  5
1A6
330
1D
100
AcDbEntity
  8
2
  6
CONTINUOUS
370
    25
100
AcDbLine
 10
86.180654907
 20
-45.499999999
 30
0.0
 11
85.730654907
 21
-48.999999999
 31
0.0
  0
LINE
  5
1A7
330
1D
100
AcDbEntity
  8
2
  6
CONTINUOUS
370
    25
100
AcDbLine
 10
87.730654907
 20
48.999999999
 30
0.0
 11
70.2
 21
48.999999999
 31
0.0
  0
LINE
  5
1A8
330
1D
100
AcDbEntity
  8
2
  6
CONTINUOUS
370
    25
100
AcDbLine
 10
85.730654907
 20
48.999999999
 30
0.0
 11
86.180654907
 21
45.499999999
 31
0.0
  0
LINE
  5
1A9
330
1D
100
AcDbEntity
  8
2
  6
CONTINUOUS
370
    25
100
AcDbLine
 10
86.180654907
 20
45.499999999
 30
0.0
 11
85.280654907
 21
45.499999999
 31
0.0
  0
LINE
  5
1AA
330
1D
100
AcDbEntity
  8
2
  6
CONTINUOUS
370
    25
100
AcDbLine
 10
85.280654907
 20
45.499999999
 30
0.0
 11
85.730654907
 21
48.999999999
 31
0.0
  0
LINE
  5
1AB
330
1D
100
AcDbEntity
  8
2
  6
CONTINUOUS
370
    25
100
AcDbLine
 10
85.730654907
 20
-45.499999999
 30
0.0
 11
85.730654907
 21
45.499999999
 31
0.0
  0
TEXT
  5
1AC
330
1D
100
AcDbEntity
  8
2
  6
CONTINUOUS
370
    25
100
AcDbText
 10
84.230654907
 20
-3.723907345
 30
0.0
 40
3.5
  1
98
 50
90.0
  7
BMG_Text
100
AcDbText
  0
CIRCLE
  5
1AD
330
1D
100
AcDbEntity
  8
2
  6
CONTINUOUS
370
    25
100
AcDbCircle
 10
82.980654907
 20
-5.973907345
 30
0.0
 40
1.25
  0
LINE
  5
1AE
330
1D
100
AcDbEntity
  8
2
  6
CONTINUOUS
370
    25
100
AcDbLine
 10
84.230654907
 20
-7.223907345
 30
0.0
 11
81.730654907
 21
-4.723907345
 31
0.0
  0
TEXT
  5
1AF
330
1D
100
AcDbEntity
  8
2
  6
CONTINUOUS
370
    25
100
AcDbText
 10
84.230654907
 20
0.996092655
 30
0.0
 40
3.5
  1
-153
 50
90.0
  7
BMG_Text
100
AcDbText
  0
ENDSEC
  0
SECTION
  2
OBJECTS
  0
DICTIONARY
  5
C
330
0
100
AcDbDictionary
281
     1
  3
ACAD_GROUP
350
D
  3
ACAD_LAYOUT
350
1A
  3
ACAD_MATERIAL
350
1EE
  3
ACAD_MLEADERSTYLE
350
1FC
  3
ACAD_MLINESTYLE
350
17
  3
ACAD_PLOTSETTINGS
350
19
  3
ACAD_PLOTSTYLENAME
350
E
  3
ACAD_SCALELIST
350
1B7
  3
ACAD_VISUALSTYLE
350
1DD
  3
ACDB_RECOMPOSE_DATA
350
229
  3
AcDbVariableDictionary
350
1FA
  0
DICTIONARY
  5
200
330
8
100
AcDbDictionary
280
     1
281
     1
  3
ACAD_XREC_ROUNDTRIP
360
201
  0
DICTIONARY
  5
D
102
{ACAD_REACTORS
330
C
102
}
330
C
100
AcDbDictionary
281
     1
  0
DICTIONARY
  5
1A
102
{ACAD_REACTORS
330
C
102
}
330
C
100
AcDbDictionary
281
     1
  3
Layout1
350
1C
  3
Model
350
1E
  0
DICTIONARY
  5
1EE
102
{ACAD_REACTORS
330
C
102
}
330
C
100
AcDbDictionary
281
     1
  3
ByBlock
350
1F0
  3
ByLayer
350
1EF
  3
Global
350
1F1
  0
DICTIONARY
  5
1FC
102
{ACAD_REACTORS
330
C
102
}
330
C
100
AcDbDictionary
281
     1
  0
DICTIONARY
  5
17
102
{ACAD_REACTORS
330
C
102
}
330
C
100
AcDbDictionary
281
     1
  3
Standard
350
18
  0
DICTIONARY
  5
19
102
{ACAD_REACTORS
330
C
102
}
330
C
100
AcDbDictionary
281
     1
  0
ACDBDICTIONARYWDFLT
  5
E
102
{ACAD_REACTORS
330
C
102
}
330
C
100
AcDbDictionary
281
     1
  3
Normal
350
F
100
AcDbDictionaryWithDefault
340
F
  0
DICTIONARY
  5
1B7
102
{ACAD_REACTORS
330
C
102
}
330
C
100
AcDbDictionary
281
     1
  3
A0
350
1B8
  3
A1
350
1B9
  3
A2
350
1BA
  3
A3
350
1BB
  3
A4
350
1BC
  3
A5
350
1BD
  3
A6
350
1BE
  3
A7
350
1BF
  3
A8
350
1C0
  3
A9
350
1C1
  3
B0
350
1C2
  3
B1
350
1C3
  3
B2
350
1C4
  3
B3
350
1C5
  3
B4
350
1C6
  3
B5
350
1C7
  3
B6
350
1C8
  3
B7
350
1C9
  3
B8
350
1CA
  3
B9
350
1CB
  3
C0
350
1CC
  3
C1
350
1CD
  3
C2
350
1CE
  3
C3
350
1CF
  3
C4
350
1D0
  3
C5
350
1D1
  3
C6
350
1D2
  3
C7
350
1D3
  3
C8
350
1D4
  3
C9
350
1D5
  3
D0
350
1D6
  3
D1
350
1D7
  3
D2
350
1D8
  0
DICTIONARY
  5
1DD
102
{ACAD_REACTORS
330
C
102
}
330
C
100
AcDbDictionary
281
     1
  3
2dWireframe
350
1E2
  3
3D Hidden
350
1E4
  3
3dWireframe
350
1E3
  3
Basic
350
1E5
  3
Brighten
350
1E9
  3
ColorChange
350
1ED
  3
Conceptual
350
1E7
  3
Dim
350
1E8
  3
Facepattern
350
1EC
  3
Flat
350
1DE
  3
FlatWithEdges
350
1DF
  3
Gouraud
350
1E0
  3
GouraudWithEdges
350
1E1
  3
Linepattern
350
1EB
  3
Realistic
350
1E6
  3
Thicken
350
1EA
  0
XRECORD
  5
229
102
{ACAD_REACTORS
330
C
102
}
330
C
100
AcDbXrecord
280
     1
  0
DICTIONARY
  5
1FA
102
{ACAD_REACTORS
330
C
102
}
330
C
100
AcDbDictionary
281
     1
  3
CANNOSCALE
350
202
  3
DIMASSOC
350
1FE
  3
HIDETEXT
350
1FF
  3
MSLTSCALE
350
1FD
  0
XRECORD
  5
201
102
{ACAD_REACTORS
330
200
102
}
330
200
100
AcDbXrecord
280
     1
102
VTR_0.000_0.000_1.000_1.000_VISUALSTYLE
340
1E2
102
VTR_0.000_0.000_1.000_1.000_GRIDDISPLAY
 70
     3
102
VTR_0.000_0.000_1.000_1.000_GRIDMAJOR
 70
     5
102
VTR_0.000_0.000_1.000_1.000_DEFAULTLIGHTING
280
     1
102
VTR_0.000_0.000_1.000_1.000_DEFAULTLIGHTINGTYPE
 70
     1
102
VTR_0.000_0.000_1.000_1.000_BRIGHTNESS
141
0.0
102
VTR_0.000_0.000_1.000_1.000_CONTRAST
142
0.0
  0
LAYOUT
  5
1C
102
{ACAD_REACTORS
330
1A
102
}
330
1A
100
AcDbPlotSettings
  1

  2
none_device
  4

  6

 40
0.0
 41
0.0
 42
0.0
 43
0.0
 44
0.0
 45
0.0
 46
0.0
 47
0.0
 48
0.0
 49
0.0
140
0.0
141
0.0
142
1.0
143
1.0
 70
   688
 72
     0
 73
     0
 74
     5
  7

 75
    16
147
1.0
148
0.0
149
0.0
100
AcDbLayout
  1
Layout1
 70
     1
 71
     1
 10
0.0
 20
0.0
 11
12.0
 21
9.0
 12
0.0
 22
0.0
 32
0.0
 14
1.000000000000000E+20
 24
1.000000000000000E+20
 34
1.000000000000000E+20
 15
-1.000000000000000E+20
 25
-1.000000000000000E+20
 35
-1.000000000000000E+20
146
0.0
 13
0.0
 23
0.0
 33
0.0
 16
1.0
 26
0.0
 36
0.0
 17
0.0
 27
1.0
 37
0.0
 76
     0
330
1B
  0
LAYOUT
  5
1E
102
{ACAD_REACTORS
330
1A
102
}
330
1A
100
AcDbPlotSettings
  1

  2
none_device
  4

  6

 40
0.0
 41
0.0
 42
0.0
 43
0.0
 44
0.0
 45
0.0
 46
0.0
 47
0.0
 48
0.0
 49
0.0
140
0.0
141
0.0
142
1.0
143
1.0
 70
  1712
 72
     0
 73
     0
 74
     0
  7

 75
     0
147
1.0
148
0.0
149
0.0
100
AcDbLayout
  1
Model
 70
     1
 71
     0
 10
0.0
 20
0.0
 11
12.0
 21
9.0
 12
0.0
 22
0.0
 32
0.0
 14
-126.038566222
 24
-55.076659202
 34
0.0
 15
140.635165051
 25
63.068137306
 35
0.0
146
0.0
 13
0.0
 23
0.0
 33
0.0
 16
1.0
 26
0.0
 36
0.0
 17
0.0
 27
1.0
 37
0.0
 76
     0
330
1D
331
1B0
  0
MATERIAL
  5
1F0
102
{ACAD_REACTORS
330
1EE
102
}
102
{ACAD_XDICTIONARY
360
225
102
}
330
1EE
100
AcDbMaterial
  1
ByBlock
  0
MATERIAL
  5
1EF
102
{ACAD_REACTORS
330
1EE
102
}
102
{ACAD_XDICTIONARY
360
223
102
}
330
1EE
100
AcDbMaterial
  1
ByLayer
  0
MATERIAL
  5
1F1
102
{ACAD_REACTORS
330
1EE
102
}
102
{ACAD_XDICTIONARY
360
227
102
}
330
1EE
100
AcDbMaterial
  1
Global
  0
MLINESTYLE
  5
18
102
{ACAD_REACTORS
330
17
102
}
330
17
100
AcDbMlineStyle
  2
Standard
 70
     0
  3

 62
   256
 51
90.0
 52
90.0
 71
     2
 49
0.5
 62
   256
  6
BYLAYER
 49
-0.5
 62
   256
  6
BYLAYER
  0
ACDBPLACEHOLDER
  5
F
102
{ACAD_REACTORS
330
E
102
}
330
E
  0
SCALE
  5
1B8
102
{ACAD_REACTORS
330
1B7
102
}
330
1B7
100
AcDbScale
 70
     0
300
1:1
140
1.0
141
1.0
290
     1
  0
SCALE
  5
1B9
102
{ACAD_REACTORS
330
1B7
102
}
330
1B7
100
AcDbScale
 70
     0
300
1:2
140
1.0
141
2.0
290
     0
  0
SCALE
  5
1BA
102
{ACAD_REACTORS
330
1B7
102
}
330
1B7
100
AcDbScale
 70
     0
300
1:4
140
1.0
141
4.0
290
     0
  0
SCALE
  5
1BB
102
{ACAD_REACTORS
330
1B7
102
}
330
1B7
100
AcDbScale
 70
     0
300
1:5
140
1.0
141
5.0
290
     0
  0
SCALE
  5
1BC
102
{ACAD_REACTORS
330
1B7
102
}
330
1B7
100
AcDbScale
 70
     0
300
1:8
140
1.0
141
8.0
290
     0
  0
SCALE
  5
1BD
102
{ACAD_REACTORS
330
1B7
102
}
330
1B7
100
AcDbScale
 70
     0
300
1:10
140
1.0
141
10.0
290
     0
  0
SCALE
  5
1BE
102
{ACAD_REACTORS
330
1B7
102
}
330
1B7
100
AcDbScale
 70
     0
300
1:16
140
1.0
141
16.0
290
     0
  0
SCALE
  5
1BF
102
{ACAD_REACTORS
330
1B7
102
}
330
1B7
100
AcDbScale
 70
     0
300
1:20
140
1.0
141
20.0
290
     0
  0
SCALE
  5
1C0
102
{ACAD_REACTORS
330
1B7
102
}
330
1B7
100
AcDbScale
 70
     0
300
1:30
140
1.0
141
30.0
290
     0
  0
SCALE
  5
1C1
102
{ACAD_REACTORS
330
1B7
102
}
330
1B7
100
AcDbScale
 70
     0
300
1:40
140
1.0
141
40.0
290
     0
  0
SCALE
  5
1C2
102
{ACAD_REACTORS
330
1B7
102
}
330
1B7
100
AcDbScale
 70
     0
300
1:50
140
1.0
141
50.0
290
     0
  0
SCALE
  5
1C3
102
{ACAD_REACTORS
330
1B7
102
}
330
1B7
100
AcDbScale
 70
     0
300
1:100
140
1.0
141
100.0
290
     0
  0
SCALE
  5
1C4
102
{ACAD_REACTORS
330
1B7
102
}
330
1B7
100
AcDbScale
 70
     0
300
2:1
140
2.0
141
1.0
290
     0
  0
SCALE
  5
1C5
102
{ACAD_REACTORS
330
1B7
102
}
330
1B7
100
AcDbScale
 70
     0
300
4:1
140
4.0
141
1.0
290
     0
  0
SCALE
  5
1C6
102
{ACAD_REACTORS
330
1B7
102
}
330
1B7
100
AcDbScale
 70
     0
300
8:1
140
8.0
141
1.0
290
     0
  0
SCALE
  5
1C7
102
{ACAD_REACTORS
330
1B7
102
}
330
1B7
100
AcDbScale
 70
     0
300
10:1
140
10.0
141
1.0
290
     0
  0
SCALE
  5
1C8
102
{ACAD_REACTORS
330
1B7
102
}
330
1B7
100
AcDbScale
 70
     0
300
100:1
140
100.0
141
1.0
290
     0
  0
SCALE
  5
1C9
102
{ACAD_REACTORS
330
1B7
102
}
330
1B7
100
AcDbScale
 70
     0
300
1/128" = 1'-0"
140
0.0078125
141
12.0
290
     0
  0
SCALE
  5
1CA
102
{ACAD_REACTORS
330
1B7
102
}
330
1B7
100
AcDbScale
 70
     0
300
1/64" = 1'-0"
140
0.015625
141
12.0
290
     0
  0
SCALE
  5
1CB
102
{ACAD_REACTORS
330
1B7
102
}
330
1B7
100
AcDbScale
 70
     0
300
1/32" = 1'-0"
140
0.03125
141
12.0
290
     0
  0
SCALE
  5
1CC
102
{ACAD_REACTORS
330
1B7
102
}
330
1B7
100
AcDbScale
 70
     0
300
1/16" = 1'-0"
140
0.0625
141
12.0
290
     0
  0
SCALE
  5
1CD
102
{ACAD_REACTORS
330
1B7
102
}
330
1B7
100
AcDbScale
 70
     0
300
3/32" = 1'-0"
140
0.09375
141
12.0
290
     0
  0
SCALE
  5
1CE
102
{ACAD_REACTORS
330
1B7
102
}
330
1B7
100
AcDbScale
 70
     0
300
1/8" = 1'-0"
140
0.125
141
12.0
290
     0
  0
SCALE
  5
1CF
102
{ACAD_REACTORS
330
1B7
102
}
330
1B7
100
AcDbScale
 70
     0
300
3/16" = 1'-0"
140
0.1875
141
12.0
290
     0
  0
SCALE
  5
1D0
102
{ACAD_REACTORS
330
1B7
102
}
330
1B7
100
AcDbScale
 70
     0
300
1/4" = 1'-0"
140
0.25
141
12.0
290
     0
  0
SCALE
  5
1D1
102
{ACAD_REACTORS
330
1B7
102
}
330
1B7
100
AcDbScale
 70
     0
300
3/8" = 1'-0"
140
0.375
141
12.0
290
     0
  0
SCALE
  5
1D2
102
{ACAD_REACTORS
330
1B7
102
}
330
1B7
100
AcDbScale
 70
     0
300
1/2" = 1'-0"
140
0.5
141
12.0
290
     0
  0
SCALE
  5
1D3
102
{ACAD_REACTORS
330
1B7
102
}
330
1B7
100
AcDbScale
 70
     0
300
3/4" = 1'-0"
140
0.75
141
12.0
290
     0
  0
SCALE
  5
1D4
102
{ACAD_REACTORS
330
1B7
102
}
330
1B7
100
AcDbScale
 70
     0
300
1" = 1'-0"
140
1.0
141
12.0
290
     0
  0
SCALE
  5
1D5
102
{ACAD_REACTORS
330
1B7
102
}
330
1B7
100
AcDbScale
 70
     0
300
1-1/2" = 1'-0"
140
1.5
141
12.0
290
     0
  0
SCALE
  5
1D6
102
{ACAD_REACTORS
330
1B7
102
}
330
1B7
100
AcDbScale
 70
     0
300
3" = 1'-0"
140
3.0
141
12.0
290
     0
  0
SCALE
  5
1D7
102
{ACAD_REACTORS
330
1B7
102
}
330
1B7
100
AcDbScale
 70
     0
300
6" = 1'-0"
140
6.0
141
12.0
290
     0
  0
SCALE
  5
1D8
102
{ACAD_REACTORS
330
1B7
102
}
330
1B7
100
AcDbScale
 70
     0
300
1'-0" = 1'-0"
140
12.0
141
12.0
290
     0
  0
VISUALSTYLE
  5
1E2
102
{ACAD_REACTORS
330
1DD
102
}
102
{ACAD_XDICTIONARY
360
20B
102
}
330
1DD
100
AcDbVisualStyle
  2
2dWireframe
 70
     4
 71
     0
 72
     2
 73
     0
 90
        0
 40
-0.6
 41
-30.0
 62
     5
 63
     7
 74
     1
 91
        4
 64
     7
 65
   257
 75
     1
175
     1
 42
1.0
 92
        0
 66
   257
 43
1.0
 76
     1
 77
     6
 78
     2
 67
     7
 79
     5
170
     0
171
     0
290
     0
174
     0
 93
        1
 44
0.0
173
     0
291
     0
 45
0.0
1001
ACAD
1000
AcDbSavedByObjectVersion
1070
     0
  0
VISUALSTYLE
  5
1E4
102
{ACAD_REACTORS
330
1DD
102
}
102
{ACAD_XDICTIONARY
360
20F
102
}
330
1DD
100
AcDbVisualStyle
  2
3D Hidden
 70
     6
 71
     1
 72
     2
 73
     2
 90
        0
 40
-0.6
 41
-30.0
 62
     5
 63
     7
 74
     2
 91
        2
 64
     7
 65
   257
 75
     2
175
     1
 42
40.0
 92
        0
 66
   257
 43
1.0
 76
     1
 77
     6
 78
     2
 67
     7
 79
     3
170
     0
171
     0
290
     0
174
     0
 93
        1
 44
0.0
173
     0
291
     0
 45
0.0
1001
ACAD
1000
AcDbSavedByObjectVersion
1070
     0
  0
VISUALSTYLE
  5
1E3
102
{ACAD_REACTORS
330
1DD
102
}
102
{ACAD_XDICTIONARY
360
20D
102
}
330
1DD
100
AcDbVisualStyle
  2
3dWireframe
 70
     5
 71
     0
 72
     2
 73
     0
 90
        0
 40
-0.6
 41
-30.0
 62
     5
 63
     7
 74
     1
 91
        4
 64
     7
 65
   257
 75
     1
175
     1
 42
1.0
 92
        0
 66
   257
 43
1.0
 76
     1
 77
     6
 78
     2
 67
     7
 79
     5
170
     0
171
     0
290
     0
174
     0
 93
        1
 44
0.0
173
     0
291
     0
 45
0.0
1001
ACAD
1000
AcDbSavedByObjectVersion
1070
     0
  0
VISUALSTYLE
  5
1E5
102
{ACAD_REACTORS
330
1DD
102
}
102
{ACAD_XDICTIONARY
360
211
102
}
330
1DD
100
AcDbVisualStyle
  2
Basic
 70
     7
 71
     1
 72
     0
 73
     1
 90
        0
 40
-0.6
 41
-30.0
 62
     5
 63
     7
 74
     0
 91
        4
 64
     7
 65
   257
 75
     1
175
     1
 42
1.0
 92
        8
 66
     7
 43
1.0
 76
     1
 77
     6
 78
     2
 67
     7
 79
     5
170
     0
171
     0
290
     0
174
     0
 93
        1
 44
0.0
173
     0
291
     1
 45
0.0
1001
ACAD
1000
AcDbSavedByObjectVersion
1070
     0
  0
VISUALSTYLE
  5
1E9
102
{ACAD_REACTORS
330
1DD
102
}
102
{ACAD_XDICTIONARY
360
219
102
}
330
1DD
100
AcDbVisualStyle
  2
Brighten
 70
    12
 71
     2
 72
     2
 73
     0
 90
        0
 40
-0.6
 41
-30.0
 62
     5
 63
     7
 74
     1
 91
        4
 64
     7
 65
   257
 75
     1
175
     1
 42
1.0
 92
        8
 66
     7
 43
1.0
 76
     1
 77
     6
 78
     2
 67
     7
 79
     5
170
     0
171
     0
290
     0
174
     0
 93
        1
 44
50.0
173
     0
291
     1
 45
0.0
1001
ACAD
1000
AcDbSavedByObjectVersion
1070
     0
  0
VISUALSTYLE
  5
1ED
102
{ACAD_REACTORS
330
1DD
102
}
102
{ACAD_XDICTIONARY
360
221
102
}
330
1DD
100
AcDbVisualStyle
  2
ColorChange
 70
    16
 71
     2
 72
     2
 73
     3
 90
        0
 40
-0.6
 41
-30.0
 62
     5
 63
     8
 74
     1
 91
        4
 64
     7
 65
   257
 75
     1
175
     1
 42
1.0
 92
        8
 66
     8
 43
1.0
 76
     1
 77
     6
 78
     2
 67
     7
 79
     5
170
     0
171
     0
290
     0
174
     0
 93
        1
 44
0.0
173
     0
291
     1
 45
0.0
1001
ACAD
1000
AcDbSavedByObjectVersion
1070
     0
  0
VISUALSTYLE
  5
1E7
102
{ACAD_REACTORS
330
1DD
102
}
102
{ACAD_XDICTIONARY
360
215
102
}
330
1DD
100
AcDbVisualStyle
  2
Conceptual
 70
     9
 71
     3
 72
     2
 73
     0
 90
        0
 40
-0.6
 41
-30.0
 62
     5
 63
     7
 74
     2
 91
        2
 64
     7
 65
   257
 75
     1
175
     1
 42
40.0
 92
        8
 66
     7
 43
1.0
 76
     1
 77
     6
 78
     2
 67
     7
 79
     3
170
     0
171
     0
290
     0
174
     0
 93
        1
 44
0.0
173
     0
291
     0
 45
0.0
1001
ACAD
1000
AcDbSavedByObjectVersion
1070
     0
  0
VISUALSTYLE
  5
1E8
102
{ACAD_REACTORS
330
1DD
102
}
102
{ACAD_XDICTIONARY
360
217
102
}
330
1DD
100
AcDbVisualStyle
  2
Dim
 70
    11
 71
     2
 72
     2
 73
     0
 90
        0
 40
-0.6
 41
-30.0
 62
     5
 63
     7
 74
     1
 91
        4
 64
     7
 65
   257
 75
     1
175
     1
 42
1.0
 92
        8
 66
     7
 43
1.0
 76
     1
 77
     6
 78
     2
 67
     7
 79
     5
170
     0
171
     0
290
     0
174
     0
 93
        1
 44
-50.0
173
     0
291
     1
 45
0.0
1001
ACAD
1000
AcDbSavedByObjectVersion
1070
     0
  0
VISUALSTYLE
  5
1EC
102
{ACAD_REACTORS
330
1DD
102
}
102
{ACAD_XDICTIONARY
360
21F
102
}
330
1DD
100
AcDbVisualStyle
  2
Facepattern
 70
    15
 71
     2
 72
     2
 73
     0
 90
        0
 40
-0.6
 41
-30.0
 62
     5
 63
     7
 74
     1
 91
        4
 64
     7
 65
   257
 75
     1
175
     1
 42
1.0
 92
        8
 66
     7
 43
1.0
 76
     1
 77
     6
 78
     2
 67
     7
 79
     5
170
     0
171
     0
290
     0
174
     0
 93
        1
 44
0.0
173
     0
291
     1
 45
0.0
1001
ACAD
1000
AcDbSavedByObjectVersion
1070
     0
  0
VISUALSTYLE
  5
1DE
102
{ACAD_REACTORS
330
1DD
102
}
102
{ACAD_XDICTIONARY
360
203
102
}
330
1DD
100
AcDbVisualStyle
  2
Flat
 70
     0
 71
     2
 72
     1
 73
     1
 90
        2
 40
-0.6
 41
30.0
 62
     5
 63
     7
 74
     0
 91
        4
 64
     7
 65
   257
 75
     1
175
     1
 42
1.0
 92
        8
 66
     7
 43
1.0
 76
     1
 77
     6
 78
     2
 67
     7
 79
     5
170
     0
171
     0
290
     0
174
     0
 93
       13
 44
0.0
173
     0
291
     1
 45
0.0
1001
ACAD
1000
AcDbSavedByObjectVersion
1070
     0
  0
VISUALSTYLE
  5
1DF
102
{ACAD_REACTORS
330
1DD
102
}
102
{ACAD_XDICTIONARY
360
205
102
}
330
1DD
100
AcDbVisualStyle
  2
FlatWithEdges
 70
     1
 71
     2
 72
     1
 73
     1
 90
        2
 40
-0.6
 41
30.0
 62
     5
 63
     7
 74
     1
 91
        4
 64
     7
 65
   257
 75
     1
175
     1
 42
1.0
 92
        0
 66
   257
 43
1.0
 76
     1
 77
     6
 78
     2
 67
     7
 79
     5
170
     0
171
     0
290
     0
174
     0
 93
       13
 44
0.0
173
     0
291
     1
 45
0.0
1001
ACAD
1000
AcDbSavedByObjectVersion
1070
     0
  0
VISUALSTYLE
  5
1E0
102
{ACAD_REACTORS
330
1DD
102
}
102
{ACAD_XDICTIONARY
360
207
102
}
330
1DD
100
AcDbVisualStyle
  2
Gouraud
 70
     2
 71
     2
 72
     2
 73
     1
 90
        2
 40
-0.6
 41
30.0
 62
     5
 63
     7
 74
     0
 91
        4
 64
     7
 65
   257
 75
     1
175
     1
 42
1.0
 92
        0
 66
     7
 43
1.0
 76
     1
 77
     6
 78
     2
 67
     7
 79
     5
170
     0
171
     0
290
     0
174
     0
 93
       13
 44
0.0
173
     0
291
     1
 45
0.0
1001
ACAD
1000
AcDbSavedByObjectVersion
1070
     0
  0
VISUALSTYLE
  5
1E1
102
{ACAD_REACTORS
330
1DD
102
}
102
{ACAD_XDICTIONARY
360
209
102
}
330
1DD
100
AcDbVisualStyle
  2
GouraudWithEdges
 70
     3
 71
     2
 72
     2
 73
     1
 90
        2
 40
-0.6
 41
30.0
 62
     5
 63
     7
 74
     1
 91
        4
 64
     7
 65
   257
 75
     1
175
     1
 42
1.0
 92
        0
 66
   257
 43
1.0
 76
     1
 77
     6
 78
     2
 67
     7
 79
     5
170
     0
171
     0
290
     0
174
     0
 93
       13
 44
0.0
173
     0
291
     1
 45
0.0
1001
ACAD
1000
AcDbSavedByObjectVersion
1070
     0
  0
VISUALSTYLE
  5
1EB
102
{ACAD_REACTORS
330
1DD
102
}
102
{ACAD_XDICTIONARY
360
21D
102
}
330
1DD
100
AcDbVisualStyle
  2
Linepattern
 70
    14
 71
     2
 72
     2
 73
     0
 90
        0
 40
-0.6
 41
-30.0
 62
     5
 63
     7
 74
     1
 91
        4
 64
     7
 65
   257
 75
     7
175
     7
 42
1.0
 92
        8
 66
     7
 43
1.0
 76
     1
 77
     6
 78
     2
 67
     7
 79
     5
170
     0
171
     0
290
     0
174
     0
 93
        1
 44
0.0
173
     0
291
     1
 45
0.0
1001
ACAD
1000
AcDbSavedByObjectVersion
1070
     0
  0
VISUALSTYLE
  5
1E6
102
{ACAD_REACTORS
330
1DD
102
}
102
{ACAD_XDICTIONARY
360
213
102
}
330
1DD
100
AcDbVisualStyle
  2
Realistic
 70
     8
 71
     2
 72
     2
 73
     0
 90
        0
 40
-0.6
 41
-30.0
 62
     5
 63
     7
 74
     1
 91
        0
 64
     7
 65
   257
 75
     1
175
     1
 42
1.0
 92
        8
 66
     8
 43
1.0
 76
     1
 77
     6
 78
     2
 67
     7
 79
     5
170
     0
171
     0
290
     0
174
     0
 93
       13
 44
0.0
173
     0
291
     0
 45
0.0
1001
ACAD
1000
AcDbSavedByObjectVersion
1070
     0
  0
VISUALSTYLE
  5
1EA
102
{ACAD_REACTORS
330
1DD
102
}
102
{ACAD_XDICTIONARY
360
21B
102
}
330
1DD
100
AcDbVisualStyle
  2
Thicken
 70
    13
 71
     2
 72
     2
 73
     0
 90
        0
 40
-0.6
 41
-30.0
 62
     5
 63
     7
 74
     1
 91
        4
 64
     7
 65
   257
 75
     1
175
     1
 42
1.0
 92
       12
 66
     7
 43
1.0
 76
     1
 77
     6
 78
     2
 67
     7
 79
     5
170
     0
171
     0
290
     0
174
     0
 93
        1
 44
0.0
173
     0
291
     1
 45
0.0
1001
ACAD
1000
AcDbSavedByObjectVersion
1070
     0
  0
DICTIONARYVAR
  5
202
102
{ACAD_REACTORS
330
1FA
102
}
330
1FA
100
DictionaryVariables
280
     0
  1
1:1
  0
DICTIONARYVAR
  5
1FE
102
{ACAD_REACTORS
330
1FA
102
}
330
1FA
100
DictionaryVariables
280
     0
  1
2
  0
DICTIONARYVAR
  5
1FF
102
{ACAD_REACTORS
330
1FA
102
}
330
1FA
100
DictionaryVariables
280
     0
  1
1
  0
DICTIONARYVAR
  5
1FD
102
{ACAD_REACTORS
330
1FA
102
}
330
1FA
100
DictionaryVariables
280
     0
  1
0
  0
DICTIONARY
  5
225
330
1F0
100
AcDbDictionary
280
     1
281
     1
  3
ACAD_XREC_ROUNDTRIP
360
226
  0
DICTIONARY
  5
223
330
1EF
100
AcDbDictionary
280
     1
281
     1
  3
ACAD_XREC_ROUNDTRIP
360
224
  0
DICTIONARY
  5
227
330
1F1
100
AcDbDictionary
280
     1
281
     1
  3
ACAD_XREC_ROUNDTRIP
360
228
  0
DICTIONARY
  5
20B
330
1E2
100
AcDbDictionary
280
     1
281
     1
  3
ACAD_XREC_ROUNDTRIP
360
20C
  0
DICTIONARY
  5
20F
330
1E4
100
AcDbDictionary
280
     1
281
     1
  3
ACAD_XREC_ROUNDTRIP
360
210
  0
DICTIONARY
  5
20D
330
1E3
100
AcDbDictionary
280
     1
281
     1
  3
ACAD_XREC_ROUNDTRIP
360
20E
  0
DICTIONARY
  5
211
330
1E5
100
AcDbDictionary
280
     1
281
     1
  3
ACAD_XREC_ROUNDTRIP
360
212
  0
DICTIONARY
  5
219
330
1E9
100
AcDbDictionary
280
     1
281
     1
  3
ACAD_XREC_ROUNDTRIP
360
21A
  0
DICTIONARY
  5
221
330
1ED
100
AcDbDictionary
280
     1
281
     1
  3
ACAD_XREC_ROUNDTRIP
360
222
  0
DICTIONARY
  5
215
330
1E7
100
AcDbDictionary
280
     1
281
     1
  3
ACAD_XREC_ROUNDTRIP
360
216
  0
DICTIONARY
  5
217
330
1E8
100
AcDbDictionary
280
     1
281
     1
  3
ACAD_XREC_ROUNDTRIP
360
218
  0
DICTIONARY
  5
21F
330
1EC
100
AcDbDictionary
280
     1
281
     1
  3
ACAD_XREC_ROUNDTRIP
360
220
  0
DICTIONARY
  5
203
330
1DE
100
AcDbDictionary
280
     1
281
     1
  3
ACAD_XREC_ROUNDTRIP
360
204
  0
DICTIONARY
  5
205
330
1DF
100
AcDbDictionary
280
     1
281
     1
  3
ACAD_XREC_ROUNDTRIP
360
206
  0
DICTIONARY
  5
207
330
1E0
100
AcDbDictionary
280
     1
281
     1
  3
ACAD_XREC_ROUNDTRIP
360
208
  0
DICTIONARY
  5
209
330
1E1
100
AcDbDictionary
280
     1
281
     1
  3
ACAD_XREC_ROUNDTRIP
360
20A
  0
DICTIONARY
  5
21D
330
1EB
100
AcDbDictionary
280
     1
281
     1
  3
ACAD_XREC_ROUNDTRIP
360
21E
  0
DICTIONARY
  5
213
330
1E6
100
AcDbDictionary
280
     1
281
     1
  3
ACAD_XREC_ROUNDTRIP
360
214
  0
DICTIONARY
  5
21B
330
1EA
100
AcDbDictionary
280
     1
281
     1
  3
ACAD_XREC_ROUNDTRIP
360
21C
  0
XRECORD
  5
226
102
{ACAD_REACTORS
330
225
102
}
330
225
100
AcDbXrecord
280
     1
102
MATERIAL
148
0.0
149
0.0
149
0.0
 93
        0
 94
      127
282
     0
 72
     1
 77
     1
171
     1
175
     1
179
     1
273
     0
  0
XRECORD
  5
224
102
{ACAD_REACTORS
330
223
102
}
330
223
100
AcDbXrecord
280
     1
102
MATERIAL
148
0.0
149
0.0
149
0.0
 93
        0
 94
      127
282
     0
 72
     1
 77
     1
171
     1
175
     1
179
     1
273
     0
  0
XRECORD
  5
228
102
{ACAD_REACTORS
330
227
102
}
330
227
100
AcDbXrecord
280
     1
102
MATERIAL
148
0.0
149
0.0
149
0.0
 93
        0
 94
      127
282
     0
 72
     1
 77
     1
171
     1
175
     1
179
     1
273
     0
  0
XRECORD
  5
20C
102
{ACAD_REACTORS
330
20B
102
}
330
20B
100
AcDbXrecord
280
     1
102
RTVSPropertyOp0
 70
     1
102
RTVSPropertyOp1
 70
     1
102
RTVSPropertyOp2
 70
     1
102
RTVSPropertyOp3
 70
     1
102
RTVSPropertyOp4
 70
     1
102
RTVSPropertyOp5
 70
     1
102
RTVSPropertyOp6
 70
     1
102
RTVSPropertyOp7
 70
     1
102
RTVSPropertyOp8
 70
     1
102
RTVSPropertyOp9
 70
     1
102
RTVSPropertyOp10
 70
     1
102
RTVSPropertyOp11
 70
     1
102
RTVSPropertyOp12
 70
     1
102
RTVSPropertyOp13
 70
     1
102
RTVSPropertyOp14
 70
     1
102
RTVSPropertyOp15
 70
     1
102
RTVSPropertyOp16
 70
     1
102
RTVSPropertyOp17
 70
     1
102
RTVSPropertyOp18
 70
     1
102
RTVSPropertyOp19
 70
     1
102
RTVSPropertyOp20
 70
     1
102
RTVSPropertyOp21
 70
     1
102
RTVSPropertyOp22
 70
     1
102
RTVSPropertyOp23
 70
     1
102
RTVSPropertyOp24
 70
     1
102
RTVSPropertyOp25
 70
     1
102
RTVSPropertyOp26
 70
     1
102
RTVSPropertyOp27
 70
     1
102
RTVSPropertyOp28
 70
     1
102
RTVSPropertyOp29
 70
     1
102
RTVSPropertyOp30
 70
     1
102
RTVSPropertyOp31
 70
     1
102
RTVSPropertyOp32
 70
     1
  0
XRECORD
  5
210
102
{ACAD_REACTORS
330
20F
102
}
330
20F
100
AcDbXrecord
280
     1
102
RTVSPropertyOp0
 70
     1
102
RTVSPropertyOp1
 70
     1
102
RTVSPropertyOp2
 70
     1
102
RTVSPropertyOp3
 70
     1
102
RTVSPropertyOp4
 70
     1
102
RTVSPropertyOp5
 70
     1
102
RTVSPropertyOp6
 70
     1
102
RTVSPropertyOp7
 70
     1
102
RTVSPropertyOp8
 70
     1
102
RTVSPropertyOp9
 70
     1
102
RTVSPropertyOp10
 70
     1
102
RTVSPropertyOp11
 70
     1
102
RTVSPropertyOp12
 70
     1
102
RTVSPropertyOp13
 70
     1
102
RTVSPropertyOp14
 70
     1
102
RTVSPropertyOp15
 70
     1
102
RTVSPropertyOp16
 70
     1
102
RTVSPropertyOp17
 70
     1
102
RTVSPropertyOp18
 70
     1
102
RTVSPropertyOp19
 70
     1
102
RTVSPropertyOp20
 70
     1
102
RTVSPropertyOp21
 70
     1
102
RTVSPropertyOp22
 70
     1
102
RTVSPropertyOp23
 70
     1
102
RTVSPropertyOp24
 70
     1
102
RTVSPropertyOp25
 70
     1
102
RTVSPropertyOp26
 70
     1
102
RTVSPropertyOp27
 70
     1
102
RTVSPropertyOp28
 70
     1
102
RTVSPropertyOp29
 70
     1
102
RTVSPropertyOp30
 70
     1
102
RTVSPropertyOp31
 70
     1
102
RTVSPropertyOp32
 70
     1
  0
XRECORD
  5
20E
102
{ACAD_REACTORS
330
20D
102
}
330
20D
100
AcDbXrecord
280
     1
102
RTVSPropertyOp0
 70
     1
102
RTVSPropertyOp1
 70
     1
102
RTVSPropertyOp2
 70
     1
102
RTVSPropertyOp3
 70
     1
102
RTVSPropertyOp4
 70
     1
102
RTVSPropertyOp5
 70
     1
102
RTVSPropertyOp6
 70
     1
102
RTVSPropertyOp7
 70
     1
102
RTVSPropertyOp8
 70
     1
102
RTVSPropertyOp9
 70
     1
102
RTVSPropertyOp10
 70
     1
102
RTVSPropertyOp11
 70
     1
102
RTVSPropertyOp12
 70
     1
102
RTVSPropertyOp13
 70
     1
102
RTVSPropertyOp14
 70
     1
102
RTVSPropertyOp15
 70
     1
102
RTVSPropertyOp16
 70
     1
102
RTVSPropertyOp17
 70
     1
102
RTVSPropertyOp18
 70
     1
102
RTVSPropertyOp19
 70
     1
102
RTVSPropertyOp20
 70
     1
102
RTVSPropertyOp21
 70
     1
102
RTVSPropertyOp22
 70
     1
102
RTVSPropertyOp23
 70
     1
102
RTVSPropertyOp24
 70
     1
102
RTVSPropertyOp25
 70
     1
102
RTVSPropertyOp26
 70
     1
102
RTVSPropertyOp27
 70
     1
102
RTVSPropertyOp28
 70
     1
102
RTVSPropertyOp29
 70
     1
102
RTVSPropertyOp30
 70
     1
102
RTVSPropertyOp31
 70
     1
102
RTVSPropertyOp32
 70
     1
  0
XRECORD
  5
212
102
{ACAD_REACTORS
330
211
102
}
330
211
100
AcDbXrecord
280
     1
102
RTVSPropertyOp0
 70
     1
102
RTVSPropertyOp1
 70
     1
102
RTVSPropertyOp2
 70
     1
102
RTVSPropertyOp3
 70
     1
102
RTVSPropertyOp4
 70
     1
102
RTVSPropertyOp5
 70
     1
102
RTVSPropertyOp6
 70
     1
102
RTVSPropertyOp7
 70
     1
102
RTVSPropertyOp8
 70
     1
102
RTVSPropertyOp9
 70
     1
102
RTVSPropertyOp10
 70
     1
102
RTVSPropertyOp11
 70
     1
102
RTVSPropertyOp12
 70
     1
102
RTVSPropertyOp13
 70
     1
102
RTVSPropertyOp14
 70
     1
102
RTVSPropertyOp15
 70
     1
102
RTVSPropertyOp16
 70
     1
102
RTVSPropertyOp17
 70
     1
102
RTVSPropertyOp18
 70
     1
102
RTVSPropertyOp19
 70
     1
102
RTVSPropertyOp20
 70
     1
102
RTVSPropertyOp21
 70
     1
102
RTVSPropertyOp22
 70
     1
102
RTVSPropertyOp23
 70
     1
102
RTVSPropertyOp24
 70
     1
102
RTVSPropertyOp25
 70
     1
102
RTVSPropertyOp26
 70
     1
102
RTVSPropertyOp27
 70
     1
102
RTVSPropertyOp28
 70
     1
102
RTVSPropertyOp29
 70
     1
102
RTVSPropertyOp30
 70
     1
102
RTVSPropertyOp31
 70
     1
102
RTVSPropertyOp32
 70
     1
  0
XRECORD
  5
21A
102
{ACAD_REACTORS
330
219
102
}
330
219
100
AcDbXrecord
280
     1
102
RTVSPropertyOp0
 70
     1
102
RTVSPropertyOp1
 70
     1
102
RTVSPropertyOp2
 70
     1
102
RTVSPropertyOp3
 70
     1
102
RTVSPropertyOp4
 70
     1
102
RTVSPropertyOp5
 70
     1
102
RTVSPropertyOp6
 70
     1
102
RTVSPropertyOp7
 70
     1
102
RTVSPropertyOp8
 70
     1
102
RTVSPropertyOp9
 70
     1
102
RTVSPropertyOp10
 70
     1
102
RTVSPropertyOp11
 70
     1
102
RTVSPropertyOp12
 70
     1
102
RTVSPropertyOp13
 70
     1
102
RTVSPropertyOp14
 70
     1
102
RTVSPropertyOp15
 70
     1
102
RTVSPropertyOp16
 70
     1
102
RTVSPropertyOp17
 70
     1
102
RTVSPropertyOp18
 70
     1
102
RTVSPropertyOp19
 70
     1
102
RTVSPropertyOp20
 70
     1
102
RTVSPropertyOp21
 70
     1
102
RTVSPropertyOp22
 70
     1
102
RTVSPropertyOp23
 70
     1
102
RTVSPropertyOp24
 70
     1
102
RTVSPropertyOp25
 70
     1
102
RTVSPropertyOp26
 70
     1
102
RTVSPropertyOp27
 70
     1
102
RTVSPropertyOp28
 70
     1
102
RTVSPropertyOp29
 70
     1
102
RTVSPropertyOp30
 70
     1
102
RTVSPropertyOp31
 70
     1
102
RTVSPropertyOp32
 70
     1
  0
XRECORD
  5
222
102
{ACAD_REACTORS
330
221
102
}
330
221
100
AcDbXrecord
280
     1
102
RTVSPropertyOp0
 70
     1
102
RTVSPropertyOp1
 70
     1
102
RTVSPropertyOp2
 70
     1
102
RTVSPropertyOp3
 70
     1
102
RTVSPropertyOp4
 70
     1
102
RTVSPropertyOp5
 70
     1
102
RTVSPropertyOp6
 70
     1
102
RTVSPropertyOp7
 70
     1
102
RTVSPropertyOp8
 70
     1
102
RTVSPropertyOp9
 70
     1
102
RTVSPropertyOp10
 70
     1
102
RTVSPropertyOp11
 70
     1
102
RTVSPropertyOp12
 70
     1
102
RTVSPropertyOp13
 70
     1
102
RTVSPropertyOp14
 70
     1
102
RTVSPropertyOp15
 70
     1
102
RTVSPropertyOp16
 70
     1
102
RTVSPropertyOp17
 70
     1
102
RTVSPropertyOp18
 70
     1
102
RTVSPropertyOp19
 70
     1
102
RTVSPropertyOp20
 70
     1
102
RTVSPropertyOp21
 70
     1
102
RTVSPropertyOp22
 70
     1
102
RTVSPropertyOp23
 70
     1
102
RTVSPropertyOp24
 70
     1
102
RTVSPropertyOp25
 70
     1
102
RTVSPropertyOp26
 70
     1
102
RTVSPropertyOp27
 70
     1
102
RTVSPropertyOp28
 70
     1
102
RTVSPropertyOp29
 70
     1
102
RTVSPropertyOp30
 70
     1
102
RTVSPropertyOp31
 70
     1
102
RTVSPropertyOp32
 70
     1
  0
XRECORD
  5
216
102
{ACAD_REACTORS
330
215
102
}
330
215
100
AcDbXrecord
280
     1
102
RTVSPropertyOp0
 70
     1
102
RTVSPropertyOp1
 70
     1
102
RTVSPropertyOp2
 70
     1
102
RTVSPropertyOp3
 70
     1
102
RTVSPropertyOp4
 70
     1
102
RTVSPropertyOp5
 70
     1
102
RTVSPropertyOp6
 70
     1
102
RTVSPropertyOp7
 70
     1
102
RTVSPropertyOp8
 70
     1
102
RTVSPropertyOp9
 70
     1
102
RTVSPropertyOp10
 70
     1
102
RTVSPropertyOp11
 70
     1
102
RTVSPropertyOp12
 70
     1
102
RTVSPropertyOp13
 70
     1
102
RTVSPropertyOp14
 70
     1
102
RTVSPropertyOp15
 70
     1
102
RTVSPropertyOp16
 70
     1
102
RTVSPropertyOp17
 70
     1
102
RTVSPropertyOp18
 70
     1
102
RTVSPropertyOp19
 70
     1
102
RTVSPropertyOp20
 70
     1
102
RTVSPropertyOp21
 70
     1
102
RTVSPropertyOp22
 70
     1
102
RTVSPropertyOp23
 70
     1
102
RTVSPropertyOp24
 70
     1
102
RTVSPropertyOp25
 70
     1
102
RTVSPropertyOp26
 70
     1
102
RTVSPropertyOp27
 70
     1
102
RTVSPropertyOp28
 70
     1
102
RTVSPropertyOp29
 70
     1
102
RTVSPropertyOp30
 70
     1
102
RTVSPropertyOp31
 70
     1
102
RTVSPropertyOp32
 70
     1
  0
XRECORD
  5
218
102
{ACAD_REACTORS
330
217
102
}
330
217
100
AcDbXrecord
280
     1
102
RTVSPropertyOp0
 70
     1
102
RTVSPropertyOp1
 70
     1
102
RTVSPropertyOp2
 70
     1
102
RTVSPropertyOp3
 70
     1
102
RTVSPropertyOp4
 70
     1
102
RTVSPropertyOp5
 70
     1
102
RTVSPropertyOp6
 70
     1
102
RTVSPropertyOp7
 70
     1
102
RTVSPropertyOp8
 70
     1
102
RTVSPropertyOp9
 70
     1
102
RTVSPropertyOp10
 70
     1
102
RTVSPropertyOp11
 70
     1
102
RTVSPropertyOp12
 70
     1
102
RTVSPropertyOp13
 70
     1
102
RTVSPropertyOp14
 70
     1
102
RTVSPropertyOp15
 70
     1
102
RTVSPropertyOp16
 70
     1
102
RTVSPropertyOp17
 70
     1
102
RTVSPropertyOp18
 70
     1
102
RTVSPropertyOp19
 70
     1
102
RTVSPropertyOp20
 70
     1
102
RTVSPropertyOp21
 70
     1
102
RTVSPropertyOp22
 70
     1
102
RTVSPropertyOp23
 70
     1
102
RTVSPropertyOp24
 70
     1
102
RTVSPropertyOp25
 70
     1
102
RTVSPropertyOp26
 70
     1
102
RTVSPropertyOp27
 70
     1
102
RTVSPropertyOp28
 70
     1
102
RTVSPropertyOp29
 70
     1
102
RTVSPropertyOp30
 70
     1
102
RTVSPropertyOp31
 70
     1
102
RTVSPropertyOp32
 70
     1
  0
XRECORD
  5
220
102
{ACAD_REACTORS
330
21F
102
}
330
21F
100
AcDbXrecord
280
     1
102
RTVSPropertyOp0
 70
     1
102
RTVSPropertyOp1
 70
     1
102
RTVSPropertyOp2
 70
     1
102
RTVSPropertyOp3
 70
     1
102
RTVSPropertyOp4
 70
     1
102
RTVSPropertyOp5
 70
     1
102
RTVSPropertyOp6
 70
     1
102
RTVSPropertyOp7
 70
     1
102
RTVSPropertyOp8
 70
     1
102
RTVSPropertyOp9
 70
     1
102
RTVSPropertyOp10
 70
     1
102
RTVSPropertyOp11
 70
     1
102
RTVSPropertyOp12
 70
     1
102
RTVSPropertyOp13
 70
     1
102
RTVSPropertyOp14
 70
     1
102
RTVSPropertyOp15
 70
     1
102
RTVSPropertyOp16
 70
     1
102
RTVSPropertyOp17
 70
     1
102
RTVSPropertyOp18
 70
     1
102
RTVSPropertyOp19
 70
     1
102
RTVSPropertyOp20
 70
     1
102
RTVSPropertyOp21
 70
     1
102
RTVSPropertyOp22
 70
     1
102
RTVSPropertyOp23
 70
     1
102
RTVSPropertyOp24
 70
     1
102
RTVSPropertyOp25
 70
     1
102
RTVSPropertyOp26
 70
     1
102
RTVSPropertyOp27
 70
     1
102
RTVSPropertyOp28
 70
     1
102
RTVSPropertyOp29
 70
     1
102
RTVSPropertyOp30
 70
     1
102
RTVSPropertyOp31
 70
     1
102
RTVSPropertyOp32
 70
     1
  0
XRECORD
  5
204
102
{ACAD_REACTORS
330
203
102
}
330
203
100
AcDbXrecord
280
     1
102
RTVSPropertyOp0
 70
     1
102
RTVSPropertyOp1
 70
     1
102
RTVSPropertyOp2
 70
     1
102
RTVSPropertyOp3
 70
     1
102
RTVSPropertyOp4
 70
     1
102
RTVSPropertyOp5
 70
     1
102
RTVSPropertyOp6
 70
     1
102
RTVSPropertyOp7
 70
     1
102
RTVSPropertyOp8
 70
     1
102
RTVSPropertyOp9
 70
     1
102
RTVSPropertyOp10
 70
     1
102
RTVSPropertyOp11
 70
     1
102
RTVSPropertyOp12
 70
     1
102
RTVSPropertyOp13
 70
     1
102
RTVSPropertyOp14
 70
     1
102
RTVSPropertyOp15
 70
     1
102
RTVSPropertyOp16
 70
     1
102
RTVSPropertyOp17
 70
     1
102
RTVSPropertyOp18
 70
     1
102
RTVSPropertyOp19
 70
     1
102
RTVSPropertyOp20
 70
     1
102
RTVSPropertyOp21
 70
     1
102
RTVSPropertyOp22
 70
     1
102
RTVSPropertyOp23
 70
     1
102
RTVSPropertyOp24
 70
     1
102
RTVSPropertyOp25
 70
     1
102
RTVSPropertyOp26
 70
     1
102
RTVSPropertyOp27
 70
     1
102
RTVSPropertyOp28
 70
     1
102
RTVSPropertyOp29
 70
     1
102
RTVSPropertyOp30
 70
     1
102
RTVSPropertyOp31
 70
     1
102
RTVSPropertyOp32
 70
     1
  0
XRECORD
  5
206
102
{ACAD_REACTORS
330
205
102
}
330
205
100
AcDbXrecord
280
     1
102
RTVSPropertyOp0
 70
     1
102
RTVSPropertyOp1
 70
     1
102
RTVSPropertyOp2
 70
     1
102
RTVSPropertyOp3
 70
     1
102
RTVSPropertyOp4
 70
     1
102
RTVSPropertyOp5
 70
     1
102
RTVSPropertyOp6
 70
     1
102
RTVSPropertyOp7
 70
     1
102
RTVSPropertyOp8
 70
     1
102
RTVSPropertyOp9
 70
     1
102
RTVSPropertyOp10
 70
     1
102
RTVSPropertyOp11
 70
     1
102
RTVSPropertyOp12
 70
     1
102
RTVSPropertyOp13
 70
     1
102
RTVSPropertyOp14
 70
     1
102
RTVSPropertyOp15
 70
     1
102
RTVSPropertyOp16
 70
     1
102
RTVSPropertyOp17
 70
     1
102
RTVSPropertyOp18
 70
     1
102
RTVSPropertyOp19
 70
     1
102
RTVSPropertyOp20
 70
     1
102
RTVSPropertyOp21
 70
     1
102
RTVSPropertyOp22
 70
     1
102
RTVSPropertyOp23
 70
     1
102
RTVSPropertyOp24
 70
     1
102
RTVSPropertyOp25
 70
     1
102
RTVSPropertyOp26
 70
     1
102
RTVSPropertyOp27
 70
     1
102
RTVSPropertyOp28
 70
     1
102
RTVSPropertyOp29
 70
     1
102
RTVSPropertyOp30
 70
     1
102
RTVSPropertyOp31
 70
     1
102
RTVSPropertyOp32
 70
     1
  0
XRECORD
  5
208
102
{ACAD_REACTORS
330
207
102
}
330
207
100
AcDbXrecord
280
     1
102
RTVSPropertyOp0
 70
     1
102
RTVSPropertyOp1
 70
     1
102
RTVSPropertyOp2
 70
     1
102
RTVSPropertyOp3
 70
     1
102
RTVSPropertyOp4
 70
     1
102
RTVSPropertyOp5
 70
     1
102
RTVSPropertyOp6
 70
     1
102
RTVSPropertyOp7
 70
     1
102
RTVSPropertyOp8
 70
     1
102
RTVSPropertyOp9
 70
     1
102
RTVSPropertyOp10
 70
     1
102
RTVSPropertyOp11
 70
     1
102
RTVSPropertyOp12
 70
     1
102
RTVSPropertyOp13
 70
     1
102
RTVSPropertyOp14
 70
     1
102
RTVSPropertyOp15
 70
     1
102
RTVSPropertyOp16
 70
     1
102
RTVSPropertyOp17
 70
     1
102
RTVSPropertyOp18
 70
     1
102
RTVSPropertyOp19
 70
     1
102
RTVSPropertyOp20
 70
     1
102
RTVSPropertyOp21
 70
     1
102
RTVSPropertyOp22
 70
     1
102
RTVSPropertyOp23
 70
     1
102
RTVSPropertyOp24
 70
     1
102
RTVSPropertyOp25
 70
     1
102
RTVSPropertyOp26
 70
     1
102
RTVSPropertyOp27
 70
     1
102
RTVSPropertyOp28
 70
     1
102
RTVSPropertyOp29
 70
     1
102
RTVSPropertyOp30
 70
     1
102
RTVSPropertyOp31
 70
     1
102
RTVSPropertyOp32
 70
     1
  0
XRECORD
  5
20A
102
{ACAD_REACTORS
330
209
102
}
330
209
100
AcDbXrecord
280
     1
102
RTVSPropertyOp0
 70
     1
102
RTVSPropertyOp1
 70
     1
102
RTVSPropertyOp2
 70
     1
102
RTVSPropertyOp3
 70
     1
102
RTVSPropertyOp4
 70
     1
102
RTVSPropertyOp5
 70
     1
102
RTVSPropertyOp6
 70
     1
102
RTVSPropertyOp7
 70
     1
102
RTVSPropertyOp8
 70
     1
102
RTVSPropertyOp9
 70
     1
102
RTVSPropertyOp10
 70
     1
102
RTVSPropertyOp11
 70
     1
102
RTVSPropertyOp12
 70
     1
102
RTVSPropertyOp13
 70
     1
102
RTVSPropertyOp14
 70
     1
102
RTVSPropertyOp15
 70
     1
102
RTVSPropertyOp16
 70
     1
102
RTVSPropertyOp17
 70
     1
102
RTVSPropertyOp18
 70
     1
102
RTVSPropertyOp19
 70
     1
102
RTVSPropertyOp20
 70
     1
102
RTVSPropertyOp21
 70
     1
102
RTVSPropertyOp22
 70
     1
102
RTVSPropertyOp23
 70
     1
102
RTVSPropertyOp24
 70
     1
102
RTVSPropertyOp25
 70
     1
102
RTVSPropertyOp26
 70
     1
102
RTVSPropertyOp27
 70
     1
102
RTVSPropertyOp28
 70
     1
102
RTVSPropertyOp29
 70
     1
102
RTVSPropertyOp30
 70
     1
102
RTVSPropertyOp31
 70
     1
102
RTVSPropertyOp32
 70
     1
  0
XRECORD
  5
21E
102
{ACAD_REACTORS
330
21D
102
}
330
21D
100
AcDbXrecord
280
     1
102
RTVSPropertyOp0
 70
     1
102
RTVSPropertyOp1
 70
     1
102
RTVSPropertyOp2
 70
     1
102
RTVSPropertyOp3
 70
     1
102
RTVSPropertyOp4
 70
     1
102
RTVSPropertyOp5
 70
     1
102
RTVSPropertyOp6
 70
     1
102
RTVSPropertyOp7
 70
     1
102
RTVSPropertyOp8
 70
     1
102
RTVSPropertyOp9
 70
     1
102
RTVSPropertyOp10
 70
     1
102
RTVSPropertyOp11
 70
     1
102
RTVSPropertyOp12
 70
     1
102
RTVSPropertyOp13
 70
     1
102
RTVSPropertyOp14
 70
     1
102
RTVSPropertyOp15
 70
     1
102
RTVSPropertyOp16
 70
     1
102
RTVSPropertyOp17
 70
     1
102
RTVSPropertyOp18
 70
     1
102
RTVSPropertyOp19
 70
     1
102
RTVSPropertyOp20
 70
     1
102
RTVSPropertyOp21
 70
     1
102
RTVSPropertyOp22
 70
     1
102
RTVSPropertyOp23
 70
     1
102
RTVSPropertyOp24
 70
     1
102
RTVSPropertyOp25
 70
     1
102
RTVSPropertyOp26
 70
     1
102
RTVSPropertyOp27
 70
     1
102
RTVSPropertyOp28
 70
     1
102
RTVSPropertyOp29
 70
     1
102
RTVSPropertyOp30
 70
     1
102
RTVSPropertyOp31
 70
     1
102
RTVSPropertyOp32
 70
     1
  0
XRECORD
  5
214
102
{ACAD_REACTORS
330
213
102
}
330
213
100
AcDbXrecord
280
     1
102
RTVSPropertyOp0
 70
     1
102
RTVSPropertyOp1
 70
     1
102
RTVSPropertyOp2
 70
     1
102
RTVSPropertyOp3
 70
     1
102
RTVSPropertyOp4
 70
     1
102
RTVSPropertyOp5
 70
     1
102
RTVSPropertyOp6
 70
     1
102
RTVSPropertyOp7
 70
     1
102
RTVSPropertyOp8
 70
     1
102
RTVSPropertyOp9
 70
     1
102
RTVSPropertyOp10
 70
     1
102
RTVSPropertyOp11
 70
     1
102
RTVSPropertyOp12
 70
     1
102
RTVSPropertyOp13
 70
     1
102
RTVSPropertyOp14
 70
     1
102
RTVSPropertyOp15
 70
     1
102
RTVSPropertyOp16
 70
     1
102
RTVSPropertyOp17
 70
     1
102
RTVSPropertyOp18
 70
     1
102
RTVSPropertyOp19
 70
     1
102
RTVSPropertyOp20
 70
     1
102
RTVSPropertyOp21
 70
     1
102
RTVSPropertyOp22
 70
     1
102
RTVSPropertyOp23
 70
     1
102
RTVSPropertyOp24
 70
     1
102
RTVSPropertyOp25
 70
     1
102
RTVSPropertyOp26
 70
     1
102
RTVSPropertyOp27
 70
     1
102
RTVSPropertyOp28
 70
     1
102
RTVSPropertyOp29
 70
     1
102
RTVSPropertyOp30
 70
     1
102
RTVSPropertyOp31
 70
     1
102
RTVSPropertyOp32
 70
     1
  0
XRECORD
  5
21C
102
{ACAD_REACTORS
330
21B
102
}
330
21B
100
AcDbXrecord
280
     1
102
RTVSPropertyOp0
 70
     1
102
RTVSPropertyOp1
 70
     1
102
RTVSPropertyOp2
 70
     1
102
RTVSPropertyOp3
 70
     1
102
RTVSPropertyOp4
 70
     1
102
RTVSPropertyOp5
 70
     1
102
RTVSPropertyOp6
 70
     1
102
RTVSPropertyOp7
 70
     1
102
RTVSPropertyOp8
 70
     1
102
RTVSPropertyOp9
 70
     1
102
RTVSPropertyOp10
 70
     1
102
RTVSPropertyOp11
 70
     1
102
RTVSPropertyOp12
 70
     1
102
RTVSPropertyOp13
 70
     1
102
RTVSPropertyOp14
 70
     1
102
RTVSPropertyOp15
 70
     1
102
RTVSPropertyOp16
 70
     1
102
RTVSPropertyOp17
 70
     1
102
RTVSPropertyOp18
 70
     1
102
RTVSPropertyOp19
 70
     1
102
RTVSPropertyOp20
 70
     1
102
RTVSPropertyOp21
 70
     1
102
RTVSPropertyOp22
 70
     1
102
RTVSPropertyOp23
 70
     1
102
RTVSPropertyOp24
 70
     1
102
RTVSPropertyOp25
 70
     1
102
RTVSPropertyOp26
 70
     1
102
RTVSPropertyOp27
 70
     1
102
RTVSPropertyOp28
 70
     1
102
RTVSPropertyOp29
 70
     1
102
RTVSPropertyOp30
 70
     1
102
RTVSPropertyOp31
 70
     1
102
RTVSPropertyOp32
 70
     1
  0
ENDSEC
  0
EOF
