  0
SECTION
  2
HEADER
  9
$ACADVER
  1
AC1027
  9
$ACADMAINTVER
 70
   105
  9
$DWGCODEPAGE
  3
ANSI_1252
  9
$REQUIREDVERSIONS
160
                 0
  9
$LASTSAVEDBY
  1
matthias.ochs
  9
$INSBASE
 10
0.0
 20
0.0
 30
0.0
  9
$EXTMIN
 10
-98.16288140339122
 20
-77.7141959437452
 30
0.0
  9
$EXTMAX
 10
121.715434693103
 20
82.04960516085048
 30
0.0
  9
$LIMMIN
 10
-92.097091325
 20
-42.66737816
  9
$LIMMAX
 10
116.861026212
 20
49.90759785
  9
$ORTHOMODE
 70
     0
  9
$REGENMODE
 70
     1
  9
$FILLMODE
 70
     1
  9
$QTEXTMODE
 70
     0
  9
$MIRRTEXT
 70
     1
  9
$LTSCALE
 40
1.0
  9
$ATTMODE
 70
     1
  9
$TEXTSIZE
 40
0.2
  9
$TRACEWID
 40
0.05
  9
$TEXTSTYLE
  7
Standard
  9
$CLAYER
  8
3
  9
$CELTYPE
  6
ByLayer
  9
$CECOLOR
 62
   256
  9
$CELTSCALE
 40
1.0
  9
$DISPSILH
 70
     0
  9
$DIMSCALE
 40
1.0
  9
$DIMASZ
 40
0.18
  9
$DIMEXO
 40
0.0625
  9
$DIMDLI
 40
0.38
  9
$DIMRND
 40
0.0
  9
$DIMDLE
 40
0.0
  9
$DIMEXE
 40
0.18
  9
$DIMTP
 40
0.0
  9
$DIMTM
 40
0.0
  9
$DIMTXT
 40
0.18
  9
$DIMCEN
 40
0.09
  9
$DIMTSZ
 40
0.0
  9
$DIMTOL
 70
     0
  9
$DIMLIM
 70
     0
  9
$DIMTIH
 70
     1
  9
$DIMTOH
 70
     1
  9
$DIMSE1
 70
     0
  9
$DIMSE2
 70
     0
  9
$DIMTAD
 70
     0
  9
$DIMZIN
 70
     0
  9
$DIMBLK
  1

  9
$DIMASO
 70
     1
  9
$DIMSHO
 70
     1
  9
$DIMPOST
  1

  9
$DIMAPOST
  1

  9
$DIMALT
 70
     0
  9
$DIMALTD
 70
     2
  9
$DIMALTF
 40
25.4
  9
$DIMLFAC
 40
1.0
  9
$DIMTOFL
 70
     0
  9
$DIMTVP
 40
0.0
  9
$DIMTIX
 70
     0
  9
$DIMSOXD
 70
     0
  9
$DIMSAH
 70
     0
  9
$DIMBLK1
  1

  9
$DIMBLK2
  1

  9
$DIMSTYLE
  2
Standard
  9
$DIMCLRD
 70
     0
  9
$DIMCLRE
 70
     0
  9
$DIMCLRT
 70
     0
  9
$DIMTFAC
 40
1.0
  9
$DIMGAP
 40
0.09
  9
$DIMJUST
 70
     0
  9
$DIMSD1
 70
     0
  9
$DIMSD2
 70
     0
  9
$DIMTOLJ
 70
     1
  9
$DIMTZIN
 70
     0
  9
$DIMALTZ
 70
     0
  9
$DIMALTTZ
 70
     0
  9
$DIMUPT
 70
     0
  9
$DIMDEC
 70
     4
  9
$DIMTDEC
 70
     4
  9
$DIMALTU
 70
     2
  9
$DIMALTTD
 70
     2
  9
$DIMTXSTY
  7
Standard
  9
$DIMAUNIT
 70
     0
  9
$DIMADEC
 70
     0
  9
$DIMALTRND
 40
0.0
  9
$DIMAZIN
 70
     0
  9
$DIMDSEP
 70
    46
  9
$DIMATFIT
 70
     3
  9
$DIMFRAC
 70
     0
  9
$DIMLDRBLK
  1

  9
$DIMLUNIT
 70
     2
  9
$DIMLWD
 70
    -2
  9
$DIMLWE
 70
    -2
  9
$DIMTMOVE
 70
     2
  9
$DIMFXL
 40
1.0
  9
$DIMFXLON
 70
     0
  9
$DIMJOGANG
 40
0.7853981633974483
  9
$DIMTFILL
 70
     0
  9
$DIMTFILLCLR
 70
     0
  9
$DIMARCSYM
 70
     0
  9
$DIMLTYPE
  6

  9
$DIMLTEX1
  6

  9
$DIMLTEX2
  6

  9
$DIMTXTDIRECTION
 70
     0
  9
$LUNITS
 70
     2
  9
$LUPREC
 70
     4
  9
$SKETCHINC
 40
0.1
  9
$FILLETRAD
 40
0.5
  9
$AUNITS
 70
     2
  9
$AUPREC
 70
     0
  9
$MENU
  1
.
  9
$ELEVATION
 40
0.0
  9
$PELEVATION
 40
0.0
  9
$THICKNESS
 40
0.0
  9
$LIMCHECK
 70
     0
  9
$CHAMFERA
 40
0.5
  9
$CHAMFERB
 40
0.5
  9
$CHAMFERC
 40
1.0
  9
$CHAMFERD
 40
0.0
  9
$SKPOLY
 70
     0
  9
$TDCREATE
 40
2458327.544409375
  9
$TDUCREATE
 40
2458327.461076042
  9
$TDUPDATE
 40
2458677.41630485
  9
$TDUUPDATE
 40
2458677.332971516
  9
$TDINDWG
 40
0.0094897685
  9
$TDUSRTIMER
 40
0.0043871528
  9
$USRTIMER
 70
     1
  9
$ANGBASE
 50
0.0
  9
$ANGDIR
 70
     0
  9
$PDMODE
 70
     0
  9
$PDSIZE
 40
0.0
  9
$PLINEWID
 40
0.0
  9
$SPLFRAME
 70
     0
  9
$SPLINETYPE
 70
     6
  9
$SPLINESEGS
 70
     8
  9
$HANDSEED
  5
330
  9
$SURFTAB1
 70
     6
  9
$SURFTAB2
 70
     6
  9
$SURFTYPE
 70
     6
  9
$SURFU
 70
     6
  9
$SURFV
 70
     6
  9
$UCSBASE
  2

  9
$UCSNAME
  2

  9
$UCSORG
 10
0.0
 20
0.0
 30
0.0
  9
$UCSXDIR
 10
1.0
 20
0.0
 30
0.0
  9
$UCSYDIR
 10
0.0
 20
1.0
 30
0.0
  9
$UCSORTHOREF
  2

  9
$UCSORTHOVIEW
 70
     0
  9
$UCSORGTOP
 10
0.0
 20
0.0
 30
0.0
  9
$UCSORGBOTTOM
 10
0.0
 20
0.0
 30
0.0
  9
$UCSORGLEFT
 10
0.0
 20
0.0
 30
0.0
  9
$UCSORGRIGHT
 10
0.0
 20
0.0
 30
0.0
  9
$UCSORGFRONT
 10
0.0
 20
0.0
 30
0.0
  9
$UCSORGBACK
 10
0.0
 20
0.0
 30
0.0
  9
$PUCSBASE
  2

  9
$PUCSNAME
  2

  9
$PUCSORG
 10
0.0
 20
0.0
 30
0.0
  9
$PUCSXDIR
 10
1.0
 20
0.0
 30
0.0
  9
$PUCSYDIR
 10
0.0
 20
1.0
 30
0.0
  9
$PUCSORTHOREF
  2

  9
$PUCSORTHOVIEW
 70
     0
  9
$PUCSORGTOP
 10
0.0
 20
0.0
 30
0.0
  9
$PUCSORGBOTTOM
 10
0.0
 20
0.0
 30
0.0
  9
$PUCSORGLEFT
 10
0.0
 20
0.0
 30
0.0
  9
$PUCSORGRIGHT
 10
0.0
 20
0.0
 30
0.0
  9
$PUCSORGFRONT
 10
0.0
 20
0.0
 30
0.0
  9
$PUCSORGBACK
 10
0.0
 20
0.0
 30
0.0
  9
$USERI1
 70
     0
  9
$USERI2
 70
     0
  9
$USERI3
 70
     0
  9
$USERI4
 70
     0
  9
$USERI5
 70
     0
  9
$USERR1
 40
0.0
  9
$USERR2
 40
0.0
  9
$USERR3
 40
0.0
  9
$USERR4
 40
0.0
  9
$USERR5
 40
0.0
  9
$WORLDVIEW
 70
     1
  9
$SHADEDGE
 70
     3
  9
$SHADEDIF
 70
    70
  9
$TILEMODE
 70
     1
  9
$MAXACTVP
 70
    64
  9
$PINSBASE
 10
0.0
 20
0.0
 30
0.0
  9
$PLIMCHECK
 70
     0
  9
$PEXTMIN
 10
1.000000000000000E+20
 20
1.000000000000000E+20
 30
1.000000000000000E+20
  9
$PEXTMAX
 10
-1.000000000000000E+20
 20
-1.000000000000000E+20
 30
-1.000000000000000E+20
  9
$PLIMMIN
 10
0.0
 20
0.0
  9
$PLIMMAX
 10
0.0
 20
0.0
  9
$UNITMODE
 70
     0
  9
$VISRETAIN
 70
     1
  9
$PLINEGEN
 70
     0
  9
$PSLTSCALE
 70
     1
  9
$TREEDEPTH
 70
  3020
  9
$CMLSTYLE
  2
Standard
  9
$CMLJUST
 70
     0
  9
$CMLSCALE
 40
1.0
  9
$PROXYGRAPHICS
 70
     1
  9
$MEASUREMENT
 70
     0
  9
$CELWEIGHT
370
    -1
  9
$ENDCAPS
280
     0
  9
$JOINSTYLE
280
     0
  9
$LWDISPLAY
290
     0
  9
$INSUNITS
 70
     0
  9
$HYPERLINKBASE
  1

  9
$STYLESHEET
  1

  9
$XEDIT
290
     1
  9
$CEPSNTYPE
380
     0
  9
$PSTYLEMODE
290
     1
  9
$FINGERPRINTGUID
  2
{43F1610B-AE6A-4AA4-B5D0-8D724EFC4560}
  9
$VERSIONGUID
  2
{FAEB1C32-E019-11D5-929B-00C0DF256EC4}
  9
$EXTNAMES
290
     1
  9
$PSVPSCALE
 40
0.0
  9
$OLESTARTUP
290
     0
  9
$SORTENTS
280
   127
  9
$INDEXCTL
280
     0
  9
$HIDETEXT
280
     1
  9
$XCLIPFRAME
280
     2
  9
$HALOGAP
280
     0
  9
$OBSCOLOR
 70
   257
  9
$OBSLTYPE
280
     0
  9
$INTERSECTIONDISPLAY
280
     0
  9
$INTERSECTIONCOLOR
 70
   257
  9
$DIMASSOC
280
     2
  9
$PROJECTNAME
  1

  9
$CAMERADISPLAY
290
     0
  9
$LENSLENGTH
 40
50.0
  9
$CAMERAHEIGHT
 40
0.0
  9
$STEPSPERSEC
 40
2.0
  9
$STEPSIZE
 40
6.0
  9
$3DDWFPREC
 40
2.0
  9
$PSOLWIDTH
 40
0.25
  9
$PSOLHEIGHT
 40
4.0
  9
$LOFTANG1
 40
1.570796326794897
  9
$LOFTANG2
 40
1.570796326794897
  9
$LOFTMAG1
 40
0.0
  9
$LOFTMAG2
 40
0.0
  9
$LOFTPARAM
 70
     7
  9
$LOFTNORMALS
280
     1
  9
$LATITUDE
 40
37.795
  9
$LONGITUDE
 40
-122.394
  9
$NORTHDIRECTION
 40
0.0
  9
$TIMEZONE
 70
 -8000
  9
$LIGHTGLYPHDISPLAY
280
     1
  9
$TILEMODELIGHTSYNCH
280
     1
  9
$SOLIDHIST
280
     0
  9
$SHOWHIST
280
     1
  9
$DWFFRAME
280
     2
  9
$DGNFRAME
280
     2
  9
$REALWORLDSCALE
290
     1
  9
$INTERFERECOLOR
 62
   256
  9
$CSHADOW
280
     0
  9
$SHADOWPLANELOCATION
 40
0.0
  0
ENDSEC
  0
SECTION
  2
CLASSES
  0
CLASS
  1
ACDBDICTIONARYWDFLT
  2
AcDbDictionaryWithDefault
  3
ObjectDBX Classes
 90
        0
 91
       18
280
     0
281
     0
  0
CLASS
  1
SCALE
  2
AcDbScale
  3
ObjectDBX Classes
 90
     1153
 91
       18
280
     0
281
     0
  0
CLASS
  1
VISUALSTYLE
  2
AcDbVisualStyle
  3
ObjectDBX Classes
 90
     4095
 91
       18
280
     0
281
     0
  0
CLASS
  1
MATERIAL
  2
AcDbMaterial
  3
ObjectDBX Classes
 90
     1153
 91
       18
280
     0
281
     0
  0
CLASS
  1
DICTIONARYVAR
  2
AcDbDictionaryVar
  3
ObjectDBX Classes
 90
        0
 91
       16
280
     0
281
     0
  0
CLASS
  1
ACDBPLACEHOLDER
  2
AcDbPlaceHolder
  3
ObjectDBX Classes
 90
        0
 91
        1
280
     0
281
     0
  0
CLASS
  1
LAYOUT
  2
AcDbLayout
  3
ObjectDBX Classes
 90
        0
 91
        1
280
     0
281
     0
  0
CLASS
  1
TABLESTYLE
  2
AcDbTableStyle
  3
ObjectDBX Classes
 90
     4095
 91
       17
280
     0
281
     0
  0
CLASS
  1
MLEADERSTYLE
  2
AcDbMLeaderStyle
  3
ACDB_MLEADERSTYLE_CLASS
 90
     4095
 91
       17
280
     0
281
     0
  0
CLASS
  1
SUN
  2
AcDbSun
  3
SCENEOE
 90
     1153
 91
       18
280
     0
281
     0
  0
CLASS
  1
SORTENTSTABLE
  2
AcDbSortentsTable
  3
ObjectDBX Classes
 90
        0
 91
       14
280
     0
281
     0
  0
CLASS
  1
CELLSTYLEMAP
  2
AcDbCellStyleMap
  3
ObjectDBX Classes
 90
     1152
 91
        9
280
     0
281
     0
  0
ENDSEC
  0
SECTION
  2
TABLES
  0
TABLE
  2
VPORT
  5
8
330
0
100
AcDbSymbolTable
 70
     1
  0
VPORT
  5
195
330
8
100
AcDbSymbolTableRecord
100
AcDbViewportTableRecord
  2
*Active
 70
     0
 10
0.0
 20
0.0
 11
1.0
 21
1.0
 12
-27.84715021594643
 22
9.495712585773944
 13
0.0
 23
0.0
 14
0.5
 24
0.5
 15
0.5
 25
0.5
 16
0.0
 26
0.0
 36
1.0
 17
0.0
 27
0.0
 37
0.0
 40
234.730287506755
 41
1.831002331002331
 42
50.0
 43
0.0
 44
0.0
 50
0.0
 51
0.0
 71
    16
 72
   100
 73
     1
 74
     3
 75
     0
 76
     0
 77
     0
 78
     0
281
     0
 65
     1
110
0.0
120
0.0
130
0.0
111
1.0
121
0.0
131
0.0
112
0.0
122
1.0
132
0.0
 79
     0
146
0.0
348
1C7
 60
     3
 61
     5
292
     1
282
     1
141
0.0
142
0.0
 63
   256
361
26B
  0
ENDTAB
  0
TABLE
  2
LTYPE
  5
5
330
0
100
AcDbSymbolTable
 70
     8
  0
LTYPE
  5
14
330
5
100
AcDbSymbolTableRecord
100
AcDbLinetypeTableRecord
  2
ByBlock
 70
     0
  3

 72
    65
 73
     0
 40
0.0
  0
LTYPE
  5
15
330
5
100
AcDbSymbolTableRecord
100
AcDbLinetypeTableRecord
  2
ByLayer
 70
     0
  3

 72
    65
 73
     0
 40
0.0
  0
LTYPE
  5
16
330
5
100
AcDbSymbolTableRecord
100
AcDbLinetypeTableRecord
  2
Continuous
 70
     0
  3
Solid line
 72
    65
 73
     0
 40
0.0
  0
LTYPE
  5
20
330
5
100
AcDbSymbolTableRecord
100
AcDbLinetypeTableRecord
  2
PUNKT
 70
     0
  3
..............
 72
    65
 73
     2
 40
1.5
 49
0.7
 74
     0
 49
-0.8
 74
     0
  0
LTYPE
  5
21
330
5
100
AcDbSymbolTableRecord
100
AcDbLinetypeTableRecord
  2
GESTRICHELT
 70
     0
  3
-- -- -- -- --
 72
    65
 73
     7
 40
2.8
 49
0.9
 74
     0
 49
0.0
 74
     0
 49
0.9
 74
     0
 49
0.0
 74
     0
 49
0.2
 74
     0
 49
0.0
 74
     0
 49
-0.8
 74
     0
  0
LTYPE
  5
22
330
5
100
AcDbSymbolTableRecord
100
AcDbLinetypeTableRecord
  2
STRICHPUNKT
 70
     0
  3
--.--.--.--.--
 72
    65
 73
     4
 40
8.8
 49
5.5
 74
     0
 49
-1.3
 74
     0
 49
0.7
 74
     0
 49
-1.3
 74
     0
  0
LTYPE
  5
25
330
5
100
AcDbSymbolTableRecord
100
AcDbLinetypeTableRecord
  2
PHANTOM
 70
     0
  3
--..--..--..--
 72
    65
 73
     6
 40
14.2
 49
7.0
 74
     0
 49
-1.8
 74
     0
 49
0.9
 74
     0
 49
-1.8
 74
     0
 49
0.9
 74
     0
 49
-1.8
 74
     0
  0
LTYPE
  5
20F
330
5
100
AcDbSymbolTableRecord
100
AcDbLinetypeTableRecord
  2
DASH
 70
     0
  3
DASH _ _ _ _ _
 72
    65
 73
     2
 40
0.75
 49
0.4
 74
     0
 49
-0.35
 74
     0
  0
LTYPE
  5
210
330
5
100
AcDbSymbolTableRecord
100
AcDbLinetypeTableRecord
  2
LONGDASH_DASH
 70
     0
  3
LONGDASH_DASH __ . __ . __
 72
    65
 73
     4
 40
0.85
 49
0.4
 74
     0
 49
-0.2
 74
     0
 49
0.05
 74
     0
 49
-0.2
 74
     0
  0
LTYPE
  5
211
330
5
100
AcDbSymbolTableRecord
100
AcDbLinetypeTableRecord
  2
LONGDASH_DASH_DASH
 70
     0
  3
LONGDASH_DASH_DASH __ . . __ . . __
 72
    65
 73
     6
 40
1.1
 49
0.4
 74
     0
 49
-0.2
 74
     0
 49
0.05
 74
     0
 49
-0.2
 74
     0
 49
0.05
 74
     0
 49
-0.2
 74
     0
  0
ENDTAB
  0
TABLE
  2
LAYER
  5
2
102
{ACAD_XDICTIONARY
360
22E
102
}
330
0
100
AcDbSymbolTable
 70
    17
  0
LAYER
  5
1D8
330
2
100
AcDbSymbolTableRecord
100
AcDbLayerTableRecord
  2
200
 70
     0
 62
     2
  6
Continuous
370
    50
390
F
347
1D6
348
0
  0
LAYER
  5
212
330
2
100
AcDbSymbolTableRecord
100
AcDbLayerTableRecord
  2
0
 70
     0
 62
     1
  6
Continuous
370
    -3
390
F
347
1D6
348
0
  0
LAYER
  5
213
330
2
100
AcDbSymbolTableRecord
100
AcDbLayerTableRecord
  2
1
 70
     0
 62
     4
  6
Continuous
370
    50
390
F
347
1D6
348
0
  0
LAYER
  5
214
330
2
100
AcDbSymbolTableRecord
100
AcDbLayerTableRecord
  2
2
 70
     0
 62
     7
  6
Continuous
370
    25
390
F
347
1D6
348
0
  0
LAYER
  5
215
330
2
100
AcDbSymbolTableRecord
100
AcDbLayerTableRecord
  2
3
 70
     0
 62
     1
  6
DASH
370
    35
390
F
347
1D6
348
0
  0
LAYER
  5
216
330
2
100
AcDbSymbolTableRecord
100
AcDbLayerTableRecord
  2
4
 70
     0
 62
     2
  6
LONGDASH_DASH
370
    25
390
F
347
1D6
348
0
  0
LAYER
  5
217
330
2
100
AcDbSymbolTableRecord
100
AcDbLayerTableRecord
  2
6
 70
     0
 62
     5
  6
Continuous
370
    -3
390
F
347
1D6
348
0
  0
LAYER
  5
218
330
2
100
AcDbSymbolTableRecord
100
AcDbLayerTableRecord
  2
CUT
 70
     0
 62
     1
  6
Continuous
370
    25
390
F
347
1D6
348
0
  0
LAYER
  5
219
330
2
100
AcDbSymbolTableRecord
100
AcDbLayerTableRecord
  2
NOCUT
 70
     0
 62
     7
  6
Continuous
370
    25
390
F
347
1D6
348
0
  0
LAYER
  5
21A
330
2
100
AcDbSymbolTableRecord
100
AcDbLayerTableRecord
  2
SK1
 70
     0
 62
     4
  6
Continuous
370
    50
390
F
347
1D6
348
0
  0
LAYER
  5
21B
330
2
100
AcDbSymbolTableRecord
100
AcDbLayerTableRecord
  2
SK2
 70
     0
 62
     7
  6
Continuous
370
    25
390
F
347
1D6
348
0
  0
LAYER
  5
21C
330
2
100
AcDbSymbolTableRecord
100
AcDbLayerTableRecord
  2
SK3
 70
     0
 62
     1
  6
DASH
370
    35
390
F
347
1D6
348
0
  0
LAYER
  5
21D
330
2
100
AcDbSymbolTableRecord
100
AcDbLayerTableRecord
  2
SK4
 70
     0
 62
     2
  6
LONGDASH_DASH
370
    25
390
F
347
1D6
348
0
  0
LAYER
  5
21E
330
2
100
AcDbSymbolTableRecord
100
AcDbLayerTableRecord
  2
SK6
 70
     0
 62
     5
  6
Continuous
370
    -3
390
F
347
1D6
348
0
  0
LAYER
  5
21F
330
2
100
AcDbSymbolTableRecord
100
AcDbLayerTableRecord
  2
INFTOTAL
 70
     0
 62
     9
  6
Continuous
370
    18
390
F
347
1D6
348
0
  0
LAYER
  5
2CF
330
2
100
AcDbSymbolTableRecord
100
AcDbLayerTableRecord
  2
7
 70
     0
 62
     5
  6
Continuous
370
    18
390
F
347
1D6
348
0
1001
AcAecLayerStandard
1000

1000

  0
LAYER
  5
2D1
330
2
100
AcDbSymbolTableRecord
100
AcDbLayerTableRecord
  2
11
 70
     0
 62
     4
  6
Continuous
370
    50
390
F
347
1D6
348
0
1001
AcAecLayerStandard
1000

1000

  0
ENDTAB
  0
TABLE
  2
STYLE
  5
3
330
0
100
AcDbSymbolTable
 70
     3
  0
STYLE
  5
11
330
3
100
AcDbSymbolTableRecord
100
AcDbTextStyleTableRecord
  2
Standard
 70
     0
 40
0.0
 41
1.0
 50
0.0
 71
     0
 42
0.2
  3
txt
  4

  0
STYLE
  5
1D7
330
3
100
AcDbSymbolTableRecord
100
AcDbTextStyleTableRecord
  2
BMG_Text
 70
     0
 40
3.5
 41
1.0
 50
0.0
 71
     0
 42
0.2
  3
monos.ttf
  4

1001
ACAD
1000
Monospac821 BT
1071
       49
  0
STYLE
  5
2D6
330
3
100
AcDbSymbolTableRecord
100
AcDbTextStyleTableRecord
  2
SLDTEXTSTYLE0
 70
     0
 40
0.0
 41
0.605
 50
0.0
 71
     0
 42
0.2
  3
TXT
  4

  0
ENDTAB
  0
TABLE
  2
VIEW
  5
6
330
0
100
AcDbSymbolTable
 70
     0
  0
ENDTAB
  0
TABLE
  2
UCS
  5
7
330
0
100
AcDbSymbolTable
 70
     0
  0
ENDTAB
  0
TABLE
  2
APPID
  5
9
330
0
100
AcDbSymbolTable
 70
     3
  0
APPID
  5
12
330
9
100
AcDbSymbolTableRecord
100
AcDbRegAppTableRecord
  2
ACAD
 70
     0
  0
APPID
  5
2D0
330
9
100
AcDbSymbolTableRecord
100
AcDbRegAppTableRecord
  2
AcAecLayerStandard
 70
     0
  0
APPID
  5
2D9
330
9
100
AcDbSymbolTableRecord
100
AcDbRegAppTableRecord
  2
PE_URL
 70
     0
  0
ENDTAB
  0
TABLE
  2
DIMSTYLE
  5
A
330
0
100
AcDbSymbolTable
 70
     6
100
AcDbDimStyleTable
  0
DIMSTYLE
105
28
330
A
100
AcDbSymbolTableRecord
100
AcDbDimStyleTableRecord
  2
Standard
 70
     0
178
     0
340
11
  0
DIMSTYLE
105
2D2
330
A
100
AcDbSymbolTableRecord
100
AcDbDimStyleTableRecord
  2
Matthias
 70
     0
 41
3.0
 44
2.0
 73
     0
 77
     1
140
3.0
147
2.0
178
     0
340
11
  0
DIMSTYLE
105
2D4
102
{ACAD_REACTORS
102
}
330
A
100
AcDbSymbolTableRecord
100
AcDbDimStyleTableRecord
  2
ISO-25
 70
     0
 41
2.5
 42
0.625
 43
3.75
 44
1.25
 73
     0
 74
     0
 77
     1
 78
     8
140
2.5
141
2.5
143
0.0393700787
147
0.625
171
     3
172
     1
178
     0
271
     2
272
     2
274
     3
278
    44
283
     0
284
     8
340
11
  0
DIMSTYLE
105
2D5
330
A
100
AcDbSymbolTableRecord
100
AcDbDimStyleTableRecord
  2
SLDDIMSTYLE0
 70
     0
 41
3.5
 44
0.0
 45
0.000000001
 73
     0
 74
     0
 77
     1
 78
    12
 79
     3
140
3.5
144
0.5
147
0.875
173
     1
178
     0
271
     2
272
     1
276
     2
284
    12
340
2D6
  0
DIMSTYLE
105
2D7
330
A
100
AcDbSymbolTableRecord
100
AcDbDimStyleTableRecord
  2
SLDDIMSTYLE1
 70
     0
 41
3.5
 44
0.0
 45
0.000000001
 73
     0
 74
     0
 77
     1
 78
    12
 79
     3
140
3.5
144
0.5
147
0.875
173
     1
178
     0
271
     2
272
     3
276
     2
284
    12
340
2D6
  0
DIMSTYLE
105
2D8
330
A
100
AcDbSymbolTableRecord
100
AcDbDimStyleTableRecord
  2
SLDDIMSTYLE2
 70
     0
 41
3.5
 44
0.0
 45
0.000000001
 73
     0
 74
     0
 77
     1
 78
    12
 79
     3
140
3.5
147
0.875
173
     1
178
     0
271
     2
272
     0
276
     2
284
    12
340
2D6
  0
ENDTAB
  0
TABLE
  2
BLOCK_RECORD
  5
1
330
0
100
AcDbSymbolTable
 70
     2
  0
BLOCK_RECORD
  5
1D
102
{ACAD_XDICTIONARY
360
318
102
}
330
1
100
AcDbSymbolTableRecord
100
AcDbBlockTableRecord
  2
*Model_Space
340
1E
 70
     0
280
     1
281
     0
  0
BLOCK_RECORD
  5
1B
330
1
100
AcDbSymbolTableRecord
100
AcDbBlockTableRecord
  2
*Paper_Space
340
1C
 70
     0
280
     1
281
     0
  0
ENDTAB
  0
ENDSEC
  0
SECTION
  2
BLOCKS
  0
BLOCK
  5
1C0
330
1D
100
AcDbEntity
  8
0
100
AcDbBlockBegin
  2
*Model_Space
 70
     0
 10
0.0
 20
0.0
 30
0.0
  3
*Model_Space
  1

  0
ENDBLK
  5
1C1
330
1D
100
AcDbEntity
  8
0
100
AcDbBlockEnd
  0
BLOCK
  5
1BE
330
1B
100
AcDbEntity
 67
     1
  8
0
100
AcDbBlockBegin
  2
*Paper_Space
 70
     0
 10
0.0
 20
0.0
 30
0.0
  3
*Paper_Space
  1

  0
ENDBLK
  5
1BF
330
1B
100
AcDbEntity
 67
     1
  8
0
100
AcDbBlockEnd
  0
ENDSEC
  0
SECTION
  2
ENTITIES
  0
LINE
  5
29
330
1D
100
AcDbEntity
  8
3
100
AcDbLine
 10
39.500001818
 20
-23.749999702
 30
0.0
 11
25.796607137
 21
-23.749999702
 31
0.0
  0
ARC
  5
2A
330
1D
100
AcDbEntity
  8
3
100
AcDbCircle
 10
25.792290775
 20
-35.743755053
 30
0.0
 40
11.993756128
100
AcDbArc
 50
89.979380164
 51
160.549880022
  0
LINE
  5
2B
330
1D
100
AcDbEntity
  8
3
100
AcDbLine
 10
12.134538963
 20
-15.311289579
 30
0.0
 11
34.489023389
 21
-23.749999702
 31
0.0
  0
LINE
  5
2C
330
1D
100
AcDbEntity
  8
4
100
AcDbLine
 10
7.526758413
 20
-19.985149348
 30
0.0
 11
23.486049015
 21
-26.009704627
 31
0.0
  0
LINE
  5
2D
330
1D
100
AcDbEntity
  8
3
100
AcDbLine
 10
10.652462952
 20
-17.117107287
 30
0.0
 11
12.134538963
 21
-15.311289579
 31
0.0
  0
LINE
  5
2E
330
1D
100
AcDbEntity
  8
3
100
AcDbLine
 10
7.973181199
 20
-20.090173996
 30
0.0
 11
10.652462952
 21
-17.117107287
 31
0.0
  0
LINE
  5
2F
330
1D
100
AcDbEntity
  8
3
100
AcDbLine
 10
7.896509022
 20
-26.538003236
 30
0.0
 11
7.973181199
 21
-20.090173996
 31
0.0
  0
LINE
  5
30
330
1D
100
AcDbEntity
  8
3
100
AcDbLine
 10
7.896509022
 20
-26.538003236
 30
0.0
 11
12.134538963
 21
-15.311289579
 31
0.0
  0
LINE
  5
31
330
1D
100
AcDbEntity
  8
3
100
AcDbLine
 10
15.58783061
 20
-29.441439703
 30
0.0
 11
7.896509022
 21
-26.538003236
 31
0.0
  0
LINE
  5
32
330
1D
100
AcDbEntity
  8
3
100
AcDbLine
 10
0.173736522
 20
-7.023167612
 30
0.0
 11
10.652462952
 21
-17.117107287
 31
0.0
  0
LINE
  5
33
330
1D
100
AcDbEntity
  8
4
100
AcDbLine
 10
-0.0000000000000009
 20
-9.632792507623225
 30
0.0
 11
10.059929093
 21
-19.3233134
 31
0.0
  0
LINE
  5
34
330
1D
100
AcDbEntity
  8
3
100
AcDbLine
 10
7.973181199
 20
-20.090173996
 30
0.0
 11
-0.0000000000000009
 21
-12.40977422183726
 31
0.0
  0
ARC
  5
35
330
1D
100
AcDbEntity
  8
SK1
100
AcDbCircle
 10
-0.3
 20
-18.2
 30
0.0
 40
0.5
100
AcDbArc
 50
53.130102354
 51
105.000008294
  0
LINE
  5
36
330
1D
100
AcDbEntity
  8
SK1
100
AcDbLine
 10
-0.429409527
 20
-17.71703735
 30
0.0
 11
-1.485441462
 21
-17.999999225
 31
0.0
  0
LINE
  5
37
330
1D
100
AcDbEntity
  8
SK1
100
AcDbLine
 10
-1.485441462
 20
-17.999999225
 30
0.0
 11
-35.000000149
 21
-17.999999225
 31
0.0
  0
LINE
  5
38
330
1D
100
AcDbEntity
  8
SK1
100
AcDbLine
 10
-35.000000149
 20
-17.999999225
 30
0.0
 11
-35.000000149
 21
17.999999225
 31
0.0
  0
LINE
  5
39
330
1D
100
AcDbEntity
  8
SK1
100
AcDbLine
 10
-35.000000149
 20
17.999999225
 30
0.0
 11
-1.485441462
 21
17.999999225
 31
0.0
  0
LINE
  5
3A
330
1D
100
AcDbEntity
  8
SK1
100
AcDbLine
 10
-1.485441462
 20
17.999999225
 30
0.0
 11
-0.429409523
 21
17.717037087
 31
0.0
  0
ARC
  5
3B
330
1D
100
AcDbEntity
  8
SK1
100
AcDbCircle
 10
-0.3
 20
18.2
 30
0.0
 40
0.5
100
AcDbArc
 50
255.0
 51
306.8698976460001
  0
LINE
  5
3D
330
1D
100
AcDbEntity
  8
SK3
100
AcDbLine
 10
-36.278326123
 20
8.000007221
 30
0.0
 11
-37.000005811
 21
9.25002248
 31
0.0
  0
LINE
  5
3E
330
1D
100
AcDbEntity
  8
SK3
100
AcDbLine
 10
-37.000005811
 20
9.25002248
 30
0.0
 11
-39.567022412
 21
9.25002248
 31
0.0
  0
LINE
  5
3F
330
1D
100
AcDbEntity
  8
SK1
100
AcDbLine
 10
-35.000000149
 20
17.999999225
 30
0.0
 11
-37.187486887
 21
17.692569643
 31
0.0
  0
LINE
  5
40
330
1D
100
AcDbEntity
  8
SK1
100
AcDbLine
 10
-37.187486887
 20
17.692569643
 30
0.0
 11
-38.844856365
 21
17.984807753
 31
0.0
  0
ARC
  5
41
330
1D
100
AcDbEntity
  8
SK1
100
AcDbCircle
 10
-39.018504542
 20
17.0
 30
0.0
 40
1.0
100
AcDbArc
 50
80.0
 51
132.960649447
  0
LINE
  5
42
330
1D
100
AcDbEntity
  8
SK1
100
AcDbLine
 10
-39.700001478
 20
17.731823027
 30
0.0
 11
-39.7
 21
-17.731822343
 31
0.0
  0
ARC
  5
43
330
1D
100
AcDbEntity
  8
SK1
100
AcDbCircle
 10
-39.018504542
 20
-17.0
 30
0.0
 40
1.0
100
AcDbArc
 50
227.039385809
 51
279.999946163
  0
LINE
  5
44
330
1D
100
AcDbEntity
  8
SK1
100
AcDbLine
 10
-38.844857365
 20
-17.984807491
 30
0.0
 11
-37.187486887
 21
-17.692569643
 31
0.0
  0
LINE
  5
45
330
1D
100
AcDbEntity
  8
SK1
100
AcDbLine
 10
-37.187486887
 20
-17.692569643
 30
0.0
 11
-35.000000149
 21
-17.999999225
 31
0.0
  0
LINE
  5
46
330
1D
100
AcDbEntity
  8
SK3
100
AcDbLine
 10
-39.567022412
 20
-9.250000408
 30
0.0
 11
-37.000005811
 21
-9.250000408
 31
0.0
  0
LINE
  5
47
330
1D
100
AcDbEntity
  8
SK3
100
AcDbLine
 10
-37.000005811
 20
-9.250000408
 30
0.0
 11
-37.000005811
 21
9.25002248
 31
0.0
  0
LINE
  5
48
330
1D
100
AcDbEntity
  8
SK3
100
AcDbLine
 10
-0.181809559
 20
8.00002248
 30
0.0
 11
-36.278326123
 21
8.00002248
 31
0.0
  0
LINE
  5
49
330
1D
100
AcDbEntity
  8
SK3
100
AcDbLine
 10
-36.278326123
 20
8.00002248
 30
0.0
 11
-36.278326123
 21
-8.000000408
 31
0.0
  0
LINE
  5
4A
330
1D
100
AcDbEntity
  8
SK3
100
AcDbLine
 10
-36.278326123
 20
-8.000000408
 30
0.0
 11
-37.000005811
 21
-9.250000408
 31
0.0
  0
LINE
  5
4B
330
1D
100
AcDbEntity
  8
SK3
100
AcDbLine
 10
-13.267955003
 20
-8.000007221
 30
0.0
 11
-17.000005811
 21
-9.000000408
 31
0.0
  0
LINE
  5
4C
330
1D
100
AcDbEntity
  8
SK3
100
AcDbLine
 10
-17.000005811
 20
-9.000000408
 30
0.0
 11
-16.99988374
 21
9.000007221
 31
0.0
  0
LINE
  5
4D
330
1D
100
AcDbEntity
  8
11
100
AcDbLine
 10
-16.99988374
 20
9.000007221
 30
0.0
 11
-36.855596631
 21
9.000007221
 31
0.0
  0
LINE
  5
4E
330
1D
100
AcDbEntity
  8
4
100
AcDbLine
 10
75.700926738
 20
0.0
 30
0.0
 11
-0.0000000000000142
 21
0.0
 31
0.0
  0
LINE
  5
4F
330
1D
100
AcDbEntity
  8
SK3
100
AcDbLine
 10
-36.278326123
 20
-8.000000408
 30
0.0
 11
-0.181801525
 21
-8.000000408
 31
0.0
  0
LINE
  5
50
330
1D
100
AcDbEntity
  8
11
100
AcDbLine
 10
-36.855596631
 20
-9.000000408
 30
0.0
 11
-16.999980383
 21
-9.000000408
 31
0.0
  0
LINE
  5
51
330
1D
100
AcDbEntity
  8
SK3
100
AcDbLine
 10
-17.000005811
 20
9.000007221
 30
0.0
 11
-13.267955003
 21
8.000007221
 31
0.0
  0
LINE
  5
53
330
1D
100
AcDbEntity
  8
SK1
100
AcDbLine
 10
-1.485441462
 20
17.999999225
 30
0.0
 11
-1.485441462
 21
-17.999999225
 31
0.0
  0
LINE
  5
55
330
1D
100
AcDbEntity
  8
SK1
100
AcDbLine
 10
-37.187486887
 20
-17.692569643
 30
0.0
 11
-37.187486887
 21
17.692569643
 31
0.0
  0
LINE
  5
57
330
1D
100
AcDbEntity
  8
2
100
AcDbLine
 10
0.0
 20
46.0
 30
0.0
 11
0.0
 21
31.0
 31
0.0
  0
LINE
  5
58
330
1D
100
AcDbEntity
  8
2
100
AcDbLine
 10
0.0
 20
44.0
 30
0.0
 11
3.499999999
 21
44.450000004
 31
0.0
  0
LINE
  5
59
330
1D
100
AcDbEntity
  8
2
100
AcDbLine
 10
3.499999999
 20
44.450000004
 30
0.0
 11
3.500000001
 21
43.550000004
 31
0.0
  0
LINE
  5
5A
330
1D
100
AcDbEntity
  8
2
100
AcDbLine
 10
3.500000001
 20
43.550000004
 30
0.0
 11
0.0
 21
44.0
 31
0.0
  0
LINE
  5
5B
330
1D
100
AcDbEntity
  8
2
100
AcDbLine
 10
71.000041971
 20
46.000000089
 30
0.0
 11
71.000041971
 21
33.199997991
 31
0.0
  0
LINE
  5
5C
330
1D
100
AcDbEntity
  8
2
100
AcDbLine
 10
71.000041971
 20
44.000000089
 30
0.0
 11
67.500041972
 21
43.550000085
 31
0.0
  0
LINE
  5
5D
330
1D
100
AcDbEntity
  8
2
100
AcDbLine
 10
67.500041972
 20
43.550000085
 30
0.0
 11
67.50004197
 21
44.450000085
 31
0.0
  0
LINE
  5
5E
330
1D
100
AcDbEntity
  8
2
100
AcDbLine
 10
67.50004197
 20
44.450000085
 30
0.0
 11
71.000041971
 21
44.000000089
 31
0.0
  0
LINE
  5
5F
330
1D
100
AcDbEntity
  8
2
100
AcDbLine
 10
3.5
 20
44.000000004
 30
0.0
 11
67.500041971
 21
44.000000085
 31
0.0
  0
TEXT
  5
60
330
1D
100
AcDbEntity
  8
2
100
AcDbText
 10
34.21814519
 20
45.500000043
 30
0.0
 40
3.5
  1
71
 50
0.000000072
  7
BMG_Text
100
AcDbText
  0
LINE
  5
61
330
1D
100
AcDbEntity
  8
SK2
100
AcDbLine
 10
-50.0
 20
-18.0
 30
0.0
 11
-35.0
 21
-18.0
 31
0.0
  0
LINE
  5
62
330
1D
100
AcDbEntity
  8
SK2
100
AcDbLine
 10
-48.0
 20
-18.0
 30
0.0
 11
-48.45
 21
-14.5
 31
0.0
  0
LINE
  5
63
330
1D
100
AcDbEntity
  8
SK2
100
AcDbLine
 10
-48.45
 20
-14.5
 30
0.0
 11
-47.55
 21
-14.5
 31
0.0
  0
LINE
  5
64
330
1D
100
AcDbEntity
  8
SK2
100
AcDbLine
 10
-47.55
 20
-14.5
 30
0.0
 11
-48.0
 21
-18.0
 31
0.0
  0
LINE
  5
65
330
1D
100
AcDbEntity
  8
SK2
100
AcDbLine
 10
-50.0
 20
18.0
 30
0.0
 11
-35.0
 21
18.0
 31
0.0
  0
LINE
  5
66
330
1D
100
AcDbEntity
  8
SK2
100
AcDbLine
 10
-48.0
 20
18.0
 30
0.0
 11
-47.55
 21
14.5
 31
0.0
  0
LINE
  5
67
330
1D
100
AcDbEntity
  8
SK2
100
AcDbLine
 10
-47.55
 20
14.5
 30
0.0
 11
-48.45
 21
14.5
 31
0.0
  0
LINE
  5
68
330
1D
100
AcDbEntity
  8
SK2
100
AcDbLine
 10
-48.45
 20
14.5
 30
0.0
 11
-48.0
 21
18.0
 31
0.0
  0
LINE
  5
69
330
1D
100
AcDbEntity
  8
SK2
100
AcDbLine
 10
-48.0
 20
-14.5
 30
0.0
 11
-48.0
 21
14.5
 31
0.0
  0
TEXT
  5
6A
330
1D
100
AcDbEntity
  8
SK2
100
AcDbText
 10
-49.5
 20
0.331405848
 30
0.0
 40
3.5
  1
36
 50
90.0
  7
BMG_Text
100
AcDbText
  0
CIRCLE
  5
6B
330
1D
100
AcDbEntity
  8
SK2
100
AcDbCircle
 10
-50.75
 20
-1.918594152
 30
0.0
 40
1.25
  0
LINE
  5
6C
330
1D
100
AcDbEntity
  8
SK2
100
AcDbLine
 10
-49.5
 20
-3.168594152
 30
0.0
 11
-52.0
 21
-0.668594152
 31
0.0
  0
TEXT
  5
6D
330
1D
100
AcDbEntity
  8
SK6
100
AcDbText
 10
-26.98092755161863
 20
-38.88588925795814
 30
0.0
 40
3.5
  1
319.601
  7
BMG_Text
100
AcDbText
  0
LINE
  5
6E
330
1D
100
AcDbEntity
  8
1
100
AcDbLine
 10
0.500000024
 20
-31.750001013
 30
0.0
 11
39.000000805
 21
-31.750001013
 31
0.0
  0
LINE
  5
6F
330
1D
100
AcDbEntity
  8
1
100
AcDbLine
 10
39.000000805
 20
31.750001013
 30
0.0
 11
0.500000024000002
 21
31.750001013
 31
0.0
  0
LINE
  5
70
330
1D
100
AcDbEntity
  8
1
100
AcDbLine
 10
0.500000024
 20
31.750001013
 30
0.0
 11
0.0
 21
31.25
 31
0.0
  0
LINE
  5
71
330
1D
100
AcDbEntity
  8
1
100
AcDbLine
 10
0.0
 20
-31.25
 30
0.0
 11
0.500000024
 21
-31.750001013
 31
0.0
  0
ARC
  5
73
330
1D
100
AcDbEntity
  8
1
100
AcDbCircle
 10
25.792290775
 20
35.743755053
 30
0.0
 40
11.993756128
100
AcDbArc
 50
199.450119978
 51
270.020619836
  0
LINE
  5
74
330
1D
100
AcDbEntity
  8
1
100
AcDbLine
 10
39.500001818
 20
23.749999702
 30
0.0
 11
25.796607137
 21
23.749999702
 31
0.0
  0
LINE
  5
75
330
1D
100
AcDbEntity
  8
1
100
AcDbLine
 10
28.699999675
 20
10.39531175
 30
0.0
 11
39.500001818
 21
10.39531175
 31
0.0
  0
ARC
  5
76
330
1D
100
AcDbEntity
  8
1
100
AcDbCircle
 10
81.279958418
 20
0.0
 30
0.0
 40
53.597710093
100
AcDbArc
 50
168.816569193
 51
180.0
  0
ARC
  5
77
330
1D
100
AcDbEntity
  8
1
100
AcDbCircle
 10
81.279958418
 20
0.0
 30
0.0
 40
53.590321389
100
AcDbArc
 50
180.0
 51
191.183430807
  0
LINE
  5
78
330
1D
100
AcDbEntity
  8
1
100
AcDbLine
 10
28.699999675
 20
-10.395311751
 30
0.0
 11
39.500001818
 21
-10.395311751
 31
0.0
  0
LINE
  5
7A
330
1D
100
AcDbEntity
  8
1
100
AcDbLine
 10
28.699999675
 20
-10.395311751
 30
0.0
 11
28.699999675
 21
10.39531175
 31
0.0
  0
LINE
  5
7C
330
1D
100
AcDbEntity
  8
1
100
AcDbLine
 10
0.0
 20
-31.25
 30
0.0
 11
0.0
 21
31.25
 31
0.0
  0
LINE
  5
7D
330
1D
100
AcDbEntity
  8
1
100
AcDbLine
 10
39.000000805
 20
-31.750001013
 30
0.0
 11
39.500001818
 21
-31.249993791
 31
0.0
  0
LINE
  5
7E
330
1D
100
AcDbEntity
  8
1
100
AcDbLine
 10
39.500001818
 20
31.249993791
 30
0.0
 11
39.000000805
 21
31.750001013
 31
0.0
  0
LINE
  5
7F
330
1D
100
AcDbEntity
  8
1
100
AcDbLine
 10
39.500001818
 20
-31.249993791
 30
0.0
 11
39.500001818
 21
31.249993791
 31
0.0
  0
LINE
  5
80
330
1D
100
AcDbEntity
  8
SK3
100
AcDbLine
 10
-0.199999995
 20
-8.000000408
 30
0.0
 11
-0.199999995
 21
8.00002248
 31
0.0
  0
LINE
  5
81
330
1D
100
AcDbEntity
  8
3
100
AcDbLine
 10
7.896509022
 20
26.538003236
 30
0.0
 11
7.973181199
 21
20.090173996
 31
0.0
  0
LINE
  5
82
330
1D
100
AcDbEntity
  8
3
100
AcDbLine
 10
12.134538963
 20
15.311289579
 30
0.0
 11
34.489023389
 21
23.749999702
 31
0.0
  0
LINE
  5
83
330
1D
100
AcDbEntity
  8
3
100
AcDbLine
 10
15.58783061
 20
29.441439703
 30
0.0
 11
7.896509022
 21
26.538003236
 31
0.0
  0
LINE
  5
84
330
1D
100
AcDbEntity
  8
3
100
AcDbLine
 10
7.973181199
 20
20.090173996
 30
0.0
 11
-0.0000000000000009
 21
12.40977422183726
 31
0.0
  0
LINE
  5
85
330
1D
100
AcDbEntity
  8
3
100
AcDbLine
 10
0.173736522
 20
7.023167612
 30
0.0
 11
10.652462952
 21
17.117107287
 31
0.0
  0
LINE
  5
86
330
1D
100
AcDbEntity
  8
3
100
AcDbLine
 10
0.0
 20
-7.500504803404532
 30
0.0
 11
2.729960382
 21
0.0
 31
0.0
  0
LINE
  5
87
330
1D
100
AcDbEntity
  8
3
100
AcDbLine
 10
2.729960382
 20
0.0
 30
0.0
 11
0.0000000000000013
 21
7.50050480224714
 31
0.0
  0
LINE
  5
88
330
1D
100
AcDbEntity
  8
3
100
AcDbLine
 10
7.973181199
 20
20.090173996
 30
0.0
 11
10.652462952
 21
17.117107287
 31
0.0
  0
LINE
  5
89
330
1D
100
AcDbEntity
  8
3
100
AcDbLine
 10
10.652462952
 20
17.117107287
 30
0.0
 11
12.134538963
 21
15.311289579
 31
0.0
  0
LINE
  5
8A
330
1D
100
AcDbEntity
  8
3
100
AcDbLine
 10
7.896509022
 20
26.538003236
 30
0.0
 11
12.134538963
 21
15.311289579
 31
0.0
  0
LINE
  5
8B
330
1D
100
AcDbEntity
  8
4
100
AcDbLine
 10
-0.0000000000000009
 20
9.632792507623225
 30
0.0
 11
10.059929093
 21
19.3233134
 31
0.0
  0
LINE
  5
8C
330
1D
100
AcDbEntity
  8
4
100
AcDbLine
 10
7.526758413
 20
19.985149348
 30
0.0
 11
23.486049015
 21
26.009704627
 31
0.0
  0
LINE
  5
8D
330
1D
100
AcDbEntity
  8
2
100
AcDbLine
 10
0.0
 20
-43.75977993
 30
0.0
 11
0.0
 21
-31.25
 31
0.0
  0
LINE
  5
8E
330
1D
100
AcDbEntity
  8
2
100
AcDbLine
 10
0.0
 20
-41.75977993
 30
0.0
 11
3.500000005
 21
-41.309779971
 31
0.0
  0
LINE
  5
8F
330
1D
100
AcDbEntity
  8
2
100
AcDbLine
 10
3.500000005
 20
-41.309779971
 30
0.0
 11
3.499999995
 21
-42.209779971
 31
0.0
  0
LINE
  5
90
330
1D
100
AcDbEntity
  8
2
100
AcDbLine
 10
3.499999995
 20
-42.209779971
 30
0.0
 11
0.0
 21
-41.75977993
 31
0.0
  0
LINE
  5
91
330
1D
100
AcDbEntity
  8
2
100
AcDbLine
 10
39.500001818
 20
-43.759780397
 30
0.0
 11
39.500001818
 21
-31.249993791
 31
0.0
  0
LINE
  5
92
330
1D
100
AcDbEntity
  8
2
100
AcDbLine
 10
39.500001818
 20
-41.759780397
 30
0.0
 11
36.000001813
 21
-42.209780356
 31
0.0
  0
LINE
  5
93
330
1D
100
AcDbEntity
  8
2
100
AcDbLine
 10
36.000001813
 20
-42.209780356
 30
0.0
 11
36.000001823
 21
-41.309780356
 31
0.0
  0
LINE
  5
94
330
1D
100
AcDbEntity
  8
2
100
AcDbLine
 10
36.000001823
 20
-41.309780356
 30
0.0
 11
39.500001818
 21
-41.759780397
 31
0.0
  0
LINE
  5
95
330
1D
100
AcDbEntity
  8
2
100
AcDbLine
 10
3.5
 20
-41.759779971
 30
0.0
 11
36.000001818
 21
-41.759780356
 31
0.0
  0
TEXT
  5
96
330
1D
100
AcDbEntity
  8
2
100
AcDbText
 10
16.827500485
 20
-40.259780129
 30
0.0
 40
3.5
  1
39.5
 50
359.9999993229999
  7
BMG_Text
100
AcDbText
  0
LINE
  5
97
330
1D
100
AcDbEntity
  8
SK2
100
AcDbLine
 10
-57.638168311
 20
-31.750001013
 30
0.0
 11
0.500000024
 21
-31.750001013
 31
0.0
  0
LINE
  5
98
330
1D
100
AcDbEntity
  8
SK2
100
AcDbLine
 10
-55.638168311
 20
-31.750001013
 30
0.0
 11
-56.088168311
 21
-28.250001013
 31
0.0
  0
LINE
  5
99
330
1D
100
AcDbEntity
  8
SK2
100
AcDbLine
 10
-56.088168311
 20
-28.250001013
 30
0.0
 11
-55.188168311
 21
-28.250001013
 31
0.0
  0
LINE
  5
9A
330
1D
100
AcDbEntity
  8
SK2
100
AcDbLine
 10
-55.188168311
 20
-28.250001013
 30
0.0
 11
-55.638168311
 21
-31.750001013
 31
0.0
  0
LINE
  5
9B
330
1D
100
AcDbEntity
  8
SK2
100
AcDbLine
 10
-57.638168311
 20
31.750001013
 30
0.0
 11
0.500000024
 21
31.750001013
 31
0.0
  0
LINE
  5
9C
330
1D
100
AcDbEntity
  8
SK2
100
AcDbLine
 10
-55.638168311
 20
31.750001013
 30
0.0
 11
-55.188168311
 21
28.250001013
 31
0.0
  0
LINE
  5
9D
330
1D
100
AcDbEntity
  8
SK2
100
AcDbLine
 10
-55.188168311
 20
28.250001013
 30
0.0
 11
-56.088168311
 21
28.250001013
 31
0.0
  0
LINE
  5
9E
330
1D
100
AcDbEntity
  8
SK2
100
AcDbLine
 10
-56.088168311
 20
28.250001013
 30
0.0
 11
-55.638168311
 21
31.750001013
 31
0.0
  0
LINE
  5
9F
330
1D
100
AcDbEntity
  8
SK2
100
AcDbLine
 10
-55.638168311
 20
-28.250001013
 30
0.0
 11
-55.638168311
 21
28.250001013
 31
0.0
  0
TEXT
  5
A0
330
1D
100
AcDbEntity
  8
SK2
100
AcDbText
 10
-57.138168311
 20
-1.17250071
 30
0.0
 40
3.5
  1
63.5
 50
90.0
  7
BMG_Text
100
AcDbText
  0
CIRCLE
  5
A1
330
1D
100
AcDbEntity
  8
SK2
100
AcDbCircle
 10
-58.388168311
 20
-3.42250071
 30
0.0
 40
1.25
  0
LINE
  5
A2
330
1D
100
AcDbEntity
  8
SK2
100
AcDbLine
 10
-57.138168311
 20
-4.67250071
 30
0.0
 11
-59.638168311
 21
-2.17250071
 31
0.0
  0
CIRCLE
  5
A3
330
1D
100
AcDbEntity
  8
SK1
100
AcDbCircle
 10
-15.5
 20
0.0
 30
0.0
 40
4.860346179
  0
LINE
  5
A4
330
1D
100
AcDbEntity
  8
SK1
100
AcDbLine
 10
-13.430801392
 20
-21.5
 30
0.0
 11
-4.569198609
 21
-21.5
 31
0.0
  0
LINE
  5
A5
330
1D
100
AcDbEntity
  8
SK1
100
AcDbLine
 10
-13.430801392
 20
21.5
 30
0.0
 11
-4.569198609
 21
21.5
 31
0.0
  0
LINE
  5
A6
330
1D
100
AcDbEntity
  8
SK1
100
AcDbLine
 10
-15.866012574
 20
-18.282051086
 30
0.0
 11
-14.296813965
 21
-21.0
 31
0.0
  0
LINE
  5
A7
330
1D
100
AcDbEntity
  8
SK1
100
AcDbLine
 10
-2.133972168
 20
-18.282066345
 30
0.0
 11
-3.703186035
 21
-20.999992371
 31
0.0
  0
LINE
  5
A8
330
1D
100
AcDbEntity
  8
SK1
100
AcDbLine
 10
-15.866027832
 20
18.282066345
 30
0.0
 11
-14.296813965
 21
21.0
 31
0.0
  0
LINE
  5
A9
330
1D
100
AcDbEntity
  8
SK1
100
AcDbLine
 10
-2.133987427
 20
18.282066345
 30
0.0
 11
-3.703170777
 21
21.0
 31
0.0
  0
ARC
  5
AA
330
1D
100
AcDbEntity
  8
SK1
100
AcDbCircle
 10
-15.0
 20
-17.782043457
 30
0.0
 40
1.0
100
AcDbArc
 50
192.589039226
 51
210.000746548
  0
ARC
  5
AB
330
1D
100
AcDbEntity
  8
SK1
100
AcDbCircle
 10
-13.430801392
 20
-20.5
 30
0.0
 40
0.999988854
100
AcDbArc
 50
210.000366211
 51
269.999997854
  0
ARC
  5
AC
330
1D
100
AcDbEntity
  8
SK1
100
AcDbCircle
 10
-4.569198609
 20
-20.5
 30
0.0
 40
1.0
100
AcDbArc
 50
270.0
 51
330.000001788
  0
ARC
  5
AD
330
1D
100
AcDbEntity
  8
SK1
100
AcDbCircle
 10
-3.0
 20
-17.782058716
 30
0.0
 40
1.000005841
100
AcDbArc
 50
329.999694824
 51
347.41193131
  0
ARC
  5
AE
330
1D
100
AcDbEntity
  8
SK1
100
AcDbCircle
 10
-15.0
 20
17.782066345
 30
0.0
 40
1.0
100
AcDbArc
 50
150.000068843
 51
167.412304472
  0
ARC
  5
AF
330
1D
100
AcDbEntity
  8
SK1
100
AcDbCircle
 10
-13.430801392
 20
20.5
 30
0.0
 40
0.999988854
100
AcDbArc
 50
90.000002146
 51
149.999633789
  0
ARC
  5
B0
330
1D
100
AcDbEntity
  8
SK1
100
AcDbCircle
 10
-4.569198609
 20
20.5
 30
0.0
 40
1.0
100
AcDbArc
 50
29.99993920299999
 51
90.0
  0
ARC
  5
B1
330
1D
100
AcDbEntity
  8
SK1
100
AcDbCircle
 10
-3.0
 20
17.782058716
 30
0.0
 40
0.999992669
100
AcDbArc
 50
12.58823723
 51
30.000732422
  0
LINE
  5
B2
330
1D
100
AcDbEntity
  8
SK4
100
AcDbLine
 10
-9.0
 20
22.339381391
 30
0.0
 11
-9.0
 21
17.109295048
 31
0.0
  0
LINE
  5
B3
330
1D
100
AcDbEntity
  8
SK4
100
AcDbLine
 10
-9.0
 20
-22.339381391
 30
0.0
 11
-9.0
 21
-17.109295048
 31
0.0
  0
ARC
  5
B4
330
1D
100
AcDbEntity
  8
1
100
AcDbCircle
 10
71.496590532
 20
-26.812953319
 30
0.0
 40
56.959784574
100
AcDbArc
 50
124.239375938
 51
125.494703262
  0
ARC
  5
B5
330
1D
100
AcDbEntity
  8
1
100
AcDbCircle
 10
57.562783025
 20
-7.274562877
 30
0.0
 40
32.94508342
100
AcDbArc
 50
125.494796581
 51
130.458684161
  0
ARC
  5
B6
330
1D
100
AcDbEntity
  8
1
100
AcDbCircle
 10
39.087199088
 20
20.775580779
 30
0.0
 40
0.616803754
100
AcDbArc
 50
305.807959568
 51
54.19204043199999
  0
ARC
  5
B7
330
1D
100
AcDbEntity
  8
1
100
AcDbCircle
 10
8.899557242
 20
-26.812953319
 30
0.0
 40
56.971395793
100
AcDbArc
 50
57.57412970800001
 51
61.70642850500001
  0
ARC
  5
B8
330
1D
100
AcDbEntity
  8
1
100
AcDbCircle
 10
61.104285686
 20
-26.812953319
 30
0.0
 40
56.9465551
100
AcDbArc
 50
114.515053517
 51
115.930651407
  0
LINE
  5
BA
330
1D
100
AcDbEntity
  8
1
100
AcDbLine
 10
54.299996704
 20
24.000000209
 30
0.0
 11
53.792478055
 21
24.50752072
 31
0.0
  0
LINE
  5
BB
330
1D
100
AcDbEntity
  8
1
100
AcDbLine
 10
53.792478055
 20
24.50752072
 30
0.0
 11
53.299998403
 21
25.000000373
 31
0.0
  0
LINE
  5
BC
330
1D
100
AcDbEntity
  8
1
100
AcDbLine
 10
54.299996704
 20
13.171067461
 30
0.0
 11
54.299996704
 21
24.000000209
 31
0.0
  0
ARC
  5
BD
330
1D
100
AcDbEntity
  8
1
100
AcDbCircle
 10
59.30003008
 20
13.171077489
 30
0.0
 40
5.000033376
100
AcDbArc
 50
180.000114906
 51
213.721008589
  0
LINE
  5
BE
330
1D
100
AcDbEntity
  8
1
100
AcDbLine
 10
55.14124921
 20
10.39531175
 30
0.0
 11
39.698073179
 21
10.39531175
 31
0.0
  0
ARC
  5
BF
330
1D
100
AcDbEntity
  8
1
100
AcDbCircle
 10
37.47734171
 20
10.536289031
 30
0.0
 40
2.225201754
100
AcDbArc
 50
356.367602855
 51
27.669435047
  0
ARC
  5
C0
330
1D
100
AcDbEntity
  8
1
100
AcDbCircle
 10
17.743553622
 20
-3.013080007
 30
0.0
 40
26.148439815
100
AcDbArc
 50
33.896094817
 51
38.787977819
  0
ARC
  5
C1
330
1D
100
AcDbEntity
  8
1
100
AcDbCircle
 10
12.441059903
 20
-7.274562877
 30
0.0
 40
32.94508342
100
AcDbArc
 50
38.787977819
 51
44.57212358999998
  0
LINE
  5
C2
330
1D
100
AcDbEntity
  8
1
100
AcDbLine
 10
39.698073179
 20
10.39531175
 30
0.0
 11
39.698073179
 21
-10.39531175
 31
0.0
  0
ARC
  5
C3
330
1D
100
AcDbEntity
  8
1
100
AcDbCircle
 10
37.399751984
 20
-10.519770612
 30
0.0
 40
2.30168858
100
AcDbArc
 50
332.86330425
 51
3.099657849
  0
ARC
  5
C4
330
1D
100
AcDbEntity
  8
1
100
AcDbCircle
 10
14.092541315
 20
39.341599494
 30
0.0
 40
70.498892291
100
AcDbArc
 50
288.275465054
 51
291.0770138930001
  0
LINE
  5
C5
330
1D
100
AcDbEntity
  8
1
100
AcDbLine
 10
39.448072672
 20
-26.447370648
 30
0.0
 11
39.578826636
 21
-26.374692097
 31
0.0
  0
LINE
  5
C6
330
1D
100
AcDbEntity
  8
1
100
AcDbLine
 10
39.578826636
 20
-26.374692097
 30
0.0
 11
39.66152063
 21
-26.282755658
 31
0.0
  0
LINE
  5
C7
330
1D
100
AcDbEntity
  8
1
100
AcDbLine
 10
39.66152063
 20
-26.282755658
 30
0.0
 11
39.697838485
 21
-26.165170595
 31
0.0
  0
LINE
  5
C8
330
1D
100
AcDbEntity
  8
1
100
AcDbLine
 10
39.697838485
 20
-26.165170595
 30
0.0
 11
39.664843589
 21
-26.030324399
 31
0.0
  0
LINE
  5
C9
330
1D
100
AcDbEntity
  8
1
100
AcDbLine
 10
39.664843589
 20
-26.030324399
 30
0.0
 11
39.549344689
 21
-25.906106457
 31
0.0
  0
LINE
  5
CA
330
1D
100
AcDbEntity
  8
1
100
AcDbLine
 10
39.549344689
 20
-25.906106457
 30
0.0
 11
39.448072672
 21
-25.851238519
 31
0.0
  0
ARC
  5
CB
330
1D
100
AcDbEntity
  8
1
100
AcDbCircle
 10
61.104285686
 20
26.812953319
 30
0.0
 40
56.952340394
100
AcDbArc
 50
244.069348593
 51
247.461812867
  0
ARC
  5
CC
330
1D
100
AcDbEntity
  8
1
100
AcDbCircle
 10
66.303606459
 20
39.341599494
 30
0.0
 40
70.507650296
100
AcDbArc
 50
247.461812867
 51
247.611281796
  0
ARC
  5
CD
330
1D
100
AcDbEntity
  8
1
100
AcDbCircle
 10
8.899557242
 20
26.812953319
 30
0.0
 40
56.964049744
100
AcDbArc
 50
298.293571495
 51
302.425870292
  0
ARC
  5
CE
330
1D
100
AcDbEntity
  8
1
100
AcDbCircle
 10
39.084176666
 20
-20.775580779
 30
0.0
 40
0.61857694
100
AcDbArc
 50
306.034996627
 51
53.96500337299999
  0
ARC
  5
CF
330
1D
100
AcDbEntity
  8
1
100
AcDbCircle
 10
57.562783025
 20
7.274562877
 30
0.0
 40
32.921559676
100
AcDbArc
 50
229.541315839
 51
234.505203419
  0
ARC
  5
D0
330
1D
100
AcDbEntity
  8
1
100
AcDbCircle
 10
71.496590532
 20
26.812953319
 30
0.0
 40
56.942993593
100
AcDbArc
 50
234.505296738
 51
235.760624062
  0
ARC
  5
D1
330
1D
100
AcDbEntity
  8
1
100
AcDbCircle
 10
12.441059903
 20
7.274562877
 30
0.0
 40
32.930874384
100
AcDbArc
 50
315.42787641
 51
321.212022181
  0
ARC
  5
D2
330
1D
100
AcDbEntity
  8
1
100
AcDbCircle
 10
17.743553622
 20
3.013080007
 30
0.0
 40
26.142387197
100
AcDbArc
 50
321.212022181
 51
326.103905183
  0
LINE
  5
D3
330
1D
100
AcDbEntity
  8
1
100
AcDbLine
 10
39.698073179
 20
-10.39531175
 30
0.0
 11
60.548083395
 21
-10.39531175
 31
0.0
  0
LINE
  5
D4
330
1D
100
AcDbEntity
  8
1
100
AcDbLine
 10
60.548083395
 20
-10.39531175
 30
0.0
 11
60.548083395
 21
-31.457472593
 31
0.0
  0
LINE
  5
D5
330
1D
100
AcDbEntity
  8
1
100
AcDbLine
 10
58.73470521
 20
-31.457472593
 30
0.0
 11
60.548083395
 21
-31.457472593
 31
0.0
  0
ARC
  5
D6
330
1D
100
AcDbEntity
  8
1
100
AcDbCircle
 10
58.693947219
 20
-31.914714693
 30
0.0
 40
0.459055064
100
AcDbArc
 50
84.906188474
 51
110.297218874
  0
LINE
  5
D7
330
1D
100
AcDbEntity
  8
1
100
AcDbLine
 10
58.53470555
 20
-31.709659845
 30
0.0
 11
58.53470555
 21
-31.484164298
 31
0.0
  0
ARC
  5
D8
330
1D
100
AcDbEntity
  8
1
100
AcDbCircle
 10
58.352408055
 20
-31.252880361
 30
0.0
 40
0.497092748
100
AcDbArc
 50
271.313356759
 51
291.7565584060002
  0
LINE
  5
D9
330
1D
100
AcDbEntity
  8
1
100
AcDbLine
 10
58.363800407
 20
-31.749840826
 30
0.0
 11
39.687970191
 21
-31.749840826
 31
0.0
  0
ARC
  5
DA
330
1D
100
AcDbEntity
  8
1
100
AcDbCircle
 10
39.192508917
 20
-63.990949671
 30
0.0
 40
32.244915591
100
AcDbArc
 50
89.119583458
 51
89.545885683
  0
ARC
  5
DB
330
1D
100
AcDbEntity
  8
1
100
AcDbCircle
 10
40.198073887
 20
61.07115944
 30
0.0
 40
92.823281902
100
AcDbArc
 50
267.531397549
 51
269.537042343
  0
ARC
  5
DC
330
1D
100
AcDbEntity
  8
1
100
AcDbCircle
 10
29.805769041
 20
61.07115944
 30
0.0
 40
92.82629484
100
AcDbArc
 50
273.949879345
 51
275.962007349
  0
LINE
  5
DD
330
1D
100
AcDbEntity
  8
1
100
AcDbLine
 10
39.448072672
 20
-31.258136034
 30
0.0
 11
39.577377498
 21
-31.238848343
 31
0.0
  0
LINE
  5
DE
330
1D
100
AcDbEntity
  8
1
100
AcDbLine
 10
39.577377498
 20
-31.238848343
 30
0.0
 11
39.663483858
 21
-31.212529167
 31
0.0
  0
LINE
  5
DF
330
1D
100
AcDbEntity
  8
1
100
AcDbLine
 10
39.663483858
 20
-31.212529167
 30
0.0
 11
39.697745353
 21
-31.181396916
 31
0.0
  0
LINE
  5
E0
330
1D
100
AcDbEntity
  8
1
100
AcDbLine
 10
39.697745353
 20
-31.181396916
 30
0.0
 11
39.674886972
 21
-31.148577109
 31
0.0
  0
LINE
  5
E1
330
1D
100
AcDbEntity
  8
1
100
AcDbLine
 10
39.674886972
 20
-31.148577109
 30
0.0
 11
39.596056104
 21
-31.11814335
 31
0.0
  0
LINE
  5
E2
330
1D
100
AcDbEntity
  8
1
100
AcDbLine
 10
39.596056104
 20
-31.11814335
 30
0.0
 11
39.47076714
 21
-31.094336882
 31
0.0
  0
LINE
  5
E3
330
1D
100
AcDbEntity
  8
1
100
AcDbLine
 10
39.47076714
 20
-31.094336882
 30
0.0
 11
39.448072672
 21
-31.091459095
 31
0.0
  0
ARC
  5
E4
330
1D
100
AcDbEntity
  8
1
100
AcDbCircle
 10
50.590378732
 20
61.07115944
 30
0.0
 40
92.836921017
100
AcDbArc
 50
261.082792497
 51
263.106493269
  0
ARC
  5
E5
330
1D
100
AcDbEntity
  8
1
100
AcDbCircle
 10
19.413464196
 20
61.07115944
 30
0.0
 40
92.836071329
100
AcDbArc
 50
280.4174728199998
 51
282.464078495
  0
LINE
  5
E6
330
1D
100
AcDbEntity
  8
1
100
AcDbLine
 10
39.448072672
 20
-29.568010941
 30
0.0
 11
39.577824533
 21
-29.525630176
 31
0.0
  0
LINE
  5
E7
330
1D
100
AcDbEntity
  8
1
100
AcDbLine
 10
39.577824533
 20
-29.525630176
 30
0.0
 11
39.662735075
 21
-29.469640925
 31
0.0
  0
LINE
  5
E8
330
1D
100
AcDbEntity
  8
1
100
AcDbLine
 10
39.662735075
 20
-29.469640925
 30
0.0
 11
39.697745353
 21
-29.402326792
 31
0.0
  0
LINE
  5
E9
330
1D
100
AcDbEntity
  8
1
100
AcDbLine
 10
39.697745353
 20
-29.402326792
 30
0.0
 11
39.67223084
 21
-29.329665005
 31
0.0
  0
LINE
  5
EA
330
1D
100
AcDbEntity
  8
1
100
AcDbLine
 10
39.67223084
 20
-29.329665005
 30
0.0
 11
39.583088368
 21
-29.262684286
 31
0.0
  0
LINE
  5
EB
330
1D
100
AcDbEntity
  8
1
100
AcDbLine
 10
39.583088368
 20
-29.262684286
 30
0.0
 11
39.448072672
 21
-29.214426875
 31
0.0
  0
ARC
  5
EC
330
1D
100
AcDbEntity
  8
1
100
AcDbCircle
 10
55.911301614
 20
39.341599494
 30
0.0
 40
70.496550426
100
AcDbArc
 50
253.763270546
 51
256.496537241
  0
ARC
  5
ED
330
1D
100
AcDbEntity
  8
1
100
AcDbCircle
 10
69.404016785
 20
-32.207537102
 30
0.0
 40
0.804667554
100
AcDbArc
 50
260.386749907
 51
358.6857791080001
  0
LINE
  5
EE
330
1D
100
AcDbEntity
  8
1
100
AcDbLine
 10
67.503032744
 20
-11.659521609
 30
0.0
 11
67.397927404
 21
-12.496901676
 31
0.0
  0
LINE
  5
EF
330
1D
100
AcDbEntity
  8
1
100
AcDbLine
 10
67.397927404
 20
-12.496901676
 30
0.0
 11
67.302418411
 21
-12.812425382
 31
0.0
  0
LINE
  5
F0
330
1D
100
AcDbEntity
  8
1
100
AcDbLine
 10
67.302418411
 20
-12.812425382
 30
0.0
 11
67.120877564
 21
-13.149997219
 31
0.0
  0
LINE
  5
F1
330
1D
100
AcDbEntity
  8
1
100
AcDbLine
 10
67.120877564
 20
-13.149997219
 30
0.0
 11
67.014431119
 21
-13.259994797
 31
0.0
  0
LINE
  5
F2
330
1D
100
AcDbEntity
  8
1
100
AcDbLine
 10
67.014431119
 20
-13.259994797
 30
0.0
 11
66.879307389
 21
-13.334872201
 31
0.0
  0
LINE
  5
F3
330
1D
100
AcDbEntity
  8
1
100
AcDbLine
 10
66.879307389
 20
-13.334872201
 30
0.0
 11
66.770648122
 21
-13.350357301
 31
0.0
  0
LINE
  5
F4
330
1D
100
AcDbEntity
  8
1
100
AcDbLine
 10
66.770648122
 20
-13.350357301
 30
0.0
 11
66.662979782
 21
-13.329281472
 31
0.0
  0
LINE
  5
F5
330
1D
100
AcDbEntity
  8
1
100
AcDbLine
 10
66.662979782
 20
-13.329281472
 30
0.0
 11
66.63973397
 21
-13.320025057
 31
0.0
  0
LINE
  5
F6
330
1D
100
AcDbEntity
  8
1
100
AcDbLine
 10
67.503032744
 20
-11.659521609
 30
0.0
 11
67.517628431
 21
-11.684044264
 31
0.0
  0
LINE
  5
F7
330
1D
100
AcDbEntity
  8
1
100
AcDbLine
 10
60.548083395
 20
-31.457472593
 30
0.0
 11
62.918489337
 21
-31.879272312
 31
0.0
  0
LINE
  5
F8
330
1D
100
AcDbEntity
  8
1
100
AcDbLine
 10
62.918489337
 20
-31.879272312
 30
0.0
 11
69.269639909
 21
-33.008947968
 31
0.0
  0
ARC
  5
F9
330
1D
100
AcDbEntity
  8
1
100
AcDbCircle
 10
100.449974755
 20
64.906873142
 30
0.0
 40
85.22077202
100
AcDbArc
 50
242.081321039
 51
246.625644192
  0
LINE
  5
FA
330
1D
100
AcDbEntity
  8
1
100
AcDbLine
 10
65.399994612
 20
0.0
 30
0.0
 11
55.7644642
 21
9.635534138
 31
0.0
  0
LINE
  5
FB
330
1D
100
AcDbEntity
  8
1
100
AcDbLine
 10
65.399994612
 20
-4.00000019
 30
0.0
 11
65.399994612
 21
4.00000019
 31
0.0
  0
ARC
  5
FC
330
1D
100
AcDbEntity
  8
1
100
AcDbCircle
 10
80.399997676
 20
-4.0
 30
0.0
 40
15.0
100
AcDbArc
 50
180.0
 51
210.706121621
  0
ARC
  5
FD
330
1D
100
AcDbEntity
  8
1
100
AcDbCircle
 10
59.299997676
 20
13.171067812
 30
0.0
 40
5.0
100
AcDbArc
 50
213.721134772
 51
225.0
  0
ARC
  5
FE
330
1D
100
AcDbEntity
  8
1
100
AcDbCircle
 10
80.399997676
 20
-4.0
 30
0.0
 40
15.0
100
AcDbArc
 50
226.236978409
 51
229.458398126
  0
LINE
  5
FF
330
1D
100
AcDbEntity
  8
1
100
AcDbLine
 10
70.649994075
 20
-15.399012715
 30
0.0
 11
70.649994075
 21
-21.264974028
 31
0.0
  0
LINE
  5
100
330
1D
100
AcDbEntity
  8
1
100
AcDbLine
 10
70.649994075
 20
-21.264974028
 30
0.0
 11
70.49233979
 21
-21.410599351
 31
0.0
  0
LINE
  5
101
330
1D
100
AcDbEntity
  8
1
100
AcDbLine
 10
70.229580164
 20
-21.364031359
 30
0.0
 11
70.49233979
 21
-21.410599351
 31
0.0
  0
ARC
  5
102
330
1D
100
AcDbEntity
  8
1
100
AcDbCircle
 10
70.293157995
 20
-21.399114072
 30
0.0
 40
0.07456417
100
AcDbArc
 50
153.326885058
 51
167.639176193
  0
ARC
  5
103
330
1D
100
AcDbEntity
  8
1
100
AcDbCircle
 10
70.480524225
 20
-21.440174924
 30
0.0
 40
0.266376833
100
AcDbArc
 50
167.639176193
 51
174.834712783
  0
ARC
  5
104
330
1D
100
AcDbEntity
  8
1
100
AcDbCircle
 10
71.850767312
 20
-21.564038042
 30
0.0
 40
1.642206834
100
AcDbArc
 50
174.834774516
 51
179.978511677
  0
LINE
  5
105
330
1D
100
AcDbEntity
  8
1
100
AcDbLine
 10
70.208562076
 20
-32.214283943
 30
0.0
 11
70.208562076
 21
-21.563421935
 31
0.0
  0
LINE
  5
106
330
1D
100
AcDbEntity
  8
1
100
AcDbLine
 10
70.208562076
 20
-32.214283943
 30
0.0
 11
70.208472669
 21
-32.225992531
 31
0.0
  0
ARC
  5
107
330
1D
100
AcDbEntity
  8
1
100
AcDbCircle
 10
140.61735258
 20
-9.0
 30
0.0
 40
72.290320398
100
AcDbArc
 50
183.214921891
 51
185.344722231
  0
ARC
  5
108
330
1D
100
AcDbEntity
  8
1
100
AcDbCircle
 10
80.439444769
 20
-14.629852622
 30
0.0
 40
11.836340225
100
AcDbArc
 50
185.345024151
 51
192.606993773
  0
ARC
  5
109
330
1D
100
AcDbEntity
  8
1
100
AcDbCircle
 10
72.144901952
 20
-16.484965689
 30
0.0
 40
3.336876416
100
AcDbArc
 50
192.606993773
 51
207.00288411
  0
ARC
  5
10A
330
1D
100
AcDbEntity
  8
1
100
AcDbCircle
 10
69.294153041
 20
-17.937676268
 30
0.0
 40
0.137323732
100
AcDbArc
 50
207.002623801
 51
332.997376199
  0
ARC
  5
10C
330
1D
100
AcDbEntity
  8
1
100
AcDbCircle
 10
66.443404129
 20
-16.484965689
 30
0.0
 40
3.336876416
100
AcDbArc
 50
332.9971158899999
 51
347.393006227
  0
ARC
  5
10D
330
1D
100
AcDbEntity
  8
1
100
AcDbCircle
 10
58.148861312
 20
-14.629852622
 30
0.0
 40
11.836340225
100
AcDbArc
 50
347.393006227
 51
354.654975849
  0
ARC
  5
10E
330
1D
100
AcDbEntity
  8
1
100
AcDbCircle
 10
-2.029046499
 20
-9.0
 30
0.0
 40
72.277020475
100
AcDbArc
 50
354.655277769
 51
355.371729646
  0
ARC
  5
10F
330
1D
100
AcDbEntity
  8
1
100
AcDbCircle
 10
80.399997676
 20
-4.0
 30
0.0
 40
15.0
100
AcDbArc
 50
210.815124975
 51
217.128894313
  0
LINE
  5
110
330
1D
100
AcDbEntity
  8
1
100
AcDbLine
 10
35.899998158
 20
24.700000882
 30
0.0
 11
35.899998158
 21
-31.32776171
 31
0.0
  0
ARC
  5
111
330
1D
100
AcDbEntity
  8
1
100
AcDbCircle
 10
39.401076218
 20
16.331095479
 30
0.0
 40
3.505462987
100
AcDbArc
 50
158.037941297
 51
177.133899549
  0
LINE
  5
112
330
1D
100
AcDbEntity
  8
1
100
AcDbLine
 10
36.199999511
 20
17.774598673
 30
0.0
 11
36.149998665
 21
17.642112449
 31
0.0
  0
LINE
  5
113
330
1D
100
AcDbEntity
  8
1
100
AcDbLine
 10
36.149998665
 20
-17.642112449
 30
0.0
 11
36.199999511
 21
-17.774598673
 31
0.0
  0
LINE
  5
114
330
1D
100
AcDbEntity
  8
1
100
AcDbLine
 10
35.899998158
 20
-16.506375745
 30
0.0
 11
35.934360236
 21
-16.862472519
 31
0.0
  0
LINE
  5
115
330
1D
100
AcDbEntity
  8
1
100
AcDbLine
 10
35.934360236
 20
-16.862472519
 30
0.0
 11
36.149998665
 21
-17.642112449
 31
0.0
  0
ARC
  5
116
330
1D
100
AcDbEntity
  8
1
100
AcDbCircle
 10
79.477502267
 20
-4.877718701
 30
0.0
 40
13.728165007
100
AcDbArc
 50
216.622617276
 51
226.483778925
  0
ARC
  5
117
330
1D
100
AcDbEntity
  8
1
100
AcDbCircle
 10
37.410374827
 20
23.471828491
 30
0.0
 40
1.517215866
100
AcDbArc
 50
146.172404143
 51
174.557733757
  0
LINE
  5
118
330
1D
100
AcDbEntity
  8
1
100
AcDbLine
 10
36.199999511
 20
24.405652657
 30
0.0
 11
36.149998665
 21
24.316456169
 31
0.0
  0
LINE
  5
119
330
1D
100
AcDbEntity
  8
1
100
AcDbLine
 10
36.149998665
 20
-24.316456169
 30
0.0
 11
36.199999511
 21
-24.405652657
 31
0.0
  0
ARC
  5
11A
330
1D
100
AcDbEntity
  8
1
100
AcDbCircle
 10
37.587304209
 20
-23.408705201
 30
0.0
 40
1.699958543
100
AcDbArc
 50
186.994814938
 51
212.275047162
  0
LINE
  5
11B
330
1D
100
AcDbEntity
  8
1
100
AcDbLine
 10
36.149998665
 20
24.949999526
 30
0.0
 11
36.199999511
 21
25.000000373
 31
0.0
  0
LINE
  5
11C
330
1D
100
AcDbEntity
  8
1
100
AcDbLine
 10
53.299998403
 20
25.000000373
 30
0.0
 11
36.199999511
 21
25.000000373
 31
0.0
  0
LINE
  5
11D
330
1D
100
AcDbEntity
  8
1
100
AcDbLine
 10
36.199999511
 20
-27.601318434
 30
0.0
 11
36.149998665
 21
-27.560213581
 31
0.0
  0
LINE
  5
11E
330
1D
100
AcDbEntity
  8
1
100
AcDbLine
 10
36.149998665
 20
-27.560213581
 30
0.0
 11
36.071126819
 21
-27.501536533
 31
0.0
  0
LINE
  5
11F
330
1D
100
AcDbEntity
  8
1
100
AcDbLine
 10
36.071126819
 20
-27.501536533
 30
0.0
 11
35.994415641
 21
-27.461070567
 31
0.0
  0
LINE
  5
120
330
1D
100
AcDbEntity
  8
1
100
AcDbLine
 10
35.994415641
 20
-27.461070567
 30
0.0
 11
35.93588388
 21
-27.453834191
 31
0.0
  0
LINE
  5
121
330
1D
100
AcDbEntity
  8
1
100
AcDbLine
 10
35.93588388
 20
-27.453834191
 30
0.0
 11
35.907608926
 21
-27.476878837
 31
0.0
  0
LINE
  5
122
330
1D
100
AcDbEntity
  8
1
100
AcDbLine
 10
35.907608926
 20
-27.476878837
 30
0.0
 11
35.899998158
 21
-27.516445145
 31
0.0
  0
LINE
  5
123
330
1D
100
AcDbEntity
  8
1
100
AcDbLine
 10
36.149998665
 20
-28.272530064
 30
0.0
 11
36.199999511
 21
-28.343170881
 31
0.0
  0
ARC
  5
124
330
1D
100
AcDbEntity
  8
1
100
AcDbCircle
 10
36.965255293
 20
-27.555242722
 30
0.0
 40
1.085884202
100
AcDbArc
 50
191.185476629
 51
221.342291459
  0
LINE
  5
125
330
1D
100
AcDbEntity
  8
1
100
AcDbLine
 10
35.899998158
 20
24.700000882
 30
0.0
 11
35.910924435
 21
24.710925296
 31
0.0
  0
LINE
  5
126
330
1D
100
AcDbEntity
  8
1
100
AcDbLine
 10
35.910924435
 20
24.710925296
 30
0.0
 11
35.943226427
 21
24.743227288
 31
0.0
  0
LINE
  5
127
330
1D
100
AcDbEntity
  8
1
100
AcDbLine
 10
35.943226427
 20
24.743227288
 30
0.0
 11
35.995488524
 21
24.795491248
 31
0.0
  0
LINE
  5
128
330
1D
100
AcDbEntity
  8
1
100
AcDbLine
 10
35.995488524
 20
24.795491248
 30
0.0
 11
36.06543085
 21
24.865435436
 31
0.0
  0
LINE
  5
129
330
1D
100
AcDbEntity
  8
1
100
AcDbLine
 10
36.06543085
 20
24.865435436
 30
0.0
 11
36.149998665
 21
24.949999526
 31
0.0
  0
LINE
  5
12A
330
1D
100
AcDbEntity
  8
1
100
AcDbLine
 10
36.199999511
 20
-30.234636739
 30
0.0
 11
36.149998665
 21
-30.191380531
 31
0.0
  0
LINE
  5
12B
330
1D
100
AcDbEntity
  8
1
100
AcDbLine
 10
36.149998665
 20
-30.584011227
 30
0.0
 11
36.199999511
 21
-30.643675476
 31
0.0
  0
ARC
  5
12C
330
1D
100
AcDbEntity
  8
1
100
AcDbCircle
 10
36.966070794
 20
-29.776660749
 30
0.0
 40
1.1479497
100
AcDbArc
 50
201.77073485
 51
224.692187953
  0
LINE
  5
12D
330
1D
100
AcDbEntity
  8
1
100
AcDbLine
 10
36.149998665
 20
-30.191380531
 30
0.0
 11
36.0522843
 21
-30.112342909
 31
0.0
  0
LINE
  5
12E
330
1D
100
AcDbEntity
  8
1
100
AcDbLine
 10
36.0522843
 20
-30.112342909
 30
0.0
 11
35.972805232
 21
-30.060503632
 31
0.0
  0
LINE
  5
12F
330
1D
100
AcDbEntity
  8
1
100
AcDbLine
 10
35.972805232
 20
-30.060503632
 30
0.0
 11
35.918233454
 21
-30.042840168
 31
0.0
  0
LINE
  5
130
330
1D
100
AcDbEntity
  8
1
100
AcDbLine
 10
35.918233454
 20
-30.042840168
 30
0.0
 11
35.900333434
 21
-30.059853569
 31
0.0
  0
LINE
  5
131
330
1D
100
AcDbEntity
  8
1
100
AcDbLine
 10
35.900333434
 20
-30.059853569
 30
0.0
 11
35.899998158
 21
-30.065141618
 31
0.0
  0
LINE
  5
132
330
1D
100
AcDbEntity
  8
1
100
AcDbLine
 10
36.199999511
 20
-31.534645706
 30
0.0
 11
36.149998665
 21
-31.487673521
 31
0.0
  0
ARC
  5
133
330
1D
100
AcDbEntity
  8
1
100
AcDbCircle
 10
69.405852737
 20
-32.217871979
 30
0.0
 40
0.802717358
100
AcDbArc
 50
260.230224797
 51
0.256105056
  0
ARC
  5
134
330
1D
100
AcDbEntity
  8
1
100
AcDbCircle
 10
35.608490261
 20
-31.896222383
 30
0.0
 40
0.678338797
100
AcDbArc
 50
37.03325689199999
 51
64.549071606
  0
LINE
  5
135
330
1D
100
AcDbEntity
  8
1
100
AcDbLine
 10
36.149998665
 20
-31.613726169
 30
0.0
 11
36.199999511
 21
-31.665980816
 31
0.0
  0
ARC
  5
136
330
1D
100
AcDbEntity
  8
1
100
AcDbCircle
 10
37.315296584
 20
-30.342718458
 30
0.0
 40
1.724349107
100
AcDbArc
 50
214.837795385
 51
227.484470045
  0
ARC
  5
137
330
1D
100
AcDbEntity
  8
1
100
AcDbCircle
 10
39.392328442
 20
64.007077456
 30
0.0
 40
32.261044297
100
AcDbArc
 50
270.454207213
 51
270.880302925
  0
LINE
  5
138
330
1D
100
AcDbEntity
  8
1
100
AcDbLine
 10
58.363800407
 20
31.749840826
 30
0.0
 11
39.887973577
 21
31.749840826
 31
0.0
  0
LINE
  5
139
330
1D
100
AcDbEntity
  8
1
100
AcDbLine
 10
58.363800407
 20
31.555846334
 30
0.0
 11
58.363800407
 21
31.749840826
 31
0.0
  0
LINE
  5
13A
330
1D
100
AcDbEntity
  8
1
100
AcDbLine
 10
57.313283444
 20
21.88709192
 30
0.0
 11
58.299997359
 21
23.06301333
 31
0.0
  0
ARC
  5
13B
330
1D
100
AcDbEntity
  8
1
100
AcDbCircle
 10
59.304997676
 20
20.215844608
 30
0.0
 40
2.6
100
AcDbArc
 50
140.0
 51
320.0
  0
LINE
  5
13C
330
1D
100
AcDbEntity
  8
1
100
AcDbLine
 10
62.283427924
 20
19.720518962
 30
0.0
 11
61.296714008
 21
18.544597551
 31
0.0
  0
LINE
  5
13E
330
1D
100
AcDbEntity
  8
1
100
AcDbLine
 10
70.649994075
 20
15.399012715
 30
0.0
 11
70.649994075
 21
21.14091840459023
 31
0.0
  0
ARC
  5
13F
330
1D
100
AcDbEntity
  8
1
100
AcDbCircle
 10
80.399997676
 20
4.0
 30
0.0
 40
15.0
100
AcDbArc
 50
130.541601874
 51
180.0
  0
LINE
  5
143
330
1D
100
AcDbEntity
  8
1
100
AcDbLine
 10
36.349998325
 20
31.613726169
 30
0.0
 11
36.399999172
 21
31.665980816
 31
0.0
  0
ARC
  5
144
330
1D
100
AcDbEntity
  8
1
100
AcDbCircle
 10
40.398073887
 20
-61.07115944
 30
0.0
 40
92.821236614
100
AcDbArc
 50
90.462957657
 51
92.46860245100001
  0
LINE
  5
145
330
1D
100
AcDbEntity
  8
1
100
AcDbLine
 10
36.099997819
 20
24.900000542
 30
0.0
 11
36.099997819
 21
31.32776171
 31
0.0
  0
ARC
  5
146
330
1D
100
AcDbEntity
  8
1
100
AcDbCircle
 10
37.515296244
 20
30.342718458
 30
0.0
 40
1.724349107
100
AcDbArc
 50
132.515529955
 51
145.162204615
  0
ARC
  5
147
330
1D
100
AcDbEntity
  8
1
100
AcDbCircle
 10
70.199997676
 20
21.928764607
 30
0.0
 40
0.8
100
AcDbArc
 50
280.0
 51
0.0
  0
ARC
  5
149
330
1D
100
AcDbEntity
  8
1
100
AcDbCircle
 10
59.099997676
 20
19.971535121
 30
0.0
 40
0.8
100
AcDbArc
 50
180.0
 51
280.0
  0
LINE
  5
14B
330
1D
100
AcDbEntity
  8
1
100
AcDbLine
 10
71.0
 20
21.92876488
 30
0.0
 11
71.0
 21
33.199999481
 31
0.0
  0
LINE
  5
14C
330
1D
100
AcDbEntity
  8
1
100
AcDbLine
 10
70.061077833
 20
33.987846226
 30
0.0
 11
58.961079925
 21
32.030615956
 31
0.0
  0
ARC
  5
14D
330
1D
100
AcDbEntity
  8
1
100
AcDbCircle
 10
59.099997676
 20
31.242770513
 30
0.0
 40
0.8
100
AcDbArc
 50
100.0
 51
180.0
  0
ARC
  5
14E
330
1D
100
AcDbEntity
  8
1
100
AcDbCircle
 10
70.199997676
 20
33.199999999
 30
0.0
 40
0.8
100
AcDbArc
 50
0.0
 51
100.0
  0
ARC
  5
14F
330
1D
100
AcDbEntity
  8
CUT
100
AcDbCircle
 10
70.199997676
 20
-33.199999999
 30
0.0
 40
0.8
100
AcDbArc
 50
260.0
 51
0.0
  0
ARC
  5
150
330
1D
100
AcDbEntity
  8
CUT
100
AcDbCircle
 10
70.199997676
 20
-33.199999999
 30
0.0
 40
0.21554549
100
AcDbArc
 50
260.0
 51
0.0
  0
ARC
  5
151
330
1D
100
AcDbEntity
  8
CUT
100
AcDbCircle
 10
70.199997676
 20
-21.928764607
 30
0.0
 40
0.8
100
AcDbArc
 50
0.0
 51
55.898251634
  0
ARC
  5
152
330
1D
100
AcDbEntity
  8
CUT
100
AcDbCircle
 10
70.199997676
 20
-21.928764607
 30
0.0
 40
0.21554549
100
AcDbArc
 50
0.0
 51
80.0
  0
LINE
  5
153
330
1D
100
AcDbEntity
  8
CUT
100
AcDbLine
 10
71.0
 20
-21.92876488
 30
0.0
 11
71.0
 21
-33.199999481
 31
0.0
  0
LINE
  5
154
330
1D
100
AcDbEntity
  8
CUT
100
AcDbLine
 10
70.415546656
 20
-33.199999481
 30
0.0
 11
70.415546656
 21
-21.92876488
 31
0.0
  0
LINE
  5
155
330
1D
100
AcDbEntity
  8
1
100
AcDbLine
 10
70.237425625
 20
-21.716494113
 30
0.0
 11
70.208562076
 21
-21.711403504
 31
0.0
  0
LINE
  5
156
330
1D
100
AcDbEntity
  8
CUT
100
AcDbLine
 10
59.076347858
 20
-31.457472593
 30
0.0
 11
70.162569642
 21
-33.412270248
 31
0.0
  0
LINE
  5
157
330
1D
100
AcDbEntity
  8
CUT
100
AcDbLine
 10
70.061077833
 20
-33.987846225
 30
0.0
 11
58.961079925
 21
-32.030615956
 31
0.0
  0
ARC
  5
158
330
1D
100
AcDbEntity
  8
CUT
100
AcDbCircle
 10
59.099997676
 20
-31.242770513
 30
0.0
 40
0.8
100
AcDbArc
 50
217.854036383
 51
260.0
  0
ARC
  5
159
330
1D
100
AcDbEntity
  8
1
100
AcDbCircle
 10
65.455253859
 20
24.626737131
 30
0.0
 40
0.7
100
AcDbArc
 50
63.384161806
 51
176.615838194
  0
ARC
  5
15A
330
1D
100
AcDbEntity
  8
1
100
AcDbCircle
 10
65.9032601
 20
25.52076756
 30
0.0
 40
0.3
100
AcDbArc
 50
243.384161806
 51
56.61583819400001
  0
ARC
  5
15D
330
1D
100
AcDbEntity
  8
1
100
AcDbCircle
 10
63.458741492
 20
24.626737131
 30
0.0
 40
0.7
100
AcDbArc
 50
3.384161806
 51
116.615838194
  0
ARC
  5
15E
330
1D
100
AcDbEntity
  8
1
100
AcDbCircle
 10
64.456997676
 20
24.68576756
 30
0.0
 40
0.3
100
AcDbArc
 50
183.384161806
 51
356.615838194
  0
ARC
  5
160
330
1D
100
AcDbEntity
  8
1
100
AcDbCircle
 10
62.460485308
 20
26.35576756
 30
0.0
 40
0.7
100
AcDbArc
 50
303.384161806
 51
56.615838194
  0
ARC
  5
161
330
1D
100
AcDbEntity
  8
1
100
AcDbCircle
 10
63.010735251
 20
25.52076756
 30
0.0
 40
0.3
100
AcDbArc
 50
123.384161806
 51
296.615838194
  0
ARC
  5
162
330
1D
100
AcDbEntity
  8
1
100
AcDbCircle
 10
66.453510043
 20
26.35576756
 30
0.0
 40
0.7
100
AcDbArc
 50
123.384161806
 51
236.615838194
  0
ARC
  5
163
330
1D
100
AcDbEntity
  8
1
100
AcDbCircle
 10
65.9032601
 20
27.19076756
 30
0.0
 40
0.3
100
AcDbArc
 50
303.384161806
 51
116.615838194
  0
ARC
  5
166
330
1D
100
AcDbEntity
  8
1
100
AcDbCircle
 10
63.458741492
 20
28.084797989
 30
0.0
 40
0.7
100
AcDbArc
 50
243.384161806
 51
356.615838194
  0
ARC
  5
167
330
1D
100
AcDbEntity
  8
1
100
AcDbCircle
 10
63.010735251
 20
27.19076756
 30
0.0
 40
0.3
100
AcDbArc
 50
63.384161806
 51
236.615838194
  0
ARC
  5
168
330
1D
100
AcDbEntity
  8
1
100
AcDbCircle
 10
65.455253859
 20
28.084797989
 30
0.0
 40
0.7
100
AcDbArc
 50
183.384161806
 51
296.615838194
  0
ARC
  5
169
330
1D
100
AcDbEntity
  8
1
100
AcDbCircle
 10
64.456997676
 20
28.02576756
 30
0.0
 40
0.3
100
AcDbArc
 50
3.384161806
 51
176.615838194
  0
ARC
  5
16B
330
1D
100
AcDbEntity
  8
1
100
AcDbCircle
 10
351.10945605
 20
0.0
 30
0.0
 40
283.832419336
100
AcDbArc
 50
182.359264044
 51
183.67733647
  0
ARC
  5
16C
330
1D
100
AcDbEntity
  8
1
100
AcDbCircle
 10
180.312911987
 20
-10.977011233
 30
0.0
 40
112.670690006
100
AcDbArc
 50
183.677369918
 51
187.095933649
  0
ARC
  5
16D
330
1D
100
AcDbEntity
  8
1
100
AcDbCircle
 10
124.288789247
 20
-17.951146853
 30
0.0
 40
56.214150115
100
AcDbArc
 50
187.095933649
 51
192.474884001
  0
ARC
  5
16E
330
1D
100
AcDbEntity
  8
1
100
AcDbCircle
 10
78.035070471
 20
-28.18401125
 30
0.0
 40
8.842027359
100
AcDbArc
 50
192.475314839
 51
202.812008309
  0
ARC
  5
16F
330
1D
100
AcDbEntity
  8
1
100
AcDbCircle
 10
72.890289546
 20
-30.347946924
 30
0.0
 40
3.260684477
100
AcDbArc
 50
202.812008309
 51
215.003113497
  0
LINE
  5
170
330
1D
100
AcDbEntity
  8
1
100
AcDbLine
 10
69.269639909
 20
-33.000905067
 30
0.0
 11
69.114936054
 21
-32.738659531
 31
0.0
  0
LINE
  5
171
330
1D
100
AcDbEntity
  8
1
100
AcDbLine
 10
69.114936054
 20
-32.738659531
 30
0.0
 11
68.901543975
 21
-32.257746905
 31
0.0
  0
LINE
  5
172
330
1D
100
AcDbEntity
  8
1
100
AcDbLine
 10
68.901543975
 20
-32.257746905
 30
0.0
 11
68.691497207
 21
-31.644359231
 31
0.0
  0
LINE
  5
173
330
1D
100
AcDbEntity
  8
1
100
AcDbLine
 10
68.691497207
 20
-31.644359231
 30
0.0
 11
68.4860847
 21
-30.902141705
 31
0.0
  0
LINE
  5
174
330
1D
100
AcDbEntity
  8
1
100
AcDbLine
 10
68.4860847
 20
-30.902141705
 30
0.0
 11
68.223392129
 21
-29.727809131
 31
0.0
  0
LINE
  5
175
330
1D
100
AcDbEntity
  8
1
100
AcDbLine
 10
68.223392129
 20
-29.727809131
 30
0.0
 11
67.970824897
 21
-28.336238116
 31
0.0
  0
LINE
  5
176
330
1D
100
AcDbEntity
  8
1
100
AcDbLine
 10
67.970824897
 20
-28.336238116
 30
0.0
 11
67.731005609
 21
-26.743020862
 31
0.0
  0
LINE
  5
177
330
1D
100
AcDbEntity
  8
1
100
AcDbLine
 10
67.731005609
 20
-26.743020862
 30
0.0
 11
67.506564319
 21
-24.963751435
 31
0.0
  0
LINE
  5
178
330
1D
100
AcDbEntity
  8
1
100
AcDbLine
 10
67.506564319
 20
-24.963751435
 30
0.0
 11
67.298700571
 21
-23.004204035
 31
0.0
  0
LINE
  5
179
330
1D
100
AcDbEntity
  8
1
100
AcDbLine
 10
67.298700571
 20
-23.004204035
 30
0.0
 11
67.107779443
 21
-20.871952176
 31
0.0
  0
LINE
  5
17A
330
1D
100
AcDbEntity
  8
1
100
AcDbLine
 10
67.107779443
 20
-20.871952176
 30
0.0
 11
66.935767889
 21
-18.590418622
 31
0.0
  0
LINE
  5
17B
330
1D
100
AcDbEntity
  8
1
100
AcDbLine
 10
66.935767889
 20
-18.590418622
 30
0.0
 11
66.784640312
 21
-16.183035448
 31
0.0
  0
LINE
  5
17C
330
1D
100
AcDbEntity
  8
1
100
AcDbLine
 10
66.784640312
 20
-16.183035448
 30
0.0
 11
66.708681643
 21
-14.768572524
 31
0.0
  0
LINE
  5
17D
330
1D
100
AcDbEntity
  8
1
100
AcDbLine
 10
66.708681643
 20
-14.768572524
 30
0.0
 11
66.63973397
 21
-13.320025057
 31
0.0
  0
LINE
  5
17E
330
1D
100
AcDbEntity
  8
1
100
AcDbLine
 10
69.269639909
 20
-33.000905067
 30
0.0
 11
69.269639909
 21
-33.008947968
 31
0.0
  0
LINE
  5
17F
330
1D
100
AcDbEntity
  8
1
100
AcDbLine
 10
57.313283444
 20
21.88709192
 30
0.0
 11
57.316226423
 21
21.884622052
 31
0.0
  0
LINE
  5
180
330
1D
100
AcDbEntity
  8
1
100
AcDbLine
 10
57.316226423
 20
21.884622052
 30
0.0
 11
57.324943602
 21
21.877307445
 31
0.0
  0
LINE
  5
181
330
1D
100
AcDbEntity
  8
1
100
AcDbLine
 10
61.296714008
 20
18.544597551
 30
0.0
 11
61.293771029
 21
18.547067419
 31
0.0
  0
LINE
  5
182
330
1D
100
AcDbEntity
  8
CUT
100
AcDbLine
 10
70.415546656
 20
-33.199999481
 30
0.0
 11
71.0
 21
-33.199999481
 31
0.0
  0
LINE
  5
183
330
1D
100
AcDbEntity
  8
CUT
100
AcDbLine
 10
70.162569642
 20
-33.412270248
 30
0.0
 11
70.061077833
 21
-33.987846225
 31
0.0
  0
LINE
  5
184
330
1D
100
AcDbEntity
  8
CUT
100
AcDbLine
 10
70.237425625
 20
-21.716494113
 30
0.0
 11
70.297454953
 21
-21.376060322
 31
0.0
  0
LINE
  5
185
330
1D
100
AcDbEntity
  8
CUT
100
AcDbLine
 10
70.415546656
 20
-21.92876488
 30
0.0
 11
71.0
 21
-21.92876488
 31
0.0
  0
LINE
  5
186
330
1D
100
AcDbEntity
  8
CUT
100
AcDbLine
 10
59.062139601
 20
-31.457472593
 30
0.0
 11
58.961079925
 21
-32.030615956
 31
0.0
  0
LINE
  5
188
330
1D
100
AcDbEntity
  8
SK2
100
AcDbLine
 10
87.402103198
 20
-33.999999999
 30
0.0
 11
70.199997676
 21
-33.999999999
 31
0.0
  0
LINE
  5
189
330
1D
100
AcDbEntity
  8
SK2
100
AcDbLine
 10
85.402103198
 20
-33.999999999
 30
0.0
 11
84.952103198
 21
-30.499999999
 31
0.0
  0
LINE
  5
18A
330
1D
100
AcDbEntity
  8
SK2
100
AcDbLine
 10
84.952103198
 20
-30.499999999
 30
0.0
 11
85.852103198
 21
-30.499999999
 31
0.0
  0
LINE
  5
18B
330
1D
100
AcDbEntity
  8
SK2
100
AcDbLine
 10
85.852103198
 20
-30.499999999
 30
0.0
 11
85.402103198
 21
-33.999999999
 31
0.0
  0
LINE
  5
18C
330
1D
100
AcDbEntity
  8
SK2
100
AcDbLine
 10
87.402103198
 20
33.999999999
 30
0.0
 11
70.199997676
 21
33.999999999
 31
0.0
  0
LINE
  5
18D
330
1D
100
AcDbEntity
  8
SK2
100
AcDbLine
 10
85.402103198
 20
33.999999999
 30
0.0
 11
85.852103198
 21
30.499999999
 31
0.0
  0
LINE
  5
18E
330
1D
100
AcDbEntity
  8
SK2
100
AcDbLine
 10
85.852103198
 20
30.499999999
 30
0.0
 11
84.952103198
 21
30.499999999
 31
0.0
  0
LINE
  5
18F
330
1D
100
AcDbEntity
  8
SK2
100
AcDbLine
 10
84.952103198
 20
30.499999999
 30
0.0
 11
85.402103198
 21
33.999999999
 31
0.0
  0
LINE
  5
190
330
1D
100
AcDbEntity
  8
SK2
100
AcDbLine
 10
85.402103198
 20
-30.499999999
 30
0.0
 11
85.402103198
 21
30.499999999
 31
0.0
  0
TEXT
  5
191
330
1D
100
AcDbEntity
  8
SK2
100
AcDbText
 10
83.902103198
 20
-3.64187576
 30
0.0
 40
3.5
  1
68
 50
90.0
  7
BMG_Text
100
AcDbText
  0
CIRCLE
  5
192
330
1D
100
AcDbEntity
  8
SK2
100
AcDbCircle
 10
82.652103198
 20
-5.89187576
 30
0.0
 40
1.25
  0
LINE
  5
193
330
1D
100
AcDbEntity
  8
SK2
100
AcDbLine
 10
83.902103198
 20
-7.14187576
 30
0.0
 11
81.402103198
 21
-4.64187576
 31
0.0
  0
TEXT
  5
194
330
1D
100
AcDbEntity
  8
SK2
100
AcDbText
 10
83.902103198
 20
1.07812424
 30
0.0
 40
3.5
  1
-110
 50
90.0
  7
BMG_Text
100
AcDbText
  0
LINE
  5
23F
330
1D
100
AcDbEntity
  8
1
100
AcDbLine
 10
62.283427924
 20
19.720518962
 30
0.0
 11
70.33891621813353
 21
21.14091840459023
 31
0.0
  0
LINE
  5
240
330
1D
100
AcDbEntity
  8
3
100
AcDbLine
 10
70.33891621813353
 20
21.14091840459023
 30
0.0
 11
70.199997676
 21
21.928764607
 31
0.0
  0
LINE
  5
241
330
1D
100
AcDbEntity
  8
3
100
AcDbLine
 10
70.199997676
 20
21.928764607
 30
0.0
 11
70.199997676
 21
33.199999999
 31
0.0
  0
LINE
  5
242
330
1D
100
AcDbEntity
  8
3
100
AcDbLine
 10
70.199997676
 20
33.199999999
 30
0.0
 11
59.099997676
 21
31.242770513
 31
0.0
  0
LINE
  5
243
330
1D
100
AcDbEntity
  8
3
100
AcDbLine
 10
59.099997676
 20
31.242770513
 30
0.0
 11
58.299997676
 21
31.242770513
 31
0.0
  0
LINE
  5
245
330
1D
100
AcDbEntity
  8
1
100
AcDbLine
 10
58.299997676
 20
31.55669798571644
 30
0.0
 11
58.363800407
 21
31.55669798571644
 31
0.0
  0
LINE
  5
246
330
1D
100
AcDbEntity
  8
1
100
AcDbLine
 10
58.299997359
 20
23.06301333
 30
0.0
 11
58.299997359
 21
31.23435882156605
 31
0.0
  0
LINE
  5
24D
330
1D
100
AcDbEntity
  8
1
100
AcDbLine
 10
59.23891621813355
 20
19.18368891859023
 30
0.0
 11
70.33891621813353
 21
21.14091840459023
 31
0.0
  0
LINE
  5
24E
330
1D
100
AcDbEntity
  8
1
100
AcDbLine
 10
58.299997676
 20
19.971535121
 30
0.0
 11
58.299997676
 21
31.55669798571644
 31
0.0
  0
LINE
  5
259
330
1D
100
AcDbEntity
  8
NOCUT
100
AcDbLine
 10
0.0
 20
0.0
 30
0.0
 11
0.0
 21
31.25
 31
0.0
  0
LINE
  5
25A
330
1D
100
AcDbEntity
  8
NOCUT
100
AcDbLine
 10
0.0
 20
31.25
 30
0.0
 11
0.500000024
 21
31.750001013
 31
0.0
  0
LINE
  5
25B
330
1D
100
AcDbEntity
  8
NOCUT
100
AcDbLine
 10
0.500000024
 20
31.750001013
 30
0.0
 11
39.000000805
 21
31.750001013
 31
0.0
  0
LINE
  5
25C
330
1D
100
AcDbEntity
  8
NOCUT
100
AcDbLine
 10
39.000000805
 20
31.750001013
 30
0.0
 11
58.363800407
 21
31.749840826
 31
0.0
  0
LINE
  5
267
330
1D
100
AcDbEntity
  8
NOCUT
100
AcDbLine
 10
65.399997676
 20
4.000000000000002
 30
0.0
 11
65.399997676
 21
0.0004871269756226
 31
0.0
  0
LINE
  5
268
330
1D
100
AcDbEntity
  8
NOCUT
100
AcDbLine
 10
65.399997676
 20
0.0004871269756226
 30
0.0
 11
-0.0092420187600197
 21
0.0004871269756306
 31
0.0
  0
LWPOLYLINE
  5
26A
330
1D
100
AcDbEntity
  8
INFTOTAL
100
AcDbPolyline
 90
        4
 70
     1
 43
0.0
 10
-98.16288140339122
 20
82.04960516085048
 10
-98.16288140339122
 20
-77.7141959437452
 10
121.715434693103
 20
-77.7141959437452
 10
121.715434693103
 20
82.04960516085048
  0
LINE
  5
26D
330
1D
100
AcDbEntity
  8
SK4
100
AcDbLine
 10
-43.352515002
 20
0.0
 30
0.0
 11
75.700926738
 21
0.0
 31
0.0
  0
LINE
  5
270
330
1D
100
AcDbEntity
  8
SK4
100
AcDbLine
 10
-3.191930272
 20
6.558072328
 30
0.0
 11
10.059929093
 21
19.3233134
 31
0.0
  0
LINE
  5
271
330
1D
100
AcDbEntity
  8
SK4
100
AcDbLine
 10
-3.191930272
 20
-6.558072328
 30
0.0
 11
10.059929093
 21
-19.3233134
 31
0.0
  0
LINE
  5
29E
330
1D
100
AcDbEntity
  8
SK3
100
AcDbLine
 10
0.0
 20
12.40977422183726
 30
0.0
 11
-4.577854111
 21
8.00002248
 31
0.0
  0
LINE
  5
29F
330
1D
100
AcDbEntity
  8
SK3
100
AcDbLine
 10
-0.181809559
 20
8.00002248
 30
0.0
 11
0.0
 21
7.500504802247146
 31
0.0
  0
LINE
  5
2A0
330
1D
100
AcDbEntity
  8
SK3
100
AcDbLine
 10
-0.181801525
 20
-8.000000408
 30
0.0
 11
0.0
 21
-7.500504803404525
 31
0.0
  0
LINE
  5
2A1
330
1D
100
AcDbEntity
  8
SK3
100
AcDbLine
 10
-4.577854111
 20
-8.00002248
 30
0.0
 11
0.0000000000000018
 21
-12.40977422183726
 31
0.0
  0
LINE
  5
2A6
330
1D
100
AcDbEntity
  8
1
100
AcDbLine
 10
70.33891621813353
 20
21.14091840459023
 30
0.0
 11
70.649994075
 21
21.14091840459023
 31
0.0
  0
ARC
  5
2A9
330
1D
100
AcDbEntity
  8
NOCUT
100
AcDbCircle
 10
80.399997676
 20
4.0
 30
0.0
 40
15.00000203654135
100
AcDbArc
 50
130.54161331982
 51
180.0
  0
LINE
  5
2AC
330
1D
100
AcDbEntity
  8
NOCUT
100
AcDbLine
 10
70.64999767590142
 20
15.39901311509368
 30
0.0
 11
70.64999767590142
 21
21.14211106013117
 31
0.0
  0
LINE
  5
2AD
330
1D
100
AcDbEntity
  8
NOCUT
100
AcDbLine
 10
70.64999767590142
 20
21.14211106013117
 30
0.0
 11
70.33891621813353
 21
21.14091840459023
 31
0.0
  0
LINE
  5
2AE
330
1D
100
AcDbEntity
  8
NOCUT
100
AcDbLine
 10
70.33891621813353
 20
21.14091840459023
 30
0.0
 11
70.199997676
 21
21.928764607
 31
0.0
  0
LINE
  5
2AF
330
1D
100
AcDbEntity
  8
NOCUT
100
AcDbLine
 10
70.199997676
 20
21.928764607
 30
0.0
 11
70.199997676
 21
33.199999999
 31
0.0
  0
LINE
  5
2B0
330
1D
100
AcDbEntity
  8
NOCUT
100
AcDbLine
 10
70.199997676
 20
33.199999999
 30
0.0
 11
59.099997676
 21
31.242770513
 31
0.0
  0
LINE
  5
2B1
330
1D
100
AcDbEntity
  8
NOCUT
100
AcDbLine
 10
59.099997676
 20
31.242770513
 30
0.0
 11
58.299997676
 21
31.242770513
 31
0.0
  0
LINE
  5
2B2
330
1D
100
AcDbEntity
  8
NOCUT
100
AcDbLine
 10
58.299997676
 20
31.242770513
 30
0.0
 11
58.299997676
 21
31.55669798571644
 31
0.0
  0
LINE
  5
2B3
330
1D
100
AcDbEntity
  8
NOCUT
100
AcDbLine
 10
58.299997676
 20
31.55669798571644
 30
0.0
 11
58.363800407
 21
31.55669798571644
 31
0.0
  0
LINE
  5
2B4
330
1D
100
AcDbEntity
  8
NOCUT
100
AcDbLine
 10
58.363800407
 20
31.55669798571644
 30
0.0
 11
58.363800407
 21
31.749840826
 31
0.0
  0
ARC
  5
308
330
1D
100
AcDbEntity
  8
CUT
100
AcDbCircle
 10
70.199997676
 20
21.928764607
 30
0.0
 40
0.8
100
AcDbArc
 50
280.0000000000006
 51
0.0
  0
ARC
  5
309
330
1D
100
AcDbEntity
  8
CUT
100
AcDbCircle
 10
59.099997676
 20
19.971535121
 30
0.0
 40
0.8
100
AcDbArc
 50
180.0
 51
280.0000000000006
  0
LINE
  5
30A
330
1D
100
AcDbEntity
  8
CUT
100
AcDbLine
 10
70.999997676
 20
21.928764607
 30
0.0
 11
70.999997676
 21
33.199999999
 31
0.0
  0
LINE
  5
30B
330
1D
100
AcDbEntity
  8
CUT
100
AcDbLine
 10
70.06107913386644
 20
33.98784620140977
 30
0.0
 11
58.96107913386645
 21
32.03061671540976
 31
0.0
  0
ARC
  5
30C
330
1D
100
AcDbEntity
  8
CUT
100
AcDbCircle
 10
59.099997676
 20
31.242770513
 30
0.0
 40
0.8
100
AcDbArc
 50
100.0000000000006
 51
180.0
  0
ARC
  5
30D
330
1D
100
AcDbEntity
  8
CUT
100
AcDbCircle
 10
70.199997676
 20
33.199999999
 30
0.0
 40
0.8
100
AcDbArc
 50
0.0
 51
100.0000000000006
  0
CIRCLE
  5
30E
330
1D
100
AcDbEntity
  8
1
100
AcDbCircle
 10
64.456997676
 20
26.35576756
 30
0.0
 40
3.180917549
  0
LINE
  5
30F
330
1D
100
AcDbEntity
  8
CUT
100
AcDbLine
 10
59.23891621813355
 20
19.18368891859024
 30
0.0
 11
70.33891621813355
 21
21.14091840459024
 31
0.0
  0
LINE
  5
310
330
1D
100
AcDbEntity
  8
CUT
100
AcDbLine
 10
58.29999767599999
 20
19.971535121
 30
0.0
 11
58.29999767599999
 21
31.242770513
 31
0.0
  0
LINE
  5
315
330
1D
100
AcDbEntity
  8
SK1
100
AcDbLine
 10
0.000000000001089
 20
-17.80000000000081
 30
0.0
 11
0.0000000000010895
 21
17.80000000000082
 31
0.0
  0
HATCH
  5
31B
330
1D
100
AcDbEntity
  8
7
100
AcDbHatch
 10
0.0
 20
0.0
 30
0.0
210
0.0
220
0.0
230
1.0
  2
ANSI37
 70
     0
 71
     0
 91
        2
 92
        7
 72
     1
 73
     1
 93
        8
 10
70.999997676
 20
21.928764607
 42
0.0
 10
70.999997676
 20
33.199999999
 42
0.4663076581550069
 10
70.06107913386644
 20
33.98784620140977
 42
0.0
 10
58.96107913386022
 20
32.03061671540867
 42
0.3639702342639678
 10
58.29999767599999
 20
31.24277051299998
 42
0.0
 10
58.29999767599999
 20
19.971535121
 42
0.4663076581573875
 10
59.23891621813978
 20
19.18368891859133
 42
0.0
 10
70.33891621813355
 20
21.14091840459024
 42
0.363970234266158
 97
        0
 92
       22
 72
     1
 73
     1
 93
        2
 10
61.27608012700001
 20
26.35576756
 42
-0.9999999999999997
 10
67.63791522499999
 20
26.35576756
 42
-0.9999999999999997
 97
        0
 75
     0
 76
     1
 52
90.0
 41
5.0
 77
     0
 78
     2
 53
135.0
 43
-99.41895092835607
 44
17.08877226923532
 45
-0.4419417382415922
 46
-0.4419417382415922
 79
     0
 53
225.0
 43
-99.41895092835607
 44
17.08877226923532
 45
0.4419417382415922
 46
-0.4419417382415923
 79
     0
 47
0.0
 98
        2
 10
61.76308526929158
 20
31.86344575049503
 10
61.76308526929158
 20
31.86344575049503
1001
ACAD
1010
0.0
1020
0.0
1030
0.0
1001
PE_URL
1000

  0
LINE
  5
324
330
1D
100
AcDbEntity
  8
SK4
100
AcDbLine
 10
23.486049015
 20
-26.009704627
 30
0.0
 11
7.526758413
 21
-19.985149348
 31
0.0
  0
LINE
  5
325
330
1D
100
AcDbEntity
  8
SK4
100
AcDbLine
 10
7.526758413
 20
19.985149348
 30
0.0
 11
23.486049015
 21
26.009704627
 31
0.0
  0
ENDSEC
  0
SECTION
  2
OBJECTS
  0
DICTIONARY
  5
C
330
0
100
AcDbDictionary
281
     1
  3
ACAD_COLOR
350
2DB
  3
ACAD_DETAILVIEWSTYLE
350
24A
  3
ACAD_GROUP
350
D
  3
ACAD_LAYOUT
350
1A
  3
ACAD_MATERIAL
350
1D3
  3
ACAD_MLEADERSTYLE
350
1E1
  3
ACAD_MLINESTYLE
350
17
  3
ACAD_PLOTSETTINGS
350
19
  3
ACAD_PLOTSTYLENAME
350
E
  3
ACAD_SCALELIST
350
19C
  3
ACAD_SECTIONVIEWSTYLE
350
24B
  3
ACAD_TABLESTYLE
350
22A
  3
ACAD_VISUALSTYLE
350
1C2
  3
ACDB_RECOMPOSE_DATA
350
32F
  3
AcDbVariableDictionary
350
1DF
  3
APPDATA
350
22D
  0
SUN
  5
26B
330
195
100
AcDbSun
 90
        1
290
     0
 63
     7
421
 16777215
 40
1.0
291
     1
 91
  2455826
 92
 54000000
292
     0
 70
     2
 71
   256
280
     1
  0
DICTIONARY
  5
22E
330
2
100
AcDbDictionary
280
     1
281
     1
  3
ACAD_LAYERSTATES
360
22F
  0
DICTIONARY
  5
318
330
1D
100
AcDbDictionary
280
     1
281
     1
  3
ACAD_SORTENTS
360
319
  0
DICTIONARY
  5
2DB
102
{ACAD_REACTORS
330
C
102
}
330
C
100
AcDbDictionary
281
     1
  0
DICTIONARY
  5
24A
102
{ACAD_REACTORS
330
C
102
}
330
C
100
AcDbDictionary
281
     1
  0
DICTIONARY
  5
D
102
{ACAD_REACTORS
330
C
102
}
330
C
100
AcDbDictionary
281
     1
  0
DICTIONARY
  5
1A
102
{ACAD_REACTORS
330
C
102
}
330
C
100
AcDbDictionary
281
     1
  3
Layout1
350
1C
  3
Model
350
1E
  0
DICTIONARY
  5
1D3
102
{ACAD_REACTORS
330
C
102
}
330
C
100
AcDbDictionary
281
     1
  3
ByBlock
350
1D5
  3
ByLayer
350
1D4
  3
Global
350
1D6
  0
DICTIONARY
  5
1E1
102
{ACAD_REACTORS
330
C
102
}
330
C
100
AcDbDictionary
281
     1
  3
Standard
350
22C
  0
DICTIONARY
  5
17
102
{ACAD_REACTORS
330
C
102
}
330
C
100
AcDbDictionary
281
     1
  3
Standard
350
18
  0
DICTIONARY
  5
19
102
{ACAD_REACTORS
330
C
102
}
330
C
100
AcDbDictionary
281
     1
  0
ACDBDICTIONARYWDFLT
  5
E
102
{ACAD_REACTORS
330
C
102
}
330
C
100
AcDbDictionary
281
     1
  3
Normal
350
F
100
AcDbDictionaryWithDefault
340
F
  0
DICTIONARY
  5
19C
102
{ACAD_REACTORS
330
C
102
}
330
C
100
AcDbDictionary
281
     1
  3
A0
350
19D
  3
A1
350
19E
  3
A2
350
19F
  3
A3
350
1A0
  3
A4
350
1A1
  3
A5
350
1A2
  3
A6
350
1A3
  3
A7
350
1A4
  3
A8
350
1A5
  3
A9
350
1A6
  3
B0
350
1A7
  3
B1
350
1A8
  3
B2
350
1A9
  3
B3
350
1AA
  3
B4
350
1AB
  3
B5
350
1AC
  3
B6
350
1AD
  3
B7
350
1AE
  3
B8
350
1AF
  3
B9
350
1B0
  3
C0
350
1B1
  3
C1
350
1B2
  3
C2
350
1B3
  3
C3
350
1B4
  3
C4
350
1B5
  3
C5
350
1B6
  3
C6
350
1B7
  3
C7
350
1B8
  3
C8
350
1B9
  3
C9
350
1BA
  3
D0
350
1BB
  3
D1
350
1BC
  3
D2
350
1BD
  0
DICTIONARY
  5
24B
102
{ACAD_REACTORS
330
C
102
}
330
C
100
AcDbDictionary
281
     1
  0
DICTIONARY
  5
22A
102
{ACAD_REACTORS
330
C
102
}
330
C
100
AcDbDictionary
281
     1
  3
Standard
350
22B
  0
DICTIONARY
  5
1C2
102
{ACAD_REACTORS
330
C
102
}
330
C
100
AcDbDictionary
281
     1
  3
2dWireframe
350
1C7
  3
3D Hidden
350
1C9
  3
3dWireframe
350
1C8
  3
Basic
350
1CA
  3
Brighten
350
1CE
  3
ColorChange
350
1D2
  3
Conceptual
350
1CC
  3
Dim
350
1CD
  3
EdgeColorOff
350
224
  3
Facepattern
350
1D1
  3
Flat
350
1C3
  3
FlatWithEdges
350
1C4
  3
Gouraud
350
1C5
  3
GouraudWithEdges
350
1C6
  3
Hidden
350
221
  3
JitterOff
350
222
  3
Linepattern
350
1D0
  3
OverhangOff
350
223
  3
Realistic
350
1CB
  3
Shaded
350
229
  3
Shaded with edges
350
228
  3
Shades of Gray
350
225
  3
Sketchy
350
226
  3
Thicken
350
1CF
  3
Wireframe
350
220
  3
X-Ray
350
227
  0
XRECORD
  5
32F
102
{ACAD_REACTORS
330
C
102
}
330
C
100
AcDbXrecord
280
     1
 90
        1
330
22B
  0
DICTIONARY
  5
1DF
102
{ACAD_REACTORS
330
C
102
}
330
C
100
AcDbDictionary
281
     1
  3
CANNOSCALE
350
247
  3
CMLEADERSTYLE
350
249
  3
CTABLESTYLE
350
248
  3
DIMASSOC
350
1E3
  3
HIDETEXT
350
1E4
  3
MSLTSCALE
350
1E2
  0
DICTIONARY
  5
22D
102
{ACAD_REACTORS
330
C
102
}
330
C
100
AcDbDictionary
281
     1
  0
DICTIONARY
  5
22F
102
{ACAD_REACTORS
330
22E
102
}
330
22E
100
AcDbDictionary
281
     1
  0
SORTENTSTABLE
  5
319
102
{ACAD_REACTORS
330
318
102
}
330
318
100
AcDbSortentsTable
330
1D
331
308
  5
30A
331
309
  5
30B
331
30A
  5
30C
331
30B
  5
30D
331
30C
  5
30E
331
30D
  5
30F
331
30E
  5
315
331
30F
  5
317
331
310
  5
31A
331
315
  5
31B
331
0
  5
310
331
0
  5
308
331
31B
  5
309
  0
LAYOUT
  5
1C
102
{ACAD_REACTORS
330
1A
102
}
330
1A
100
AcDbPlotSettings
  1

  2
none_device
  4

  6

 40
0.0
 41
0.0
 42
0.0
 43
0.0
 44
0.0
 45
0.0
 46
0.0
 47
0.0
 48
0.0
 49
0.0
140
0.0
141
0.0
142
1.0
143
1.0
 70
   688
 72
     0
 73
     0
 74
     5
  7

 75
    16
 76
     0
 77
     2
 78
   300
147
1.0
148
0.0
149
0.0
100
AcDbLayout
  1
Layout1
 70
     1
 71
     1
 10
0.0
 20
0.0
 11
12.0
 21
9.0
 12
0.0
 22
0.0
 32
0.0
 14
1.000000000000000E+20
 24
1.000000000000000E+20
 34
1.000000000000000E+20
 15
-1.000000000000000E+20
 25
-1.000000000000000E+20
 35
-1.000000000000000E+20
146
0.0
 13
0.0
 23
0.0
 33
0.0
 16
1.0
 26
0.0
 36
0.0
 17
0.0
 27
1.0
 37
0.0
 76
     0
330
1B
  0
LAYOUT
  5
1E
102
{ACAD_REACTORS
330
1A
102
}
330
1A
100
AcDbPlotSettings
  1

  2
none_device
  4

  6

 40
0.0
 41
0.0
 42
0.0
 43
0.0
 44
0.0
 45
0.0
 46
0.0
 47
0.0
 48
0.0
 49
0.0
140
0.0
141
0.0
142
1.0
143
1.0
 70
  1712
 72
     0
 73
     0
 74
     0
  7

 75
     0
 76
     0
 77
     2
 78
   300
147
1.0
148
0.0
149
0.0
100
AcDbLayout
  1
Model
 70
     1
 71
     0
 10
0.0
 20
0.0
 11
12.0
 21
9.0
 12
0.0
 22
0.0
 32
0.0
 14
-98.16288140339122
 24
-77.7141959437452
 34
0.0
 15
121.715434693103
 25
82.04960516085048
 35
0.0
146
0.0
 13
0.0
 23
0.0
 33
0.0
 16
1.0
 26
0.0
 36
0.0
 17
0.0
 27
1.0
 37
0.0
 76
     0
330
1D
331
195
  0
MATERIAL
  5
1D5
102
{ACAD_REACTORS
330
1D3
102
}
330
1D3
100
AcDbMaterial
  1
ByBlock
 72
     1
 94
      127
  0
MATERIAL
  5
1D4
102
{ACAD_REACTORS
330
1D3
102
}
330
1D3
100
AcDbMaterial
  1
ByLayer
 72
     1
 94
      127
  0
MATERIAL
  5
1D6
102
{ACAD_REACTORS
330
1D3
102
}
330
1D3
100
AcDbMaterial
  1
Global
 72
     1
 94
      127
  0
MLEADERSTYLE
  5
22C
102
{ACAD_REACTORS
330
1E1
102
}
330
1E1
100
AcDbMLeaderStyle
179
     2
170
     2
171
     1
172
     0
 90
        2
 40
0.0
 41
0.0
173
     1
 91
-1056964608
340
14
 92
       -2
290
     1
 42
0.09
291
     1
 43
0.36
  3
Standard
341
0
 44
0.18
300

342
11
174
     1
178
     1
175
     1
176
     0
 93
-1056964608
 45
0.18
292
     0
297
     0
 46
0.18
343
0
 94
-1056964608
 47
1.0
 49
1.0
140
1.0
293
     1
141
0.0
294
     1
177
     0
142
1.0
295
     0
296
     0
143
0.125
271
     0
272
     9
273
     9
298
     0
  0
MLINESTYLE
  5
18
102
{ACAD_REACTORS
330
17
102
}
330
17
100
AcDbMlineStyle
  2
Standard
 70
     0
  3

 62
   256
 51
90.0
 52
90.0
 71
     2
 49
0.5
 62
   256
  6
BYLAYER
 49
-0.5
 62
   256
  6
BYLAYER
  0
ACDBPLACEHOLDER
  5
F
102
{ACAD_REACTORS
330
E
102
}
330
E
  0
SCALE
  5
19D
102
{ACAD_REACTORS
330
19C
102
}
330
19C
100
AcDbScale
 70
     0
300
1:1
140
1.0
141
1.0
290
     1
  0
SCALE
  5
19E
102
{ACAD_REACTORS
330
19C
102
}
330
19C
100
AcDbScale
 70
     0
300
1:2
140
1.0
141
2.0
290
     0
  0
SCALE
  5
19F
102
{ACAD_REACTORS
330
19C
102
}
330
19C
100
AcDbScale
 70
     0
300
1:4
140
1.0
141
4.0
290
     0
  0
SCALE
  5
1A0
102
{ACAD_REACTORS
330
19C
102
}
330
19C
100
AcDbScale
 70
     0
300
1:5
140
1.0
141
5.0
290
     0
  0
SCALE
  5
1A1
102
{ACAD_REACTORS
330
19C
102
}
330
19C
100
AcDbScale
 70
     0
300
1:8
140
1.0
141
8.0
290
     0
  0
SCALE
  5
1A2
102
{ACAD_REACTORS
330
19C
102
}
330
19C
100
AcDbScale
 70
     0
300
1:10
140
1.0
141
10.0
290
     0
  0
SCALE
  5
1A3
102
{ACAD_REACTORS
330
19C
102
}
330
19C
100
AcDbScale
 70
     0
300
1:16
140
1.0
141
16.0
290
     0
  0
SCALE
  5
1A4
102
{ACAD_REACTORS
330
19C
102
}
330
19C
100
AcDbScale
 70
     0
300
1:20
140
1.0
141
20.0
290
     0
  0
SCALE
  5
1A5
102
{ACAD_REACTORS
330
19C
102
}
330
19C
100
AcDbScale
 70
     0
300
1:30
140
1.0
141
30.0
290
     0
  0
SCALE
  5
1A6
102
{ACAD_REACTORS
330
19C
102
}
330
19C
100
AcDbScale
 70
     0
300
1:40
140
1.0
141
40.0
290
     0
  0
SCALE
  5
1A7
102
{ACAD_REACTORS
330
19C
102
}
330
19C
100
AcDbScale
 70
     0
300
1:50
140
1.0
141
50.0
290
     0
  0
SCALE
  5
1A8
102
{ACAD_REACTORS
330
19C
102
}
330
19C
100
AcDbScale
 70
     0
300
1:100
140
1.0
141
100.0
290
     0
  0
SCALE
  5
1A9
102
{ACAD_REACTORS
330
19C
102
}
330
19C
100
AcDbScale
 70
     0
300
2:1
140
2.0
141
1.0
290
     0
  0
SCALE
  5
1AA
102
{ACAD_REACTORS
330
19C
102
}
330
19C
100
AcDbScale
 70
     0
300
4:1
140
4.0
141
1.0
290
     0
  0
SCALE
  5
1AB
102
{ACAD_REACTORS
330
19C
102
}
330
19C
100
AcDbScale
 70
     0
300
8:1
140
8.0
141
1.0
290
     0
  0
SCALE
  5
1AC
102
{ACAD_REACTORS
330
19C
102
}
330
19C
100
AcDbScale
 70
     0
300
10:1
140
10.0
141
1.0
290
     0
  0
SCALE
  5
1AD
102
{ACAD_REACTORS
330
19C
102
}
330
19C
100
AcDbScale
 70
     0
300
100:1
140
100.0
141
1.0
290
     0
  0
SCALE
  5
1AE
102
{ACAD_REACTORS
330
19C
102
}
330
19C
100
AcDbScale
 70
     0
300
1/128" = 1'-0"
140
0.0078125
141
12.0
290
     0
  0
SCALE
  5
1AF
102
{ACAD_REACTORS
330
19C
102
}
330
19C
100
AcDbScale
 70
     0
300
1/64" = 1'-0"
140
0.015625
141
12.0
290
     0
  0
SCALE
  5
1B0
102
{ACAD_REACTORS
330
19C
102
}
330
19C
100
AcDbScale
 70
     0
300
1/32" = 1'-0"
140
0.03125
141
12.0
290
     0
  0
SCALE
  5
1B1
102
{ACAD_REACTORS
330
19C
102
}
330
19C
100
AcDbScale
 70
     0
300
1/16" = 1'-0"
140
0.0625
141
12.0
290
     0
  0
SCALE
  5
1B2
102
{ACAD_REACTORS
330
19C
102
}
330
19C
100
AcDbScale
 70
     0
300
3/32" = 1'-0"
140
0.09375
141
12.0
290
     0
  0
SCALE
  5
1B3
102
{ACAD_REACTORS
330
19C
102
}
330
19C
100
AcDbScale
 70
     0
300
1/8" = 1'-0"
140
0.125
141
12.0
290
     0
  0
SCALE
  5
1B4
102
{ACAD_REACTORS
330
19C
102
}
330
19C
100
AcDbScale
 70
     0
300
3/16" = 1'-0"
140
0.1875
141
12.0
290
     0
  0
SCALE
  5
1B5
102
{ACAD_REACTORS
330
19C
102
}
330
19C
100
AcDbScale
 70
     0
300
1/4" = 1'-0"
140
0.25
141
12.0
290
     0
  0
SCALE
  5
1B6
102
{ACAD_REACTORS
330
19C
102
}
330
19C
100
AcDbScale
 70
     0
300
3/8" = 1'-0"
140
0.375
141
12.0
290
     0
  0
SCALE
  5
1B7
102
{ACAD_REACTORS
330
19C
102
}
330
19C
100
AcDbScale
 70
     0
300
1/2" = 1'-0"
140
0.5
141
12.0
290
     0
  0
SCALE
  5
1B8
102
{ACAD_REACTORS
330
19C
102
}
330
19C
100
AcDbScale
 70
     0
300
3/4" = 1'-0"
140
0.75
141
12.0
290
     0
  0
SCALE
  5
1B9
102
{ACAD_REACTORS
330
19C
102
}
330
19C
100
AcDbScale
 70
     0
300
1" = 1'-0"
140
1.0
141
12.0
290
     0
  0
SCALE
  5
1BA
102
{ACAD_REACTORS
330
19C
102
}
330
19C
100
AcDbScale
 70
     0
300
1-1/2" = 1'-0"
140
1.5
141
12.0
290
     0
  0
SCALE
  5
1BB
102
{ACAD_REACTORS
330
19C
102
}
330
19C
100
AcDbScale
 70
     0
300
3" = 1'-0"
140
3.0
141
12.0
290
     0
  0
SCALE
  5
1BC
102
{ACAD_REACTORS
330
19C
102
}
330
19C
100
AcDbScale
 70
     0
300
6" = 1'-0"
140
6.0
141
12.0
290
     0
  0
SCALE
  5
1BD
102
{ACAD_REACTORS
330
19C
102
}
330
19C
100
AcDbScale
 70
     0
300
1'-0" = 1'-0"
140
12.0
141
12.0
290
     0
  0
TABLESTYLE
  5
22B
102
{ACAD_REACTORS
330
22A
102
}
102
{ACAD_XDICTIONARY
360
32D
102
}
330
22A
100
AcDbTableStyle
  3
Standard
 70
     0
 71
     0
 40
0.06
 41
0.06
280
     0
281
     0
  7
Standard
140
0.18
170
     2
 62
     0
 63
   257
283
     0
 90
        4
 91
        0
  1

274
    -2
284
     1
 64
     0
275
    -2
285
     1
 65
     0
276
    -2
286
     1
 66
     0
277
    -2
287
     1
 67
     0
278
    -2
288
     1
 68
     0
279
    -2
289
     1
 69
     0
  7
Standard
140
0.25
170
     5
 62
     0
 63
   257
283
     0
 90
        4
 91
        0
  1

274
    -2
284
     1
 64
     0
275
    -2
285
     1
 65
     0
276
    -2
286
     1
 66
     0
277
    -2
287
     1
 67
     0
278
    -2
288
     1
 68
     0
279
    -2
289
     1
 69
     0
  7
Standard
140
0.18
170
     5
 62
     0
 63
   257
283
     0
 90
        4
 91
        0
  1

274
    -2
284
     1
 64
     0
275
    -2
285
     1
 65
     0
276
    -2
286
     1
 66
     0
277
    -2
287
     1
 67
     0
278
    -2
288
     1
 68
     0
279
    -2
289
     1
 69
     0
  0
VISUALSTYLE
  5
1C7
102
{ACAD_REACTORS
330
1C2
102
}
330
1C2
100
AcDbVisualStyle
  2
2dWireframe
 70
     4
177
     3
291
     0
 70
    58
 90
        0
176
     1
 90
        2
176
     1
 90
        0
176
     1
 90
        0
176
     1
 40
-0.6
176
     1
 40
-30.0
176
     1
 62
     7
176
     1
 90
        1
176
     1
 90
        4
176
     1
 62
     7
176
     1
 62
   257
176
     1
 90
        1
176
     1
 90
        1
176
     1
 40
1.0
176
     1
 90
        0
176
     1
 62
   257
176
     1
 40
1.0
176
     1
 90
        1
176
     1
 90
        6
176
     1
 90
        2
176
     1
 62
     7
176
     1
 90
        5
176
     1
 90
        0
176
     1
 90
        0
176
     1
290
     0
176
     1
 90
        1
176
     1
 40
0.0
176
     1
 90
        0
176
     1
290
     1
176
     1
290
     1
176
     1
290
     0
176
     1
290
     0
176
     1
290
     0
176
     1
290
     0
176
     1
290
     0
176
     1
290
     0
176
     1
290
     0
176
     1
 90
       50
176
     1
 40
0.0
176
     1
 40
1.0
176
     1
 90
        0
176
     1
 62
    18
420
        0
176
     1
 90
       50
176
     1
 90
        3
176
     1
 62
     5
420
      255
176
     1
290
     0
176
     1
 90
       50
176
     1
 90
       50
176
     1
 90
       50
176
     1
290
     0
176
     1
 90
       50
176
     1
 62
   256
176
     0
 40
1.0
176
     0
 90
        2
176
     1
  1
strokes_ogs.tif
176
     1
290
     0
176
     1
 40
1.0
176
     1
 40
1.0
176
     1
  0
VISUALSTYLE
  5
1C9
102
{ACAD_REACTORS
330
1C2
102
}
330
1C2
100
AcDbVisualStyle
  2
3D Hidden
 70
     6
177
     3
291
     0
 70
    58
 90
        1
176
     1
 90
        2
176
     1
 90
        2
176
     1
 90
        0
176
     1
 40
-0.6
176
     1
 40
-30.0
176
     1
 62
     7
176
     1
 90
        2
176
     1
 90
        2
176
     1
 62
     7
176
     1
 62
   257
176
     1
 90
        2
176
     1
 90
        1
176
     1
 40
40.0
176
     1
 90
        0
176
     1
 62
   257
176
     1
 40
1.0
176
     1
 90
        1
176
     1
 90
        6
176
     1
 90
        2
176
     1
 62
     7
176
     1
 90
        3
176
     1
 90
        0
176
     1
 90
        0
176
     1
290
     0
176
     1
 90
        1
176
     1
 40
0.0
176
     1
 90
        0
176
     1
290
     0
176
     1
290
     1
176
     1
290
     1
176
     1
290
     0
176
     1
290
     0
176
     1
290
     0
176
     1
290
     0
176
     1
290
     0
176
     1
290
     0
176
     1
 90
       50
176
     1
 40
0.0
176
     1
 40
1.0
176
     1
 90
        0
176
     1
 62
    18
420
        0
176
     1
 90
       50
176
     1
 90
        3
176
     1
 62
     5
420
      255
176
     1
290
     0
176
     1
 90
       50
176
     1
 90
       50
176
     1
 90
       50
176
     1
290
     0
176
     1
 90
       50
176
     1
 62
   256
176
     0
 40
1.0
176
     0
 90
        2
176
     1
  1
strokes_ogs.tif
176
     1
290
     0
176
     1
 40
1.0
176
     1
 40
1.0
176
     1
  0
VISUALSTYLE
  5
1C8
102
{ACAD_REACTORS
330
1C2
102
}
330
1C2
100
AcDbVisualStyle
  2
3dWireframe
 70
     5
177
     3
291
     0
 70
    58
 90
        0
176
     1
 90
        2
176
     1
 90
        0
176
     1
 90
        0
176
     1
 40
-0.6
176
     1
 40
-30.0
176
     1
 62
     7
176
     1
 90
        1
176
     1
 90
        4
176
     1
 62
     7
176
     1
 62
   257
176
     1
 90
        1
176
     1
 90
        1
176
     1
 40
1.0
176
     1
 90
        0
176
     1
 62
   257
176
     1
 40
1.0
176
     1
 90
        1
176
     1
 90
        6
176
     1
 90
        2
176
     1
 62
     7
176
     1
 90
        5
176
     1
 90
        0
176
     1
 90
        0
176
     1
290
     0
176
     1
 90
        1
176
     1
 40
0.0
176
     1
 90
        0
176
     1
290
     0
176
     1
290
     1
176
     1
290
     1
176
     1
290
     0
176
     1
290
     0
176
     1
290
     0
176
     1
290
     0
176
     1
290
     0
176
     1
290
     0
176
     1
 90
       50
176
     1
 40
0.0
176
     1
 40
1.0
176
     1
 90
        0
176
     1
 62
    18
420
        0
176
     1
 90
       50
176
     1
 90
        3
176
     1
 62
     5
420
      255
176
     1
290
     0
176
     1
 90
       50
176
     1
 90
       50
176
     1
 90
       50
176
     1
290
     0
176
     1
 90
       50
176
     1
 62
   256
176
     0
 40
1.0
176
     0
 90
        2
176
     1
  1
strokes_ogs.tif
176
     1
290
     0
176
     1
 40
1.0
176
     1
 40
1.0
176
     1
  0
VISUALSTYLE
  5
1CA
102
{ACAD_REACTORS
330
1C2
102
}
330
1C2
100
AcDbVisualStyle
  2
Basic
 70
     7
177
     3
291
     1
 70
    58
 90
        1
176
     1
 90
        0
176
     1
 90
        1
176
     1
 90
        0
176
     1
 40
-0.6
176
     1
 40
-30.0
176
     1
 62
     7
176
     1
 90
        0
176
     1
 90
        4
176
     1
 62
     7
176
     1
 62
   257
176
     1
 90
        1
176
     1
 90
        1
176
     1
 40
1.0
176
     1
 90
        8
176
     1
 62
     7
176
     1
 40
1.0
176
     1
 90
        1
176
     1
 90
        6
176
     1
 90
        2
176
     1
 62
     7
176
     1
 90
        5
176
     1
 90
        0
176
     1
 90
        0
176
     1
290
     0
176
     1
 90
        1
176
     1
 40
0.0
176
     1
 90
        0
176
     1
290
     0
176
     1
290
     1
176
     1
290
     1
176
     1
290
     0
176
     1
290
     0
176
     1
290
     0
176
     1
290
     0
176
     1
290
     0
176
     1
290
     0
176
     1
 90
       50
176
     1
 40
0.0
176
     1
 40
1.0
176
     1
 90
        0
176
     1
 62
    18
420
        0
176
     1
 90
       50
176
     1
 90
        3
176
     1
 62
     5
420
      255
176
     1
290
     0
176
     1
 90
       50
176
     1
 90
       50
176
     1
 90
       50
176
     1
290
     0
176
     1
 90
       50
176
     1
 62
   256
176
     0
 40
1.0
176
     0
 90
        2
176
     1
  1
strokes_ogs.tif
176
     1
290
     0
176
     1
 40
1.0
176
     1
 40
1.0
176
     1
  0
VISUALSTYLE
  5
1CE
102
{ACAD_REACTORS
330
1C2
102
}
330
1C2
100
AcDbVisualStyle
  2
Brighten
 70
    12
177
     3
291
     1
 70
    58
 90
        2
176
     1
 90
        2
176
     1
 90
        0
176
     1
 90
        0
176
     1
 40
-0.6
176
     1
 40
-30.0
176
     1
 62
     7
176
     1
 90
        1
176
     1
 90
        4
176
     1
 62
     7
176
     1
 62
   257
176
     1
 90
        1
176
     1
 90
        1
176
     1
 40
1.0
176
     1
 90
        8
176
     1
 62
     7
176
     1
 40
1.0
176
     1
 90
        1
176
     1
 90
        6
176
     1
 90
        2
176
     1
 62
     7
176
     1
 90
        5
176
     1
 90
        0
176
     1
 90
        0
176
     1
290
     0
176
     1
 90
        1
176
     1
 40
50.0
176
     1
 90
        0
176
     1
290
     0
176
     1
290
     1
176
     1
290
     1
176
     1
290
     0
176
     1
290
     0
176
     1
290
     0
176
     1
290
     0
176
     1
290
     0
176
     1
290
     0
176
     1
 90
       50
176
     1
 40
0.0
176
     1
 40
1.0
176
     1
 90
        0
176
     1
 62
    18
420
        0
176
     1
 90
       50
176
     1
 90
        3
176
     1
 62
     5
420
      255
176
     1
290
     0
176
     1
 90
       50
176
     1
 90
       50
176
     1
 90
       50
176
     1
290
     0
176
     1
 90
       50
176
     1
 62
   256
176
     0
 40
1.0
176
     0
 90
        2
176
     1
  1
strokes_ogs.tif
176
     1
290
     0
176
     1
 40
1.0
176
     1
 40
1.0
176
     1
  0
VISUALSTYLE
  5
1D2
102
{ACAD_REACTORS
330
1C2
102
}
330
1C2
100
AcDbVisualStyle
  2
ColorChange
 70
    16
177
     3
291
     1
 70
    58
 90
        2
176
     1
 90
        2
176
     1
 90
        3
176
     1
 90
        0
176
     1
 40
-0.6
176
     1
 40
-30.0
176
     1
 62
     8
176
     1
 90
        1
176
     1
 90
        4
176
     1
 62
     7
176
     1
 62
   257
176
     1
 90
        1
176
     1
 90
        1
176
     1
 40
1.0
176
     1
 90
        8
176
     1
 62
     8
176
     1
 40
1.0
176
     1
 90
        1
176
     1
 90
        6
176
     1
 90
        2
176
     1
 62
     7
176
     1
 90
        5
176
     1
 90
        0
176
     1
 90
        0
176
     1
290
     0
176
     1
 90
        1
176
     1
 40
0.0
176
     1
 90
        0
176
     1
290
     0
176
     1
290
     1
176
     1
290
     1
176
     1
290
     0
176
     1
290
     0
176
     1
290
     0
176
     1
290
     0
176
     1
290
     0
176
     1
290
     0
176
     1
 90
       50
176
     1
 40
0.0
176
     1
 40
1.0
176
     1
 90
        0
176
     1
 62
    18
420
        0
176
     1
 90
       50
176
     1
 90
        3
176
     1
 62
     5
420
      255
176
     1
290
     0
176
     1
 90
       50
176
     1
 90
       50
176
     1
 90
       50
176
     1
290
     0
176
     1
 90
       50
176
     1
 62
   256
176
     0
 40
1.0
176
     0
 90
        2
176
     1
  1
strokes_ogs.tif
176
     1
290
     0
176
     1
 40
1.0
176
     1
 40
1.0
176
     1
  0
VISUALSTYLE
  5
1CC
102
{ACAD_REACTORS
330
1C2
102
}
330
1C2
100
AcDbVisualStyle
  2
Conceptual
 70
     9
177
     3
291
     0
 70
    58
 90
        3
176
     1
 90
        2
176
     1
 90
        0
176
     1
 90
        0
176
     1
 40
-0.6
176
     1
 40
-30.0
176
     1
 62
     7
176
     1
 90
        2
176
     1
 90
        2
176
     1
 62
     7
176
     1
 62
   257
176
     1
 90
        1
176
     1
 90
        1
176
     1
 40
40.0
176
     1
 90
        8
176
     1
 62
     7
176
     1
 40
1.0
176
     1
 90
        1
176
     1
 90
        6
176
     1
 90
        2
176
     1
 62
     7
176
     1
 90
        3
176
     1
 90
        0
176
     1
 90
        0
176
     1
290
     0
176
     1
 90
        1
176
     1
 40
0.0
176
     1
 90
        0
176
     1
290
     0
176
     1
290
     1
176
     1
290
     1
176
     1
290
     0
176
     1
290
     0
176
     1
290
     0
176
     1
290
     0
176
     1
290
     0
176
     1
290
     0
176
     1
 90
       50
176
     1
 40
0.0
176
     1
 40
1.0
176
     1
 90
        0
176
     1
 62
    18
420
        0
176
     1
 90
       50
176
     1
 90
        3
176
     1
 62
     5
420
      255
176
     1
290
     0
176
     1
 90
       50
176
     1
 90
       50
176
     1
 90
       50
176
     1
290
     0
176
     1
 90
       50
176
     1
 62
   256
176
     0
 40
1.0
176
     0
 90
        2
176
     1
  1
strokes_ogs.tif
176
     1
290
     0
176
     1
 40
1.0
176
     1
 40
1.0
176
     1
  0
VISUALSTYLE
  5
1CD
102
{ACAD_REACTORS
330
1C2
102
}
330
1C2
100
AcDbVisualStyle
  2
Dim
 70
    11
177
     3
291
     1
 70
    58
 90
        2
176
     1
 90
        2
176
     1
 90
        0
176
     1
 90
        0
176
     1
 40
-0.6
176
     1
 40
-30.0
176
     1
 62
     7
176
     1
 90
        1
176
     1
 90
        4
176
     1
 62
     7
176
     1
 62
   257
176
     1
 90
        1
176
     1
 90
        1
176
     1
 40
1.0
176
     1
 90
        8
176
     1
 62
     7
176
     1
 40
1.0
176
     1
 90
        1
176
     1
 90
        6
176
     1
 90
        2
176
     1
 62
     7
176
     1
 90
        5
176
     1
 90
        0
176
     1
 90
        0
176
     1
290
     0
176
     1
 90
        1
176
     1
 40
-50.0
176
     1
 90
        0
176
     1
290
     0
176
     1
290
     1
176
     1
290
     1
176
     1
290
     0
176
     1
290
     0
176
     1
290
     0
176
     1
290
     0
176
     1
290
     0
176
     1
290
     0
176
     1
 90
       50
176
     1
 40
0.0
176
     1
 40
1.0
176
     1
 90
        0
176
     1
 62
    18
420
        0
176
     1
 90
       50
176
     1
 90
        3
176
     1
 62
     5
420
      255
176
     1
290
     0
176
     1
 90
       50
176
     1
 90
       50
176
     1
 90
       50
176
     1
290
     0
176
     1
 90
       50
176
     1
 62
   256
176
     0
 40
1.0
176
     0
 90
        2
176
     1
  1
strokes_ogs.tif
176
     1
290
     0
176
     1
 40
1.0
176
     1
 40
1.0
176
     1
  0
VISUALSTYLE
  5
224
102
{ACAD_REACTORS
330
1C2
102
}
330
1C2
100
AcDbVisualStyle
  2
EdgeColorOff
 70
    22
177
     3
291
     1
 70
    58
 90
        2
176
     0
 90
        2
176
     0
 90
        0
176
     0
 90
        0
176
     0
 40
0.6
176
     0
 40
30.0
176
     0
 62
     7
420
 16777215
176
     0
 90
        1
176
     0
 90
        4
176
     0
 62
     7
176
     0
 62
   257
176
     0
 90
        1
176
     0
 90
        1
176
     0
 40
1.0
176
     0
 90
        8
176
     2
 62
     7
176
     0
 40
1.0
176
     0
 90
        1
176
     0
 90
        6
176
     0
 90
        2
176
     0
 62
     7
176
     0
 90
        5
176
     0
 90
        0
176
     0
 90
        0
176
     0
290
     0
176
     0
 90
        1
176
     0
 40
0.0
176
     0
 90
        0
176
     0
290
     0
176
     0
290
     1
176
     0
290
     1
176
     0
290
     0
176
     0
290
     0
176
     0
290
     0
176
     0
290
     0
176
     0
290
     0
176
     0
290
     0
176
     0
 90
       50
176
     0
 40
0.0
176
     0
 40
1.0
176
     0
 90
        0
176
     0
 62
    18
420
        0
176
     0
 90
       50
176
     0
 90
        3
176
     0
 62
     5
420
      255
176
     0
290
     0
176
     0
 90
       50
176
     0
 90
       50
176
     0
 90
       50
176
     0
290
     0
176
     0
 90
       50
176
     0
 62
   256
176
     0
 40
1.0
176
     0
 90
        2
176
     0
  1
strokes_ogs.tif
176
     0
290
     0
176
     0
 40
1.0
176
     0
 40
1.0
176
     0
  0
VISUALSTYLE
  5
1D1
102
{ACAD_REACTORS
330
1C2
102
}
330
1C2
100
AcDbVisualStyle
  2
Facepattern
 70
    15
177
     3
291
     1
 70
    58
 90
        2
176
     1
 90
        2
176
     1
 90
        0
176
     1
 90
        0
176
     1
 40
-0.6
176
     1
 40
-30.0
176
     1
 62
     7
176
     1
 90
        1
176
     1
 90
        4
176
     1
 62
     7
176
     1
 62
   257
176
     1
 90
        1
176
     1
 90
        1
176
     1
 40
1.0
176
     1
 90
        8
176
     1
 62
     7
176
     1
 40
1.0
176
     1
 90
        1
176
     1
 90
        6
176
     1
 90
        2
176
     1
 62
     7
176
     1
 90
        5
176
     1
 90
        0
176
     1
 90
        0
176
     1
290
     0
176
     1
 90
        1
176
     1
 40
0.0
176
     1
 90
        0
176
     1
290
     0
176
     1
290
     1
176
     1
290
     1
176
     1
290
     0
176
     1
290
     0
176
     1
290
     0
176
     1
290
     0
176
     1
290
     0
176
     1
290
     0
176
     1
 90
       50
176
     1
 40
0.0
176
     1
 40
1.0
176
     1
 90
        0
176
     1
 62
    18
420
        0
176
     1
 90
       50
176
     1
 90
        3
176
     1
 62
     5
420
      255
176
     1
290
     0
176
     1
 90
       50
176
     1
 90
       50
176
     1
 90
       50
176
     1
290
     0
176
     1
 90
       50
176
     1
 62
   256
176
     0
 40
1.0
176
     0
 90
        2
176
     1
  1
strokes_ogs.tif
176
     1
290
     0
176
     1
 40
1.0
176
     1
 40
1.0
176
     1
  0
VISUALSTYLE
  5
1C3
102
{ACAD_REACTORS
330
1C2
102
}
330
1C2
100
AcDbVisualStyle
  2
Flat
 70
     0
177
     3
291
     1
 70
    58
 90
        2
176
     1
 90
        1
176
     1
 90
        1
176
     1
 90
        2
176
     1
 40
-0.6
176
     1
 40
30.0
176
     1
 62
     7
176
     1
 90
        0
176
     1
 90
        4
176
     1
 62
     7
176
     1
 62
   257
176
     1
 90
        1
176
     1
 90
        1
176
     1
 40
1.0
176
     1
 90
        8
176
     1
 62
     7
176
     1
 40
1.0
176
     1
 90
        1
176
     1
 90
        6
176
     1
 90
        2
176
     1
 62
     7
176
     1
 90
        5
176
     1
 90
        0
176
     1
 90
        0
176
     1
290
     0
176
     1
 90
       13
176
     1
 40
0.0
176
     1
 90
        0
176
     1
290
     0
176
     1
290
     1
176
     1
290
     1
176
     1
290
     0
176
     1
290
     0
176
     1
290
     0
176
     1
290
     0
176
     1
290
     0
176
     1
290
     0
176
     1
 90
       50
176
     1
 40
0.0
176
     1
 40
1.0
176
     1
 90
        0
176
     1
 62
    18
420
        0
176
     1
 90
       50
176
     1
 90
        3
176
     1
 62
     5
420
      255
176
     1
290
     0
176
     1
 90
       50
176
     1
 90
       50
176
     1
 90
       50
176
     1
290
     0
176
     1
 90
       50
176
     1
 62
   256
176
     0
 40
1.0
176
     0
 90
        2
176
     1
  1
strokes_ogs.tif
176
     1
290
     0
176
     1
 40
1.0
176
     1
 40
1.0
176
     1
  0
VISUALSTYLE
  5
1C4
102
{ACAD_REACTORS
330
1C2
102
}
330
1C2
100
AcDbVisualStyle
  2
FlatWithEdges
 70
     1
177
     3
291
     1
 70
    58
 90
        2
176
     1
 90
        1
176
     1
 90
        1
176
     1
 90
        2
176
     1
 40
-0.6
176
     1
 40
30.0
176
     1
 62
     7
176
     1
 90
        1
176
     1
 90
        4
176
     1
 62
     7
176
     1
 62
   257
176
     1
 90
        1
176
     1
 90
        1
176
     1
 40
1.0
176
     1
 90
        0
176
     1
 62
   257
176
     1
 40
1.0
176
     1
 90
        1
176
     1
 90
        6
176
     1
 90
        2
176
     1
 62
     7
176
     1
 90
        5
176
     1
 90
        0
176
     1
 90
        0
176
     1
290
     0
176
     1
 90
       13
176
     1
 40
0.0
176
     1
 90
        0
176
     1
290
     0
176
     1
290
     1
176
     1
290
     1
176
     1
290
     0
176
     1
290
     0
176
     1
290
     0
176
     1
290
     0
176
     1
290
     0
176
     1
290
     0
176
     1
 90
       50
176
     1
 40
0.0
176
     1
 40
1.0
176
     1
 90
        0
176
     1
 62
    18
420
        0
176
     1
 90
       50
176
     1
 90
        3
176
     1
 62
     5
420
      255
176
     1
290
     0
176
     1
 90
       50
176
     1
 90
       50
176
     1
 90
       50
176
     1
290
     0
176
     1
 90
       50
176
     1
 62
   256
176
     0
 40
1.0
176
     0
 90
        2
176
     1
  1
strokes_ogs.tif
176
     1
290
     0
176
     1
 40
1.0
176
     1
 40
1.0
176
     1
  0
VISUALSTYLE
  5
1C5
102
{ACAD_REACTORS
330
1C2
102
}
330
1C2
100
AcDbVisualStyle
  2
Gouraud
 70
     2
177
     3
291
     1
 70
    58
 90
        2
176
     1
 90
        2
176
     1
 90
        1
176
     1
 90
        2
176
     1
 40
-0.6
176
     1
 40
30.0
176
     1
 62
     7
176
     1
 90
        0
176
     1
 90
        4
176
     1
 62
     7
176
     1
 62
   257
176
     1
 90
        1
176
     1
 90
        1
176
     1
 40
1.0
176
     1
 90
        0
176
     1
 62
     7
176
     1
 40
1.0
176
     1
 90
        1
176
     1
 90
        6
176
     1
 90
        2
176
     1
 62
     7
176
     1
 90
        5
176
     1
 90
        0
176
     1
 90
        0
176
     1
290
     0
176
     1
 90
       13
176
     1
 40
0.0
176
     1
 90
        0
176
     1
290
     0
176
     1
290
     1
176
     1
290
     1
176
     1
290
     0
176
     1
290
     0
176
     1
290
     0
176
     1
290
     0
176
     1
290
     0
176
     1
290
     0
176
     1
 90
       50
176
     1
 40
0.0
176
     1
 40
1.0
176
     1
 90
        0
176
     1
 62
    18
420
        0
176
     1
 90
       50
176
     1
 90
        3
176
     1
 62
     5
420
      255
176
     1
290
     0
176
     1
 90
       50
176
     1
 90
       50
176
     1
 90
       50
176
     1
290
     0
176
     1
 90
       50
176
     1
 62
   256
176
     0
 40
1.0
176
     0
 90
        2
176
     1
  1
strokes_ogs.tif
176
     1
290
     0
176
     1
 40
1.0
176
     1
 40
1.0
176
     1
  0
VISUALSTYLE
  5
1C6
102
{ACAD_REACTORS
330
1C2
102
}
330
1C2
100
AcDbVisualStyle
  2
GouraudWithEdges
 70
     3
177
     3
291
     1
 70
    58
 90
        2
176
     1
 90
        2
176
     1
 90
        1
176
     1
 90
        2
176
     1
 40
-0.6
176
     1
 40
30.0
176
     1
 62
     7
176
     1
 90
        1
176
     1
 90
        4
176
     1
 62
     7
176
     1
 62
   257
176
     1
 90
        1
176
     1
 90
        1
176
     1
 40
1.0
176
     1
 90
        0
176
     1
 62
   257
176
     1
 40
1.0
176
     1
 90
        1
176
     1
 90
        6
176
     1
 90
        2
176
     1
 62
     7
176
     1
 90
        5
176
     1
 90
        0
176
     1
 90
        0
176
     1
290
     0
176
     1
 90
       13
176
     1
 40
0.0
176
     1
 90
        0
176
     1
290
     0
176
     1
290
     1
176
     1
290
     1
176
     1
290
     0
176
     1
290
     0
176
     1
290
     0
176
     1
290
     0
176
     1
290
     0
176
     1
290
     0
176
     1
 90
       50
176
     1
 40
0.0
176
     1
 40
1.0
176
     1
 90
        0
176
     1
 62
    18
420
        0
176
     1
 90
       50
176
     1
 90
        3
176
     1
 62
     5
420
      255
176
     1
290
     0
176
     1
 90
       50
176
     1
 90
       50
176
     1
 90
       50
176
     1
290
     0
176
     1
 90
       50
176
     1
 62
   256
176
     0
 40
1.0
176
     0
 90
        2
176
     1
  1
strokes_ogs.tif
176
     1
290
     0
176
     1
 40
1.0
176
     1
 40
1.0
176
     1
  0
VISUALSTYLE
  5
221
102
{ACAD_REACTORS
330
1C2
102
}
330
1C2
100
AcDbVisualStyle
  2
Hidden
 70
     6
177
     3
291
     0
 70
    58
 90
        1
176
     1
 90
        2
176
     1
 90
        2
176
     1
 90
        0
176
     1
 40
0.6
176
     1
 40
30.0
176
     1
 62
     7
420
 16777215
176
     1
 90
        2
176
     1
 90
        2
176
     1
 62
     7
176
     1
 62
   257
176
     1
 90
        2
176
     1
 90
        1
176
     1
 40
40.0
176
     1
 90
        0
176
     1
 62
   257
176
     1
 40
1.0
176
     1
 90
        1
176
     1
 90
        6
176
     1
 90
        2
176
     1
 62
     7
176
     1
 90
        3
176
     1
 90
        0
176
     1
 90
        0
176
     1
290
     0
176
     1
 90
        1
176
     1
 40
0.0
176
     1
 90
        0
176
     1
290
     0
176
     1
290
     1
176
     1
290
     1
176
     1
290
     0
176
     1
290
     0
176
     1
290
     0
176
     1
290
     0
176
     1
290
     0
176
     1
290
     0
176
     1
 90
       50
176
     1
 40
0.0
176
     1
 40
1.0
176
     1
 90
        0
176
     1
 62
    18
420
        0
176
     1
 90
       50
176
     1
 90
        3
176
     1
 62
     5
420
      255
176
     1
290
     0
176
     1
 90
       50
176
     1
 90
       50
176
     1
 90
       50
176
     1
290
     0
176
     1
 90
       50
176
     1
 62
   256
176
     0
 40
1.0
176
     0
 90
        2
176
     1
  1
strokes_ogs.tif
176
     1
290
     0
176
     1
 40
1.0
176
     1
 40
1.0
176
     1
  0
VISUALSTYLE
  5
222
102
{ACAD_REACTORS
330
1C2
102
}
330
1C2
100
AcDbVisualStyle
  2
JitterOff
 70
    20
177
     3
291
     1
 70
    58
 90
        2
176
     0
 90
        2
176
     0
 90
        0
176
     0
 90
        0
176
     0
 40
0.6
176
     0
 40
30.0
176
     0
 62
     7
420
 16777215
176
     0
 90
        1
176
     0
 90
        4
176
     0
 62
     7
176
     0
 62
   257
176
     0
 90
        1
176
     0
 90
        1
176
     0
 40
1.0
176
     0
 90
       10
176
     2
 62
     7
176
     0
 40
1.0
176
     0
 90
        1
176
     0
 90
        6
176
     0
 90
        2
176
     0
 62
     7
176
     0
 90
        5
176
     0
 90
        0
176
     0
 90
        0
176
     0
290
     0
176
     0
 90
        1
176
     0
 40
0.0
176
     0
 90
        0
176
     0
290
     0
176
     0
290
     1
176
     0
290
     1
176
     0
290
     0
176
     0
290
     0
176
     0
290
     0
176
     0
290
     0
176
     0
290
     0
176
     0
290
     0
176
     0
 90
       50
176
     0
 40
0.0
176
     0
 40
1.0
176
     0
 90
        0
176
     0
 62
    18
420
        0
176
     0
 90
       50
176
     0
 90
        3
176
     0
 62
     5
420
      255
176
     0
290
     0
176
     0
 90
       50
176
     0
 90
       50
176
     0
 90
       50
176
     0
290
     0
176
     0
 90
       50
176
     0
 62
   256
176
     0
 40
1.0
176
     0
 90
        2
176
     0
  1
strokes_ogs.tif
176
     0
290
     0
176
     0
 40
1.0
176
     0
 40
1.0
176
     0
  0
VISUALSTYLE
  5
1D0
102
{ACAD_REACTORS
330
1C2
102
}
330
1C2
100
AcDbVisualStyle
  2
Linepattern
 70
    14
177
     3
291
     1
 70
    58
 90
        2
176
     1
 90
        2
176
     1
 90
        0
176
     1
 90
        0
176
     1
 40
-0.6
176
     1
 40
-30.0
176
     1
 62
     7
176
     1
 90
        1
176
     1
 90
        4
176
     1
 62
     7
176
     1
 62
   257
176
     1
 90
        7
176
     1
 90
        7
176
     1
 40
1.0
176
     1
 90
        8
176
     1
 62
     7
176
     1
 40
1.0
176
     1
 90
        1
176
     1
 90
        6
176
     1
 90
        2
176
     1
 62
     7
176
     1
 90
        5
176
     1
 90
        0
176
     1
 90
        0
176
     1
290
     0
176
     1
 90
        1
176
     1
 40
0.0
176
     1
 90
        0
176
     1
290
     0
176
     1
290
     1
176
     1
290
     1
176
     1
290
     0
176
     1
290
     0
176
     1
290
     0
176
     1
290
     0
176
     1
290
     0
176
     1
290
     0
176
     1
 90
       50
176
     1
 40
0.0
176
     1
 40
1.0
176
     1
 90
        0
176
     1
 62
    18
420
        0
176
     1
 90
       50
176
     1
 90
        3
176
     1
 62
     5
420
      255
176
     1
290
     0
176
     1
 90
       50
176
     1
 90
       50
176
     1
 90
       50
176
     1
290
     0
176
     1
 90
       50
176
     1
 62
   256
176
     0
 40
1.0
176
     0
 90
        2
176
     1
  1
strokes_ogs.tif
176
     1
290
     0
176
     1
 40
1.0
176
     1
 40
1.0
176
     1
  0
VISUALSTYLE
  5
223
102
{ACAD_REACTORS
330
1C2
102
}
330
1C2
100
AcDbVisualStyle
  2
OverhangOff
 70
    21
177
     3
291
     1
 70
    58
 90
        2
176
     0
 90
        2
176
     0
 90
        0
176
     0
 90
        0
176
     0
 40
0.6
176
     0
 40
30.0
176
     0
 62
     7
420
 16777215
176
     0
 90
        1
176
     0
 90
        4
176
     0
 62
     7
176
     0
 62
   257
176
     0
 90
        1
176
     0
 90
        1
176
     0
 40
1.0
176
     0
 90
        9
176
     2
 62
     7
176
     0
 40
1.0
176
     0
 90
        1
176
     0
 90
        6
176
     0
 90
        2
176
     0
 62
     7
176
     0
 90
        5
176
     0
 90
        0
176
     0
 90
        0
176
     0
290
     0
176
     0
 90
        1
176
     0
 40
0.0
176
     0
 90
        0
176
     0
290
     0
176
     0
290
     1
176
     0
290
     1
176
     0
290
     0
176
     0
290
     0
176
     0
290
     0
176
     0
290
     0
176
     0
290
     0
176
     0
290
     0
176
     0
 90
       50
176
     0
 40
0.0
176
     0
 40
1.0
176
     0
 90
        0
176
     0
 62
    18
420
        0
176
     0
 90
       50
176
     0
 90
        3
176
     0
 62
     5
420
      255
176
     0
290
     0
176
     0
 90
       50
176
     0
 90
       50
176
     0
 90
       50
176
     0
290
     0
176
     0
 90
       50
176
     0
 62
   256
176
     0
 40
1.0
176
     0
 90
        2
176
     0
  1
strokes_ogs.tif
176
     0
290
     0
176
     0
 40
1.0
176
     0
 40
1.0
176
     0
  0
VISUALSTYLE
  5
1CB
102
{ACAD_REACTORS
330
1C2
102
}
330
1C2
100
AcDbVisualStyle
  2
Realistic
 70
     8
177
     3
291
     0
 70
    58
 90
        2
176
     1
 90
        2
176
     1
 90
        0
176
     1
 90
        0
176
     1
 40
-0.6
176
     1
 40
-30.0
176
     1
 62
     7
176
     1
 90
        1
176
     1
 90
        0
176
     1
 62
     7
176
     1
 62
   257
176
     1
 90
        1
176
     1
 90
        1
176
     1
 40
1.0
176
     1
 90
        8
176
     1
 62
     8
176
     1
 40
1.0
176
     1
 90
        1
176
     1
 90
        6
176
     1
 90
        2
176
     1
 62
     7
176
     1
 90
        5
176
     1
 90
        0
176
     1
 90
        0
176
     1
290
     0
176
     1
 90
       13
176
     1
 40
0.0
176
     1
 90
        0
176
     1
290
     0
176
     1
290
     1
176
     1
290
     1
176
     1
290
     0
176
     1
290
     0
176
     1
290
     0
176
     1
290
     0
176
     1
290
     0
176
     1
290
     0
176
     1
 90
       50
176
     1
 40
0.0
176
     1
 40
1.0
176
     1
 90
        0
176
     1
 62
    18
420
        0
176
     1
 90
       50
176
     1
 90
        3
176
     1
 62
     5
420
      255
176
     1
290
     0
176
     1
 90
       50
176
     1
 90
       50
176
     1
 90
       50
176
     1
290
     0
176
     1
 90
       50
176
     1
 62
   256
176
     0
 40
1.0
176
     0
 90
        2
176
     1
  1
strokes_ogs.tif
176
     1
290
     0
176
     1
 40
1.0
176
     1
 40
1.0
176
     1
  0
VISUALSTYLE
  5
229
102
{ACAD_REACTORS
330
1C2
102
}
330
1C2
100
AcDbVisualStyle
  2
Shaded
 70
    27
177
     3
291
     0
 70
    58
 90
        2
176
     1
 90
        2
176
     1
 90
        1
176
     1
 90
        2
176
     1
 40
0.6
176
     1
 40
30.0
176
     1
 62
     7
420
 16777215
176
     1
 90
        0
176
     1
 90
        4
176
     1
 62
     7
176
     1
 62
   257
176
     1
 90
        1
176
     1
 90
        1
176
     1
 40
1.0
176
     1
 90
        8
176
     1
 62
   257
176
     1
 40
1.0
176
     1
 90
        1
176
     1
 90
        6
176
     1
 90
        2
176
     1
 62
     8
420
  7895160
176
     1
 90
        3
176
     1
 90
        0
176
     1
 90
        0
176
     1
290
     0
176
     1
 90
        5
176
     1
 40
0.0
176
     1
 90
        0
176
     1
290
     0
176
     1
290
     1
176
     1
290
     1
176
     1
290
     0
176
     1
290
     0
176
     1
290
     0
176
     1
290
     0
176
     1
290
     0
176
     1
290
     0
176
     1
 90
       50
176
     1
 40
0.0
176
     1
 40
1.0
176
     1
 90
        0
176
     1
 62
    18
420
        0
176
     1
 90
       50
176
     1
 90
        3
176
     1
 62
     5
420
      255
176
     1
290
     0
176
     1
 90
       50
176
     1
 90
       50
176
     1
 90
       50
176
     1
290
     0
176
     1
 90
       50
176
     1
 62
   256
176
     0
 40
1.0
176
     0
 90
        2
176
     1
  1
strokes_ogs.tif
176
     1
290
     0
176
     1
 40
1.0
176
     1
 40
1.0
176
     1
  0
VISUALSTYLE
  5
228
102
{ACAD_REACTORS
330
1C2
102
}
330
1C2
100
AcDbVisualStyle
  2
Shaded with edges
 70
    26
177
     3
291
     0
 70
    58
 90
        2
176
     1
 90
        2
176
     1
 90
        1
176
     1
 90
        2
176
     1
 40
0.6
176
     1
 40
30.0
176
     1
 62
     7
420
 16777215
176
     1
 90
        1
176
     1
 90
       10
176
     1
 62
     7
176
     1
 62
   257
176
     1
 90
        2
176
     1
 90
        1
176
     1
 40
1.0
176
     1
 90
        8
176
     1
 62
   257
176
     1
 40
1.0
176
     1
 90
        1
176
     1
 90
        6
176
     1
 90
        2
176
     1
 62
     7
176
     1
 90
        3
176
     1
 90
        0
176
     1
 90
        0
176
     1
290
     0
176
     1
 90
        5
176
     1
 40
0.0
176
     1
 90
        0
176
     1
290
     0
176
     1
290
     1
176
     1
290
     1
176
     1
290
     0
176
     1
290
     0
176
     1
290
     0
176
     1
290
     0
176
     1
290
     0
176
     1
290
     0
176
     1
 90
       50
176
     1
 40
0.0
176
     1
 40
1.0
176
     1
 90
        0
176
     1
 62
    18
420
        0
176
     1
 90
       50
176
     1
 90
        3
176
     1
 62
     5
420
      255
176
     1
290
     0
176
     1
 90
       50
176
     1
 90
       50
176
     1
 90
       50
176
     1
290
     0
176
     1
 90
       50
176
     1
 62
   256
176
     0
 40
1.0
176
     0
 90
        2
176
     1
  1
strokes_ogs.tif
176
     1
290
     0
176
     1
 40
1.0
176
     1
 40
1.0
176
     1
  0
VISUALSTYLE
  5
225
102
{ACAD_REACTORS
330
1C2
102
}
330
1C2
100
AcDbVisualStyle
  2
Shades of Gray
 70
    23
177
     3
291
     0
 70
    58
 90
        2
176
     1
 90
        2
176
     1
 90
        3
176
     1
 90
        0
176
     1
 40
0.6
176
     1
 40
30.0
176
     1
 62
     7
420
 16777215
176
     1
 90
        2
176
     1
 90
        2
176
     1
 62
     7
176
     1
 62
     7
176
     1
 90
        1
176
     1
 90
        1
176
     1
 40
40.0
176
     1
 90
        8
176
     1
 62
     7
176
     1
 40
1.0
176
     1
 90
        1
176
     1
 90
        6
176
     1
 90
        2
176
     1
 62
     7
176
     1
 90
        3
176
     1
 90
        0
176
     1
 90
        0
176
     1
290
     0
176
     1
 90
        1
176
     1
 40
0.0
176
     1
 90
        0
176
     1
290
     0
176
     1
290
     1
176
     1
290
     1
176
     1
290
     0
176
     1
290
     0
176
     1
290
     0
176
     1
290
     0
176
     1
290
     0
176
     1
290
     0
176
     1
 90
       50
176
     1
 40
0.0
176
     1
 40
1.0
176
     1
 90
        0
176
     1
 62
    18
420
        0
176
     1
 90
       50
176
     1
 90
        3
176
     1
 62
     5
420
      255
176
     1
290
     0
176
     1
 90
       50
176
     1
 90
       50
176
     1
 90
       50
176
     1
290
     0
176
     1
 90
       50
176
     1
 62
   256
176
     0
 40
1.0
176
     0
 90
        2
176
     1
  1
strokes_ogs.tif
176
     1
290
     0
176
     1
 40
1.0
176
     1
 40
1.0
176
     1
  0
VISUALSTYLE
  5
226
102
{ACAD_REACTORS
330
1C2
102
}
330
1C2
100
AcDbVisualStyle
  2
Sketchy
 70
    24
177
     3
291
     0
 70
    58
 90
        1
176
     1
 90
        2
176
     1
 90
        2
176
     1
 90
        0
176
     1
 40
0.6
176
     1
 40
30.0
176
     1
 62
     7
420
 16777215
176
     1
 90
        2
176
     1
 90
        2
176
     1
 62
     7
176
     1
 62
     7
176
     1
 90
        1
176
     1
 90
        1
176
     1
 40
40.0
176
     1
 90
       11
176
     1
 62
     7
176
     1
 40
1.0
176
     1
 90
        1
176
     1
 90
        6
176
     1
 90
        2
176
     1
 62
     7
176
     1
 90
        6
176
     1
 90
        0
176
     1
 90
        0
176
     1
290
     0
176
     1
 90
        1
176
     1
 40
0.0
176
     1
 90
        0
176
     1
290
     0
176
     1
290
     1
176
     1
290
     1
176
     1
290
     0
176
     1
290
     0
176
     1
290
     0
176
     1
290
     0
176
     1
290
     0
176
     1
290
     0
176
     1
 90
       50
176
     1
 40
0.0
176
     1
 40
1.0
176
     1
 90
        0
176
     1
 62
    18
420
        0
176
     1
 90
       50
176
     1
 90
        3
176
     1
 62
     5
420
      255
176
     1
290
     0
176
     1
 90
       50
176
     1
 90
       50
176
     1
 90
       50
176
     1
290
     0
176
     1
 90
       50
176
     1
 62
   256
176
     0
 40
1.0
176
     0
 90
        2
176
     1
  1
strokes_ogs.tif
176
     1
290
     0
176
     1
 40
1.0
176
     1
 40
1.0
176
     1
  0
VISUALSTYLE
  5
1CF
102
{ACAD_REACTORS
330
1C2
102
}
330
1C2
100
AcDbVisualStyle
  2
Thicken
 70
    13
177
     3
291
     1
 70
    58
 90
        2
176
     1
 90
        2
176
     1
 90
        0
176
     1
 90
        0
176
     1
 40
-0.6
176
     1
 40
-30.0
176
     1
 62
     7
176
     1
 90
        1
176
     1
 90
        4
176
     1
 62
     7
176
     1
 62
   257
176
     1
 90
        1
176
     1
 90
        1
176
     1
 40
1.0
176
     1
 90
       12
176
     1
 62
     7
176
     1
 40
1.0
176
     1
 90
        1
176
     1
 90
        6
176
     1
 90
        2
176
     1
 62
     7
176
     1
 90
        5
176
     1
 90
        0
176
     1
 90
        0
176
     1
290
     0
176
     1
 90
        1
176
     1
 40
0.0
176
     1
 90
        0
176
     1
290
     0
176
     1
290
     1
176
     1
290
     1
176
     1
290
     0
176
     1
290
     0
176
     1
290
     0
176
     1
290
     0
176
     1
290
     0
176
     1
290
     0
176
     1
 90
       50
176
     1
 40
0.0
176
     1
 40
1.0
176
     1
 90
        0
176
     1
 62
    18
420
        0
176
     1
 90
       50
176
     1
 90
        3
176
     1
 62
     5
420
      255
176
     1
290
     0
176
     1
 90
       50
176
     1
 90
       50
176
     1
 90
       50
176
     1
290
     0
176
     1
 90
       50
176
     1
 62
   256
176
     0
 40
1.0
176
     0
 90
        2
176
     1
  1
strokes_ogs.tif
176
     1
290
     0
176
     1
 40
1.0
176
     1
 40
1.0
176
     1
  0
VISUALSTYLE
  5
220
102
{ACAD_REACTORS
330
1C2
102
}
330
1C2
100
AcDbVisualStyle
  2
Wireframe
 70
     5
177
     3
291
     0
 70
    58
 90
        0
176
     1
 90
        2
176
     1
 90
        0
176
     1
 90
        0
176
     1
 40
0.6
176
     1
 40
30.0
176
     1
 62
     7
420
 16777215
176
     1
 90
        1
176
     1
 90
        4
176
     1
 62
     7
176
     1
 62
   257
176
     1
 90
        1
176
     1
 90
        1
176
     1
 40
1.0
176
     1
 90
        0
176
     1
 62
   257
176
     1
 40
1.0
176
     1
 90
        1
176
     1
 90
        6
176
     1
 90
        2
176
     1
 62
     7
176
     1
 90
        3
176
     1
 90
        0
176
     1
 90
        0
176
     1
290
     0
176
     1
 90
        1
176
     1
 40
0.0
176
     1
 90
        0
176
     1
290
     0
176
     1
290
     1
176
     1
290
     1
176
     1
290
     0
176
     1
290
     0
176
     1
290
     0
176
     1
290
     0
176
     1
290
     0
176
     1
290
     0
176
     1
 90
       50
176
     1
 40
0.0
176
     1
 40
1.0
176
     1
 90
        0
176
     1
 62
    18
420
        0
176
     1
 90
       50
176
     1
 90
        3
176
     1
 62
     5
420
      255
176
     1
290
     0
176
     1
 90
       50
176
     1
 90
       50
176
     1
 90
       50
176
     1
290
     0
176
     1
 90
       50
176
     1
 62
   256
176
     0
 40
1.0
176
     0
 90
        2
176
     1
  1
strokes_ogs.tif
176
     1
290
     0
176
     1
 40
1.0
176
     1
 40
1.0
176
     1
  0
VISUALSTYLE
  5
227
102
{ACAD_REACTORS
330
1C2
102
}
330
1C2
100
AcDbVisualStyle
  2
X-Ray
 70
    25
177
     3
291
     0
 70
    58
 90
        2
176
     1
 90
        2
176
     1
 90
        1
176
     1
 90
        1
176
     1
 40
0.5
176
     1
 40
30.0
176
     1
 62
     7
420
 16777215
176
     1
 90
        1
176
     1
 90
        0
176
     1
 62
     7
176
     1
 62
   257
176
     1
 90
        1
176
     1
 90
        1
176
     1
 40
1.0
176
     1
 90
        8
176
     1
 62
     7
176
     1
 40
1.0
176
     1
 90
        1
176
     1
 90
        6
176
     1
 90
        2
176
     1
 62
     7
176
     1
 90
        3
176
     1
 90
        0
176
     1
 90
        0
176
     1
290
     0
176
     1
 90
       13
176
     1
 40
0.0
176
     1
 90
        0
176
     1
290
     0
176
     1
290
     1
176
     1
290
     1
176
     1
290
     0
176
     1
290
     0
176
     1
290
     0
176
     1
290
     0
176
     1
290
     0
176
     1
290
     0
176
     1
 90
       50
176
     1
 40
0.0
176
     1
 40
1.0
176
     1
 90
        0
176
     1
 62
    18
420
        0
176
     1
 90
       50
176
     1
 90
        3
176
     1
 62
     5
420
      255
176
     1
290
     0
176
     1
 90
       50
176
     1
 90
       50
176
     1
 90
       50
176
     1
290
     0
176
     1
 90
       50
176
     1
 62
   256
176
     0
 40
1.0
176
     0
 90
        2
176
     1
  1
strokes_ogs.tif
176
     1
290
     0
176
     1
 40
1.0
176
     1
 40
1.0
176
     1
  0
DICTIONARYVAR
  5
247
102
{ACAD_REACTORS
330
1DF
102
}
330
1DF
100
DictionaryVariables
280
     0
  1
1:1
  0
DICTIONARYVAR
  5
249
102
{ACAD_REACTORS
330
1DF
102
}
330
1DF
100
DictionaryVariables
280
     0
  1
Standard
  0
DICTIONARYVAR
  5
248
102
{ACAD_REACTORS
330
1DF
102
}
330
1DF
100
DictionaryVariables
280
     0
  1
Standard
  0
DICTIONARYVAR
  5
1E3
102
{ACAD_REACTORS
330
1DF
102
}
330
1DF
100
DictionaryVariables
280
     0
  1
2
  0
DICTIONARYVAR
  5
1E4
102
{ACAD_REACTORS
330
1DF
102
}
330
1DF
100
DictionaryVariables
280
     0
  1
1
  0
DICTIONARYVAR
  5
1E2
102
{ACAD_REACTORS
330
1DF
102
}
330
1DF
100
DictionaryVariables
280
     0
  1
0
  0
DICTIONARY
  5
32D
330
22B
100
AcDbDictionary
280
     1
281
     1
  3
ACAD_ROUNDTRIP_2008_TABLESTYLE_CELLSTYLEMAP
360
32E
  0
CELLSTYLEMAP
  5
32E
102
{ACAD_REACTORS
330
32D
102
}
330
32D
100
AcDbCellStyleMap
 90
        3
300
CELLSTYLE
  1
TABLEFORMAT_BEGIN
 90
        5
170
     1
 91
        0
 92
    32768
 62
   257
 93
        1
300
CONTENTFORMAT
  1
CONTENTFORMAT_BEGIN
 90
        0
 91
        0
 92
        4
 93
        0
300

 40
0.0
140
1.0
 94
        5
 62
     0
340
11
144
0.25
309
CONTENTFORMAT_END
171
     1
301
MARGIN
  1
CELLMARGIN_BEGIN
 40
0.06
 40
0.06
 40
0.06
 40
0.06
 40
0.06
 40
0.06
309
CELLMARGIN_END
 94
        6
 95
        1
302
GRIDFORMAT
  1
GRIDFORMAT_BEGIN
 90
        0
 91
        1
 62
     0
 92
       -2
340
14
 93
        0
 40
0.045
309
GRIDFORMAT_END
 95
        2
302
GRIDFORMAT
  1
GRIDFORMAT_BEGIN
 90
        0
 91
        1
 62
     0
 92
       -2
340
14
 93
        0
 40
0.045
309
GRIDFORMAT_END
 95
        4
302
GRIDFORMAT
  1
GRIDFORMAT_BEGIN
 90
        0
 91
        1
 62
     0
 92
       -2
340
14
 93
        0
 40
0.045
309
GRIDFORMAT_END
 95
        8
302
GRIDFORMAT
  1
GRIDFORMAT_BEGIN
 90
        0
 91
        1
 62
     0
 92
       -2
340
14
 93
        0
 40
0.045
309
GRIDFORMAT_END
 95
       16
302
GRIDFORMAT
  1
GRIDFORMAT_BEGIN
 90
        0
 91
        1
 62
     0
 92
       -2
340
14
 93
        0
 40
0.045
309
GRIDFORMAT_END
 95
       32
302
GRIDFORMAT
  1
GRIDFORMAT_BEGIN
 90
        0
 91
        1
 62
     0
 92
       -2
340
14
 93
        0
 40
0.045
309
GRIDFORMAT_END
309
TABLEFORMAT_END
  1
CELLSTYLE_BEGIN
 90
        1
 91
        1
300
_TITLE
309
CELLSTYLE_END
300
CELLSTYLE
  1
TABLEFORMAT_BEGIN
 90
        5
170
     1
 91
        0
 92
        0
 62
   257
 93
        1
300
CONTENTFORMAT
  1
CONTENTFORMAT_BEGIN
 90
        0
 91
        0
 92
        4
 93
        0
300

 40
0.0
140
1.0
 94
        5
 62
     0
340
11
144
0.18
309
CONTENTFORMAT_END
171
     1
301
MARGIN
  1
CELLMARGIN_BEGIN
 40
0.06
 40
0.06
 40
0.06
 40
0.06
 40
0.06
 40
0.06
309
CELLMARGIN_END
 94
        6
 95
        1
302
GRIDFORMAT
  1
GRIDFORMAT_BEGIN
 90
        0
 91
        1
 62
     0
 92
       -2
340
14
 93
        0
 40
0.045
309
GRIDFORMAT_END
 95
        2
302
GRIDFORMAT
  1
GRIDFORMAT_BEGIN
 90
        0
 91
        1
 62
     0
 92
       -2
340
14
 93
        0
 40
0.045
309
GRIDFORMAT_END
 95
        4
302
GRIDFORMAT
  1
GRIDFORMAT_BEGIN
 90
        0
 91
        1
 62
     0
 92
       -2
340
14
 93
        0
 40
0.045
309
GRIDFORMAT_END
 95
        8
302
GRIDFORMAT
  1
GRIDFORMAT_BEGIN
 90
        0
 91
        1
 62
     0
 92
       -2
340
14
 93
        0
 40
0.045
309
GRIDFORMAT_END
 95
       16
302
GRIDFORMAT
  1
GRIDFORMAT_BEGIN
 90
        0
 91
        1
 62
     0
 92
       -2
340
14
 93
        0
 40
0.045
309
GRIDFORMAT_END
 95
       32
302
GRIDFORMAT
  1
GRIDFORMAT_BEGIN
 90
        0
 91
        1
 62
     0
 92
       -2
340
14
 93
        0
 40
0.045
309
GRIDFORMAT_END
309
TABLEFORMAT_END
  1
CELLSTYLE_BEGIN
 90
        2
 91
        1
300
_HEADER
309
CELLSTYLE_END
300
CELLSTYLE
  1
TABLEFORMAT_BEGIN
 90
        5
170
     1
 91
        0
 92
        0
 62
   257
 93
        1
300
CONTENTFORMAT
  1
CONTENTFORMAT_BEGIN
 90
        0
 91
        0
 92
        4
 93
        0
300

 40
0.0
140
1.0
 94
        2
 62
     0
340
11
144
0.18
309
CONTENTFORMAT_END
171
     1
301
MARGIN
  1
CELLMARGIN_BEGIN
 40
0.06
 40
0.06
 40
0.06
 40
0.06
 40
0.06
 40
0.06
309
CELLMARGIN_END
 94
        6
 95
        1
302
GRIDFORMAT
  1
GRIDFORMAT_BEGIN
 90
        0
 91
        1
 62
     0
 92
       -2
340
14
 93
        0
 40
0.045
309
GRIDFORMAT_END
 95
        2
302
GRIDFORMAT
  1
GRIDFORMAT_BEGIN
 90
        0
 91
        1
 62
     0
 92
       -2
340
14
 93
        0
 40
0.045
309
GRIDFORMAT_END
 95
        4
302
GRIDFORMAT
  1
GRIDFORMAT_BEGIN
 90
        0
 91
        1
 62
     0
 92
       -2
340
14
 93
        0
 40
0.045
309
GRIDFORMAT_END
 95
        8
302
GRIDFORMAT
  1
GRIDFORMAT_BEGIN
 90
        0
 91
        1
 62
     0
 92
       -2
340
14
 93
        0
 40
0.045
309
GRIDFORMAT_END
 95
       16
302
GRIDFORMAT
  1
GRIDFORMAT_BEGIN
 90
        0
 91
        1
 62
     0
 92
       -2
340
14
 93
        0
 40
0.045
309
GRIDFORMAT_END
 95
       32
302
GRIDFORMAT
  1
GRIDFORMAT_BEGIN
 90
        0
 91
        1
 62
     0
 92
       -2
340
14
 93
        0
 40
0.045
309
GRIDFORMAT_END
309
TABLEFORMAT_END
  1
CELLSTYLE_BEGIN
 90
        3
 91
        2
300
_DATA
309
CELLSTYLE_END
  0
ENDSEC
  0
EOF
