  0
SECTION
  2
HEADER
  9
$ACADVER
  1
AC1027
  9
$ACADMAINTVER
 70
   105
  9
$DWGCODEPAGE
  3
ANSI_1252
  9
$REQUIREDVERSIONS
160
                 0
  9
$LASTSAVEDBY
  1
matthias.ochs
  9
$INSBASE
 10
0.0
 20
0.0
 30
0.0
  9
$EXTMIN
 10
-65.63935806020835
 20
-49.38752658514613
 30
0.0
  9
$EXTMAX
 10
96.29506445058139
 20
48.21678287341203
 30
0.0
  9
$LIMMIN
 10
-78.592805852
 20
-34.808885366
  9
$LIMMAX
 10
96.852378355
 20
41.794868188
  9
$ORTHOMODE
 70
     0
  9
$REGENMODE
 70
     1
  9
$FILLMODE
 70
     1
  9
$QTEXTMODE
 70
     0
  9
$MIRRTEXT
 70
     1
  9
$LTSCALE
 40
1.0
  9
$ATTMODE
 70
     1
  9
$TEXTSIZE
 40
0.2
  9
$TRACEWID
 40
0.05
  9
$TEXTSTYLE
  7
Standard
  9
$CLAYER
  8
4
  9
$CELTYPE
  6
ByLayer
  9
$CECOLOR
 62
   256
  9
$CELTSCALE
 40
1.0
  9
$DISPSILH
 70
     0
  9
$DIMSCALE
 40
1.0
  9
$DIMASZ
 40
0.18
  9
$DIMEXO
 40
0.0625
  9
$DIMDLI
 40
0.38
  9
$DIMRND
 40
0.0
  9
$DIMDLE
 40
0.0
  9
$DIMEXE
 40
0.18
  9
$DIMTP
 40
0.0
  9
$DIMTM
 40
0.0
  9
$DIMTXT
 40
0.18
  9
$DIMCEN
 40
0.09
  9
$DIMTSZ
 40
0.0
  9
$DIMTOL
 70
     0
  9
$DIMLIM
 70
     0
  9
$DIMTIH
 70
     1
  9
$DIMTOH
 70
     1
  9
$DIMSE1
 70
     0
  9
$DIMSE2
 70
     0
  9
$DIMTAD
 70
     0
  9
$DIMZIN
 70
     0
  9
$DIMBLK
  1

  9
$DIMASO
 70
     1
  9
$DIMSHO
 70
     1
  9
$DIMPOST
  1

  9
$DIMAPOST
  1

  9
$DIMALT
 70
     0
  9
$DIMALTD
 70
     2
  9
$DIMALTF
 40
25.4
  9
$DIMLFAC
 40
1.0
  9
$DIMTOFL
 70
     0
  9
$DIMTVP
 40
0.0
  9
$DIMTIX
 70
     0
  9
$DIMSOXD
 70
     0
  9
$DIMSAH
 70
     0
  9
$DIMBLK1
  1

  9
$DIMBLK2
  1

  9
$DIMSTYLE
  2
Standard
  9
$DIMCLRD
 70
     0
  9
$DIMCLRE
 70
     0
  9
$DIMCLRT
 70
     0
  9
$DIMTFAC
 40
1.0
  9
$DIMGAP
 40
0.09
  9
$DIMJUST
 70
     0
  9
$DIMSD1
 70
     0
  9
$DIMSD2
 70
     0
  9
$DIMTOLJ
 70
     1
  9
$DIMTZIN
 70
     0
  9
$DIMALTZ
 70
     0
  9
$DIMALTTZ
 70
     0
  9
$DIMUPT
 70
     0
  9
$DIMDEC
 70
     4
  9
$DIMTDEC
 70
     4
  9
$DIMALTU
 70
     2
  9
$DIMALTTD
 70
     2
  9
$DIMTXSTY
  7
Standard
  9
$DIMAUNIT
 70
     0
  9
$DIMADEC
 70
     0
  9
$DIMALTRND
 40
0.0
  9
$DIMAZIN
 70
     0
  9
$DIMDSEP
 70
    46
  9
$DIMATFIT
 70
     3
  9
$DIMFRAC
 70
     0
  9
$DIMLDRBLK
  1

  9
$DIMLUNIT
 70
     2
  9
$DIMLWD
 70
    -2
  9
$DIMLWE
 70
    -2
  9
$DIMTMOVE
 70
     2
  9
$DIMFXL
 40
1.0
  9
$DIMFXLON
 70
     0
  9
$DIMJOGANG
 40
0.7853981633974483
  9
$DIMTFILL
 70
     0
  9
$DIMTFILLCLR
 70
     0
  9
$DIMARCSYM
 70
     0
  9
$DIMLTYPE
  6

  9
$DIMLTEX1
  6

  9
$DIMLTEX2
  6

  9
$DIMTXTDIRECTION
 70
     0
  9
$LUNITS
 70
     2
  9
$LUPREC
 70
     4
  9
$SKETCHINC
 40
0.1
  9
$FILLETRAD
 40
0.5
  9
$AUNITS
 70
     2
  9
$AUPREC
 70
     0
  9
$MENU
  1
.
  9
$ELEVATION
 40
0.0
  9
$PELEVATION
 40
0.0
  9
$THICKNESS
 40
0.0
  9
$LIMCHECK
 70
     0
  9
$CHAMFERA
 40
0.5
  9
$CHAMFERB
 40
0.5
  9
$CHAMFERC
 40
1.0
  9
$CHAMFERD
 40
0.0
  9
$SKPOLY
 70
     0
  9
$TDCREATE
 40
2458327.54440831
  9
$TDUCREATE
 40
2458327.461074977
  9
$TDUPDATE
 40
2458677.424714896
  9
$TDUUPDATE
 40
2458677.341381562
  9
$TDINDWG
 40
0.0101254282
  9
$TDUSRTIMER
 40
0.0028725926
  9
$USRTIMER
 70
     1
  9
$ANGBASE
 50
0.0
  9
$ANGDIR
 70
     0
  9
$PDMODE
 70
     0
  9
$PDSIZE
 40
0.0
  9
$PLINEWID
 40
0.0
  9
$SPLFRAME
 70
     0
  9
$SPLINETYPE
 70
     6
  9
$SPLINESEGS
 70
     8
  9
$HANDSEED
  5
360
  9
$SURFTAB1
 70
     6
  9
$SURFTAB2
 70
     6
  9
$SURFTYPE
 70
     6
  9
$SURFU
 70
     6
  9
$SURFV
 70
     6
  9
$UCSBASE
  2

  9
$UCSNAME
  2

  9
$UCSORG
 10
0.0
 20
0.0
 30
0.0
  9
$UCSXDIR
 10
1.0
 20
0.0
 30
0.0
  9
$UCSYDIR
 10
0.0
 20
1.0
 30
0.0
  9
$UCSORTHOREF
  2

  9
$UCSORTHOVIEW
 70
     0
  9
$UCSORGTOP
 10
0.0
 20
0.0
 30
0.0
  9
$UCSORGBOTTOM
 10
0.0
 20
0.0
 30
0.0
  9
$UCSORGLEFT
 10
0.0
 20
0.0
 30
0.0
  9
$UCSORGRIGHT
 10
0.0
 20
0.0
 30
0.0
  9
$UCSORGFRONT
 10
0.0
 20
0.0
 30
0.0
  9
$UCSORGBACK
 10
0.0
 20
0.0
 30
0.0
  9
$PUCSBASE
  2

  9
$PUCSNAME
  2

  9
$PUCSORG
 10
0.0
 20
0.0
 30
0.0
  9
$PUCSXDIR
 10
1.0
 20
0.0
 30
0.0
  9
$PUCSYDIR
 10
0.0
 20
1.0
 30
0.0
  9
$PUCSORTHOREF
  2

  9
$PUCSORTHOVIEW
 70
     0
  9
$PUCSORGTOP
 10
0.0
 20
0.0
 30
0.0
  9
$PUCSORGBOTTOM
 10
0.0
 20
0.0
 30
0.0
  9
$PUCSORGLEFT
 10
0.0
 20
0.0
 30
0.0
  9
$PUCSORGRIGHT
 10
0.0
 20
0.0
 30
0.0
  9
$PUCSORGFRONT
 10
0.0
 20
0.0
 30
0.0
  9
$PUCSORGBACK
 10
0.0
 20
0.0
 30
0.0
  9
$USERI1
 70
     0
  9
$USERI2
 70
     0
  9
$USERI3
 70
     0
  9
$USERI4
 70
     0
  9
$USERI5
 70
     0
  9
$USERR1
 40
0.0
  9
$USERR2
 40
0.0
  9
$USERR3
 40
0.0
  9
$USERR4
 40
0.0
  9
$USERR5
 40
0.0
  9
$WORLDVIEW
 70
     1
  9
$SHADEDGE
 70
     3
  9
$SHADEDIF
 70
    70
  9
$TILEMODE
 70
     1
  9
$MAXACTVP
 70
    64
  9
$PINSBASE
 10
0.0
 20
0.0
 30
0.0
  9
$PLIMCHECK
 70
     0
  9
$PEXTMIN
 10
1.000000000000000E+20
 20
1.000000000000000E+20
 30
1.000000000000000E+20
  9
$PEXTMAX
 10
-1.000000000000000E+20
 20
-1.000000000000000E+20
 30
-1.000000000000000E+20
  9
$PLIMMIN
 10
0.0
 20
0.0
  9
$PLIMMAX
 10
0.0
 20
0.0
  9
$UNITMODE
 70
     0
  9
$VISRETAIN
 70
     1
  9
$PLINEGEN
 70
     0
  9
$PSLTSCALE
 70
     1
  9
$TREEDEPTH
 70
  3020
  9
$CMLSTYLE
  2
Standard
  9
$CMLJUST
 70
     0
  9
$CMLSCALE
 40
1.0
  9
$PROXYGRAPHICS
 70
     1
  9
$MEASUREMENT
 70
     0
  9
$CELWEIGHT
370
    -1
  9
$ENDCAPS
280
     0
  9
$JOINSTYLE
280
     0
  9
$LWDISPLAY
290
     0
  9
$INSUNITS
 70
     0
  9
$HYPERLINKBASE
  1

  9
$STYLESHEET
  1

  9
$XEDIT
290
     1
  9
$CEPSNTYPE
380
     0
  9
$PSTYLEMODE
290
     1
  9
$FINGERPRINTGUID
  2
{3E224727-2A46-4BD3-830B-1C32EACDF3F8}
  9
$VERSIONGUID
  2
{FAEB1C32-E019-11D5-929B-00C0DF256EC4}
  9
$EXTNAMES
290
     1
  9
$PSVPSCALE
 40
0.0
  9
$OLESTARTUP
290
     0
  9
$SORTENTS
280
   127
  9
$INDEXCTL
280
     0
  9
$HIDETEXT
280
     1
  9
$XCLIPFRAME
280
     2
  9
$HALOGAP
280
     0
  9
$OBSCOLOR
 70
   257
  9
$OBSLTYPE
280
     0
  9
$INTERSECTIONDISPLAY
280
     0
  9
$INTERSECTIONCOLOR
 70
   257
  9
$DIMASSOC
280
     2
  9
$PROJECTNAME
  1

  9
$CAMERADISPLAY
290
     0
  9
$LENSLENGTH
 40
50.0
  9
$CAMERAHEIGHT
 40
0.0
  9
$STEPSPERSEC
 40
2.0
  9
$STEPSIZE
 40
6.0
  9
$3DDWFPREC
 40
2.0
  9
$PSOLWIDTH
 40
0.25
  9
$PSOLHEIGHT
 40
4.0
  9
$LOFTANG1
 40
1.570796326794897
  9
$LOFTANG2
 40
1.570796326794897
  9
$LOFTMAG1
 40
0.0
  9
$LOFTMAG2
 40
0.0
  9
$LOFTPARAM
 70
     7
  9
$LOFTNORMALS
280
     1
  9
$LATITUDE
 40
37.795
  9
$LONGITUDE
 40
-122.394
  9
$NORTHDIRECTION
 40
0.0
  9
$TIMEZONE
 70
 -8000
  9
$LIGHTGLYPHDISPLAY
280
     1
  9
$TILEMODELIGHTSYNCH
280
     1
  9
$SOLIDHIST
280
     0
  9
$SHOWHIST
280
     1
  9
$DWFFRAME
280
     2
  9
$DGNFRAME
280
     2
  9
$REALWORLDSCALE
290
     1
  9
$INTERFERECOLOR
 62
   256
  9
$CSHADOW
280
     0
  9
$SHADOWPLANELOCATION
 40
0.0
  0
ENDSEC
  0
SECTION
  2
CLASSES
  0
CLASS
  1
ACDBDICTIONARYWDFLT
  2
AcDbDictionaryWithDefault
  3
ObjectDBX Classes
 90
        0
 91
       16
280
     0
281
     0
  0
CLASS
  1
SCALE
  2
AcDbScale
  3
ObjectDBX Classes
 90
     1153
 91
       16
280
     0
281
     0
  0
CLASS
  1
VISUALSTYLE
  2
AcDbVisualStyle
  3
ObjectDBX Classes
 90
     4095
 91
       16
280
     0
281
     0
  0
CLASS
  1
MATERIAL
  2
AcDbMaterial
  3
ObjectDBX Classes
 90
     1153
 91
       16
280
     0
281
     0
  0
CLASS
  1
DICTIONARYVAR
  2
AcDbDictionaryVar
  3
ObjectDBX Classes
 90
        0
 91
       14
280
     0
281
     0
  0
CLASS
  1
ACDBPLACEHOLDER
  2
AcDbPlaceHolder
  3
ObjectDBX Classes
 90
        0
 91
        1
280
     0
281
     0
  0
CLASS
  1
LAYOUT
  2
AcDbLayout
  3
ObjectDBX Classes
 90
        0
 91
        1
280
     0
281
     0
  0
CLASS
  1
TABLESTYLE
  2
AcDbTableStyle
  3
ObjectDBX Classes
 90
     4095
 91
       15
280
     0
281
     0
  0
CLASS
  1
MLEADERSTYLE
  2
AcDbMLeaderStyle
  3
ACDB_MLEADERSTYLE_CLASS
 90
     4095
 91
       15
280
     0
281
     0
  0
CLASS
  1
SUN
  2
AcDbSun
  3
SCENEOE
 90
     1153
 91
       16
280
     0
281
     0
  0
CLASS
  1
SORTENTSTABLE
  2
AcDbSortentsTable
  3
ObjectDBX Classes
 90
        0
 91
       12
280
     0
281
     0
  0
CLASS
  1
CELLSTYLEMAP
  2
AcDbCellStyleMap
  3
ObjectDBX Classes
 90
     1152
 91
        9
280
     0
281
     0
  0
ENDSEC
  0
SECTION
  2
TABLES
  0
TABLE
  2
VPORT
  5
8
330
0
100
AcDbSymbolTable
 70
     1
  0
VPORT
  5
17C
330
8
100
AcDbSymbolTableRecord
100
AcDbViewportTableRecord
  2
*Active
 70
     0
 10
0.0
 20
0.0
 11
1.0
 21
1.0
 12
32.19656808422187
 22
53.02258797475945
 13
0.0
 23
0.0
 14
0.5
 24
0.5
 15
0.5
 25
0.5
 16
0.0
 26
0.0
 36
1.0
 17
0.0
 27
0.0
 37
0.0
 40
366.7660742293051
 41
1.831002331002331
 42
50.0
 43
0.0
 44
0.0
 50
0.0
 51
0.0
 71
    16
 72
   100
 73
     1
 74
     3
 75
     0
 76
     0
 77
     0
 78
     0
281
     0
 65
     1
110
0.0
120
0.0
130
0.0
111
1.0
121
0.0
131
0.0
112
0.0
122
1.0
132
0.0
 79
     0
146
0.0
348
1AE
 60
     3
 61
     5
292
     1
282
     1
141
0.0
142
0.0
 63
   256
361
263
  0
ENDTAB
  0
TABLE
  2
LTYPE
  5
5
330
0
100
AcDbSymbolTable
 70
     8
  0
LTYPE
  5
14
330
5
100
AcDbSymbolTableRecord
100
AcDbLinetypeTableRecord
  2
ByBlock
 70
     0
  3

 72
    65
 73
     0
 40
0.0
  0
LTYPE
  5
15
330
5
100
AcDbSymbolTableRecord
100
AcDbLinetypeTableRecord
  2
ByLayer
 70
     0
  3

 72
    65
 73
     0
 40
0.0
  0
LTYPE
  5
16
330
5
100
AcDbSymbolTableRecord
100
AcDbLinetypeTableRecord
  2
Continuous
 70
     0
  3
Solid line
 72
    65
 73
     0
 40
0.0
  0
LTYPE
  5
20
330
5
100
AcDbSymbolTableRecord
100
AcDbLinetypeTableRecord
  2
PUNKT
 70
     0
  3
..............
 72
    65
 73
     2
 40
1.5
 49
0.7
 74
     0
 49
-0.8
 74
     0
  0
LTYPE
  5
21
330
5
100
AcDbSymbolTableRecord
100
AcDbLinetypeTableRecord
  2
GESTRICHELT
 70
     0
  3
-- -- -- -- --
 72
    65
 73
     7
 40
2.8
 49
0.9
 74
     0
 49
0.0
 74
     0
 49
0.9
 74
     0
 49
0.0
 74
     0
 49
0.2
 74
     0
 49
0.0
 74
     0
 49
-0.8
 74
     0
  0
LTYPE
  5
22
330
5
100
AcDbSymbolTableRecord
100
AcDbLinetypeTableRecord
  2
STRICHPUNKT
 70
     0
  3
--.--.--.--.--
 72
    65
 73
     4
 40
8.8
 49
5.5
 74
     0
 49
-1.3
 74
     0
 49
0.7
 74
     0
 49
-1.3
 74
     0
  0
LTYPE
  5
25
330
5
100
AcDbSymbolTableRecord
100
AcDbLinetypeTableRecord
  2
PHANTOM
 70
     0
  3
--..--..--..--
 72
    65
 73
     6
 40
14.2
 49
7.0
 74
     0
 49
-1.8
 74
     0
 49
0.9
 74
     0
 49
-1.8
 74
     0
 49
0.9
 74
     0
 49
-1.8
 74
     0
  0
LTYPE
  5
1F6
330
5
100
AcDbSymbolTableRecord
100
AcDbLinetypeTableRecord
  2
DASH
 70
     0
  3
DASH _ _ _ _ _
 72
    65
 73
     2
 40
0.75
 49
0.4
 74
     0
 49
-0.35
 74
     0
  0
LTYPE
  5
1F7
330
5
100
AcDbSymbolTableRecord
100
AcDbLinetypeTableRecord
  2
LONGDASH_DASH
 70
     0
  3
LONGDASH_DASH __ . __ . __
 72
    65
 73
     4
 40
0.85
 49
0.4
 74
     0
 49
-0.2
 74
     0
 49
0.05
 74
     0
 49
-0.2
 74
     0
  0
LTYPE
  5
1F8
330
5
100
AcDbSymbolTableRecord
100
AcDbLinetypeTableRecord
  2
LONGDASH_DASH_DASH
 70
     0
  3
LONGDASH_DASH_DASH __ . . __ . . __
 72
    65
 73
     6
 40
1.1
 49
0.4
 74
     0
 49
-0.2
 74
     0
 49
0.05
 74
     0
 49
-0.2
 74
     0
 49
0.05
 74
     0
 49
-0.2
 74
     0
  0
ENDTAB
  0
TABLE
  2
LAYER
  5
2
102
{ACAD_XDICTIONARY
360
215
102
}
330
0
100
AcDbSymbolTable
 70
    17
  0
LAYER
  5
1BF
330
2
100
AcDbSymbolTableRecord
100
AcDbLayerTableRecord
  2
200
 70
     0
 62
    -2
  6
Continuous
370
    50
390
F
347
1BD
348
0
  0
LAYER
  5
1F9
330
2
100
AcDbSymbolTableRecord
100
AcDbLayerTableRecord
  2
0
 70
     0
 62
     1
  6
Continuous
370
    -3
390
F
347
1BD
348
0
  0
LAYER
  5
1FA
330
2
100
AcDbSymbolTableRecord
100
AcDbLayerTableRecord
  2
1
 70
     0
 62
     4
  6
Continuous
370
    50
390
F
347
1BD
348
0
  0
LAYER
  5
1FB
330
2
100
AcDbSymbolTableRecord
100
AcDbLayerTableRecord
  2
2
 70
     0
 62
     7
  6
Continuous
370
    25
390
F
347
1BD
348
0
  0
LAYER
  5
1FC
330
2
100
AcDbSymbolTableRecord
100
AcDbLayerTableRecord
  2
3
 70
     0
 62
     1
  6
DASH
370
    35
390
F
347
1BD
348
0
  0
LAYER
  5
1FD
330
2
100
AcDbSymbolTableRecord
100
AcDbLayerTableRecord
  2
4
 70
     0
 62
     2
  6
LONGDASH_DASH
370
    25
390
F
347
1BD
348
0
  0
LAYER
  5
1FE
330
2
100
AcDbSymbolTableRecord
100
AcDbLayerTableRecord
  2
6
 70
     0
 62
    -5
  6
Continuous
370
    -3
390
F
347
1BD
348
0
  0
LAYER
  5
1FF
330
2
100
AcDbSymbolTableRecord
100
AcDbLayerTableRecord
  2
CUT
 70
     0
 62
     1
  6
Continuous
370
    25
390
F
347
1BD
348
0
  0
LAYER
  5
200
330
2
100
AcDbSymbolTableRecord
100
AcDbLayerTableRecord
  2
NOCUT
 70
     0
 62
    -7
  6
Continuous
370
    25
390
F
347
1BD
348
0
  0
LAYER
  5
201
330
2
100
AcDbSymbolTableRecord
100
AcDbLayerTableRecord
  2
SK1
 70
     0
 62
     4
  6
Continuous
370
    50
390
F
347
1BD
348
0
  0
LAYER
  5
202
330
2
100
AcDbSymbolTableRecord
100
AcDbLayerTableRecord
  2
SK2
 70
     0
 62
     7
  6
Continuous
370
    25
390
F
347
1BD
348
0
  0
LAYER
  5
203
330
2
100
AcDbSymbolTableRecord
100
AcDbLayerTableRecord
  2
SK3
 70
     0
 62
     1
  6
DASH
370
    35
390
F
347
1BD
348
0
  0
LAYER
  5
204
330
2
100
AcDbSymbolTableRecord
100
AcDbLayerTableRecord
  2
SK4
 70
     0
 62
     2
  6
LONGDASH_DASH
370
    25
390
F
347
1BD
348
0
  0
LAYER
  5
205
330
2
100
AcDbSymbolTableRecord
100
AcDbLayerTableRecord
  2
SK6
 70
     0
 62
     5
  6
Continuous
370
    -3
390
F
347
1BD
348
0
  0
LAYER
  5
206
330
2
100
AcDbSymbolTableRecord
100
AcDbLayerTableRecord
  2
INFTOTAL
 70
     0
 62
     9
  6
Continuous
370
    18
390
F
347
1BD
348
0
  0
LAYER
  5
323
330
2
100
AcDbSymbolTableRecord
100
AcDbLayerTableRecord
  2
7
 70
     0
 62
     5
  6
Continuous
370
    18
390
F
347
1BD
348
0
1001
AcAecLayerStandard
1000

1000

  0
LAYER
  5
325
330
2
100
AcDbSymbolTableRecord
100
AcDbLayerTableRecord
  2
11
 70
     0
 62
     4
  6
Continuous
370
    50
390
F
347
1BD
348
0
1001
AcAecLayerStandard
1000

1000

  0
ENDTAB
  0
TABLE
  2
STYLE
  5
3
330
0
100
AcDbSymbolTable
 70
     3
  0
STYLE
  5
11
330
3
100
AcDbSymbolTableRecord
100
AcDbTextStyleTableRecord
  2
Standard
 70
     0
 40
0.0
 41
1.0
 50
0.0
 71
     0
 42
0.2
  3
txt
  4

  0
STYLE
  5
1BE
330
3
100
AcDbSymbolTableRecord
100
AcDbTextStyleTableRecord
  2
BMG_Text
 70
     0
 40
3.5
 41
1.0
 50
0.0
 71
     0
 42
0.2
  3
monos.ttf
  4

1001
ACAD
1000
Monospac821 BT
1071
       49
  0
STYLE
  5
32A
330
3
100
AcDbSymbolTableRecord
100
AcDbTextStyleTableRecord
  2
SLDTEXTSTYLE0
 70
     0
 40
0.0
 41
0.605
 50
0.0
 71
     0
 42
0.2
  3
TXT
  4

  0
ENDTAB
  0
TABLE
  2
VIEW
  5
6
330
0
100
AcDbSymbolTable
 70
     0
  0
ENDTAB
  0
TABLE
  2
UCS
  5
7
330
0
100
AcDbSymbolTable
 70
     0
  0
ENDTAB
  0
TABLE
  2
APPID
  5
9
330
0
100
AcDbSymbolTable
 70
     3
  0
APPID
  5
12
330
9
100
AcDbSymbolTableRecord
100
AcDbRegAppTableRecord
  2
ACAD
 70
     0
  0
APPID
  5
324
330
9
100
AcDbSymbolTableRecord
100
AcDbRegAppTableRecord
  2
AcAecLayerStandard
 70
     0
  0
APPID
  5
32D
330
9
100
AcDbSymbolTableRecord
100
AcDbRegAppTableRecord
  2
PE_URL
 70
     0
  0
ENDTAB
  0
TABLE
  2
DIMSTYLE
  5
A
330
0
100
AcDbSymbolTable
 70
     6
100
AcDbDimStyleTable
  0
DIMSTYLE
105
28
330
A
100
AcDbSymbolTableRecord
100
AcDbDimStyleTableRecord
  2
Standard
 70
     0
178
     0
340
11
  0
DIMSTYLE
105
326
330
A
100
AcDbSymbolTableRecord
100
AcDbDimStyleTableRecord
  2
Matthias
 70
     0
 41
3.0
 44
2.0
 73
     0
 77
     1
140
3.0
147
2.0
178
     0
340
11
  0
DIMSTYLE
105
328
102
{ACAD_REACTORS
102
}
330
A
100
AcDbSymbolTableRecord
100
AcDbDimStyleTableRecord
  2
ISO-25
 70
     0
 41
2.5
 42
0.625
 43
3.75
 44
1.25
 73
     0
 74
     0
 77
     1
 78
     8
140
2.5
141
2.5
143
0.0393700787
147
0.625
171
     3
172
     1
178
     0
271
     2
272
     2
274
     3
278
    44
283
     0
284
     8
340
11
  0
DIMSTYLE
105
329
330
A
100
AcDbSymbolTableRecord
100
AcDbDimStyleTableRecord
  2
SLDDIMSTYLE0
 70
     0
 41
3.5
 44
0.0
 45
0.000000001
 73
     0
 74
     0
 77
     1
 78
    12
 79
     3
140
3.5
144
0.5
147
0.875
173
     1
178
     0
271
     2
272
     1
276
     2
284
    12
340
32A
  0
DIMSTYLE
105
32B
330
A
100
AcDbSymbolTableRecord
100
AcDbDimStyleTableRecord
  2
SLDDIMSTYLE1
 70
     0
 41
3.5
 44
0.0
 45
0.000000001
 73
     0
 74
     0
 77
     1
 78
    12
 79
     3
140
3.5
144
0.5
147
0.875
173
     1
178
     0
271
     2
272
     3
276
     2
284
    12
340
32A
  0
DIMSTYLE
105
32C
330
A
100
AcDbSymbolTableRecord
100
AcDbDimStyleTableRecord
  2
SLDDIMSTYLE2
 70
     0
 41
3.5
 44
0.0
 45
0.000000001
 73
     0
 74
     0
 77
     1
 78
    12
 79
     3
140
3.5
147
0.875
173
     1
178
     0
271
     2
272
     0
276
     2
284
    12
340
32A
  0
ENDTAB
  0
TABLE
  2
BLOCK_RECORD
  5
1
330
0
100
AcDbSymbolTable
 70
     1
  0
BLOCK_RECORD
  5
1D
102
{ACAD_XDICTIONARY
360
356
102
}
330
1
100
AcDbSymbolTableRecord
100
AcDbBlockTableRecord
  2
*Model_Space
340
1E
 70
     0
280
     1
281
     0
  0
BLOCK_RECORD
  5
1B
330
1
100
AcDbSymbolTableRecord
100
AcDbBlockTableRecord
  2
*Paper_Space
340
1C
 70
     0
280
     1
281
     0
  0
ENDTAB
  0
ENDSEC
  0
SECTION
  2
BLOCKS
  0
BLOCK
  5
1A7
330
1D
100
AcDbEntity
  8
0
100
AcDbBlockBegin
  2
*Model_Space
 70
     0
 10
0.0
 20
0.0
 30
0.0
  3
*Model_Space
  1

  0
ENDBLK
  5
1A8
330
1D
100
AcDbEntity
  8
0
100
AcDbBlockEnd
  0
BLOCK
  5
1A5
330
1B
100
AcDbEntity
 67
     1
  8
0
100
AcDbBlockBegin
  2
*Paper_Space
 70
     0
 10
0.0
 20
0.0
 30
0.0
  3
*Paper_Space
  1

  0
ENDBLK
  5
1A6
330
1B
100
AcDbEntity
 67
     1
  8
0
100
AcDbBlockEnd
  0
ENDSEC
  0
SECTION
  2
ENTITIES
  0
LINE
  5
29
330
1D
100
AcDbEntity
  8
4
100
AcDbLine
 10
7.352513321
 20
-15.040347655
 30
0.0
 11
19.041182177
 21
-20.244478874
 31
0.0
  0
LINE
  5
2A
330
1D
100
AcDbEntity
  8
4
100
AcDbLine
 10
1.133658003
 20
-4.765574674
 30
0.0
 11
9.17155656
 21
-14.502663903
 31
0.0
  0
LINE
  5
2B
330
1D
100
AcDbEntity
  8
SK1
100
AcDbLine
 10
-1.112243652
 20
14.0
 30
0.0
 11
-25.5
 21
14.0
 31
0.0
  0
LINE
  5
2C
330
1D
100
AcDbEntity
  8
SK1
100
AcDbLine
 10
-25.5
 20
14.0
 30
0.0
 11
-27.519973755
 21
13.716125488
 31
0.0
  0
LINE
  5
2D
330
1D
100
AcDbEntity
  8
SK1
100
AcDbLine
 10
-27.519973755
 20
13.716125488
 30
0.0
 11
-29.061080242
 21
13.987857967
 31
0.0
  0
ARC
  5
2E
330
1D
100
AcDbEntity
  8
SK1
100
AcDbCircle
 10
-29.199996948
 20
13.200012207
 30
0.0
 40
0.799999246
100
AcDbArc
 50
80.000123978
 51
180.0
  0
LINE
  5
2F
330
1D
100
AcDbEntity
  8
SK1
100
AcDbLine
 10
-30.0
 20
13.200012207
 30
0.0
 11
-29.999996194
 21
-13.200012207
 31
0.0
  0
ARC
  5
30
330
1D
100
AcDbEntity
  8
SK1
100
AcDbCircle
 10
-29.199996948
 20
-13.200012207
 30
0.0
 40
0.799999246
100
AcDbArc
 50
180.0
 51
279.99987659
  0
LINE
  5
31
330
1D
100
AcDbEntity
  8
SK1
100
AcDbLine
 10
-29.061080933
 20
-13.987854004
 30
0.0
 11
-27.519973755
 21
-13.716125488
 31
0.0
  0
LINE
  5
32
330
1D
100
AcDbEntity
  8
SK1
100
AcDbLine
 10
-27.519973755
 20
-13.716125488
 30
0.0
 11
-25.5
 21
-14.0
 31
0.0
  0
LINE
  5
33
330
1D
100
AcDbEntity
  8
SK1
100
AcDbLine
 10
-25.5
 20
-14.0
 30
0.0
 11
-25.5
 21
14.0
 31
0.0
  0
ARC
  5
34
330
1D
100
AcDbEntity
  8
SK1
100
AcDbCircle
 10
-0.300003052
 20
-14.299987793
 30
0.0
 40
0.5
100
AcDbArc
 50
53.129400015
 51
104.99978409
  0
LINE
  5
35
330
1D
100
AcDbEntity
  8
SK1
100
AcDbLine
 10
-0.429412842
 20
-13.817016602
 30
0.0
 11
-1.112182617
 21
-14.0
 31
0.0
  0
LINE
  5
36
330
1D
100
AcDbEntity
  8
SK1
100
AcDbLine
 10
-1.112182617
 20
-14.0
 30
0.0
 11
-1.112213135
 21
14.0
 31
0.0
  0
LINE
  5
37
330
1D
100
AcDbEntity
  8
SK1
100
AcDbLine
 10
-1.112213135
 20
14.0
 30
0.0
 11
-0.429414624
 21
13.817025429
 31
0.0
  0
ARC
  5
38
330
1D
100
AcDbEntity
  8
SK1
100
AcDbCircle
 10
-0.300003052
 20
14.299987793
 30
0.0
 40
0.5
100
AcDbArc
 50
254.9997568129999
 51
306.870599985
  0
LINE
  5
3A
330
1D
100
AcDbEntity
  8
SK1
100
AcDbLine
 10
-25.5
 20
-14.0
 30
0.0
 11
-1.112213135
 21
-14.0
 31
0.0
  0
LINE
  5
3B
330
1D
100
AcDbEntity
  8
4
100
AcDbLine
 10
0.0
 20
0.0
 30
0.0
 11
59.36310877599999
 21
0.0
 31
0.0
  0
CIRCLE
  5
3C
330
1D
100
AcDbEntity
  8
SK1
100
AcDbCircle
 10
-12.5
 20
0.0
 30
0.0
 40
4.0
  0
LINE
  5
3D
330
1D
100
AcDbEntity
  8
SK1
100
AcDbLine
 10
-3.962982178
 20
-16.5
 30
0.0
 11
-11.037010193
 21
-16.5
 31
0.0
  0
LINE
  5
3E
330
1D
100
AcDbEntity
  8
SK1
100
AcDbLine
 10
-3.962989807
 20
16.5
 30
0.0
 11
-11.037010193
 21
16.5
 31
0.0
  0
LINE
  5
3F
330
1D
100
AcDbEntity
  8
SK1
100
AcDbLine
 10
-12.866020203
 20
-14.332061768
 30
0.0
 11
-11.903030396
 21
-16.0
 31
0.0
  0
LINE
  5
40
330
1D
100
AcDbEntity
  8
SK1
100
AcDbLine
 10
-2.133972168
 20
-14.332042694
 30
0.0
 11
-3.096961975
 21
-16.000011444
 31
0.0
  0
LINE
  5
41
330
1D
100
AcDbEntity
  8
SK1
100
AcDbLine
 10
-12.866027832
 20
14.332065582
 30
0.0
 11
-11.903030396
 21
16.0
 31
0.0
  0
LINE
  5
42
330
1D
100
AcDbEntity
  8
SK1
100
AcDbLine
 10
-2.133972168
 20
14.332042694
 30
0.0
 11
-3.096969604
 21
16.0
 31
0.0
  0
ARC
  5
43
330
1D
100
AcDbEntity
  8
SK1
100
AcDbCircle
 10
-11.037010193
 20
-15.5
 30
0.0
 40
1.0
100
AcDbArc
 50
210.00015378
 51
270.0
  0
ARC
  5
44
330
1D
100
AcDbEntity
  8
SK1
100
AcDbCircle
 10
-12.0
 20
-13.832054138
 30
0.0
 40
0.999999285
100
AcDbArc
 50
189.668415526
 51
210.000534058
  0
ARC
  5
45
330
1D
100
AcDbEntity
  8
SK1
100
AcDbCircle
 10
-3.962982178
 20
-15.5
 30
0.0
 40
1.0
100
AcDbArc
 50
270.0
 51
329.9992829559999
  0
ARC
  5
46
330
1D
100
AcDbEntity
  8
SK1
100
AcDbCircle
 10
-3.0
 20
-13.832046509
 30
0.0
 40
1.000000119
100
AcDbArc
 50
330.000259399
 51
350.331149188
  0
ARC
  5
47
330
1D
100
AcDbEntity
  8
SK1
100
AcDbCircle
 10
-3.0
 20
13.832046509
 30
0.0
 40
1.0
100
AcDbArc
 50
9.668851975000003
 51
29.999724627
  0
ARC
  5
48
330
1D
100
AcDbEntity
  8
SK1
100
AcDbCircle
 10
-3.962989807
 20
15.5
 30
0.0
 40
0.99999547
100
AcDbArc
 50
30.000152588
 51
89.999998808
  0
ARC
  5
49
330
1D
100
AcDbEntity
  8
SK1
100
AcDbCircle
 10
-11.037010193
 20
15.5
 30
0.0
 40
1.0
100
AcDbArc
 50
90.0
 51
149.999851584
  0
ARC
  5
4A
330
1D
100
AcDbEntity
  8
SK1
100
AcDbCircle
 10
-12.0
 20
13.832057953
 30
0.0
 40
1.000005841
100
AcDbArc
 50
149.999687195
 51
170.331870187
  0
LINE
  5
4B
330
1D
100
AcDbEntity
  8
SK4
100
AcDbLine
 10
-7.5
 20
16.566681278
 30
0.0
 11
-7.5
 21
13.412818205
 31
0.0
  0
LINE
  5
4C
330
1D
100
AcDbEntity
  8
SK4
100
AcDbLine
 10
-7.5
 20
-16.566681278
 30
0.0
 11
-7.5
 21
-13.412818205
 31
0.0
  0
LINE
  5
4D
330
1D
100
AcDbEntity
  8
SK3
100
AcDbLine
 10
-27.499998097
 20
-7.249938965
 30
0.0
 11
-26.922636037
 21
-6.249938965
 31
0.0
  0
LINE
  5
4E
330
1D
100
AcDbEntity
  8
SK3
100
AcDbLine
 10
-26.922636037
 20
6.250061035
 30
0.0
 11
-27.499998097
 21
7.250061035
 31
0.0
  0
LINE
  5
4F
330
1D
100
AcDbEntity
  8
SK3
100
AcDbLine
 10
-27.499998097
 20
7.250061035
 30
0.0
 11
-27.499998097
 21
-7.249938965
 31
0.0
  0
LINE
  5
50
330
1D
100
AcDbEntity
  8
11
100
AcDbLine
 10
-27.355649953
 20
7.000061035
 30
0.0
 11
-12.999998097
 21
7.000061035
 31
0.0
  0
LINE
  5
51
330
1D
100
AcDbEntity
  8
SK3
100
AcDbLine
 10
-12.999998097
 20
7.000061035
 30
0.0
 11
-12.999998097
 21
-6.999938965
 31
0.0
  0
LINE
  5
52
330
1D
100
AcDbEntity
  8
11
100
AcDbLine
 10
-12.999998097
 20
-6.999938965
 30
0.0
 11
-27.355649953
 21
-6.999938965
 31
0.0
  0
LINE
  5
53
330
1D
100
AcDbEntity
  8
SK3
100
AcDbLine
 10
-29.999998097
 20
-7.5
 30
0.0
 11
-29.566984181
 21
-7.249938965
 31
0.0
  0
LINE
  5
54
330
1D
100
AcDbEntity
  8
SK3
100
AcDbLine
 10
-29.566984181
 20
-7.249938965
 30
0.0
 11
-29.566953664
 21
7.250061035
 31
0.0
  0
LINE
  5
55
330
1D
100
AcDbEntity
  8
SK3
100
AcDbLine
 10
-29.566953664
 20
7.250061035
 30
0.0
 11
-29.999998097
 21
7.500061035
 31
0.0
  0
LINE
  5
56
330
1D
100
AcDbEntity
  8
SK3
100
AcDbLine
 10
-26.922636037
 20
-6.249938965
 30
0.0
 11
-0.0000000000000036
 21
-6.249938965
 31
0.0
  0
LINE
  5
57
330
1D
100
AcDbEntity
  8
SK3
100
AcDbLine
 10
0.0
 20
6.250061035
 30
0.0
 11
-26.922636037
 21
6.250061035
 31
0.0
  0
LINE
  5
58
330
1D
100
AcDbEntity
  8
SK3
100
AcDbLine
 10
-26.922636037
 20
6.250061035
 30
0.0
 11
-26.922636037
 21
-6.249938965
 31
0.0
  0
LINE
  5
59
330
1D
100
AcDbEntity
  8
SK3
100
AcDbLine
 10
-27.499998097
 20
-7.249938965
 30
0.0
 11
-29.566953664
 21
-7.249938965
 31
0.0
  0
LINE
  5
5A
330
1D
100
AcDbEntity
  8
SK3
100
AcDbLine
 10
-29.566953664
 20
7.250061035
 30
0.0
 11
-27.499998097
 21
7.250061035
 31
0.0
  0
LINE
  5
5B
330
1D
100
AcDbEntity
  8
SK3
100
AcDbLine
 10
-12.999998097
 20
-6.999938965
 30
0.0
 11
-10.200959991
 21
-6.249938965
 31
0.0
  0
LINE
  5
5C
330
1D
100
AcDbEntity
  8
SK3
100
AcDbLine
 10
-12.999998097
 20
7.000061035
 30
0.0
 11
-10.200959991
 21
6.250061035
 31
0.0
  0
LINE
  5
5D
330
1D
100
AcDbEntity
  8
2
100
AcDbLine
 10
0.0
 20
38.043850899
 30
0.0
 11
0.0
 21
24.0
 31
0.0
  0
LINE
  5
5E
330
1D
100
AcDbEntity
  8
2
100
AcDbLine
 10
0.0
 20
36.043850899
 30
0.0
 11
3.499999999
 21
36.49385091
 31
0.0
  0
LINE
  5
5F
330
1D
100
AcDbEntity
  8
2
100
AcDbLine
 10
3.499999999
 20
36.49385091
 30
0.0
 11
3.500000001
 21
35.59385091
 31
0.0
  0
LINE
  5
60
330
1D
100
AcDbEntity
  8
2
100
AcDbLine
 10
3.500000001
 20
35.59385091
 30
0.0
 11
0.0
 21
36.043850899
 31
0.0
  0
LINE
  5
61
330
1D
100
AcDbEntity
  8
2
100
AcDbLine
 10
57.000007489
 20
38.043851084
 30
0.0
 11
57.000007489
 21
25.700000948
 31
0.0
  0
LINE
  5
62
330
1D
100
AcDbEntity
  8
2
100
AcDbLine
 10
57.000007489
 20
36.043851084
 30
0.0
 11
53.50000749
 21
35.593851072
 31
0.0
  0
LINE
  5
63
330
1D
100
AcDbEntity
  8
2
100
AcDbLine
 10
53.50000749
 20
35.593851072
 30
0.0
 11
53.500007488
 21
36.493851072
 31
0.0
  0
LINE
  5
64
330
1D
100
AcDbEntity
  8
2
100
AcDbLine
 10
53.500007488
 20
36.493851072
 30
0.0
 11
57.000007489
 21
36.043851084
 31
0.0
  0
LINE
  5
65
330
1D
100
AcDbEntity
  8
2
100
AcDbLine
 10
3.5
 20
36.04385091
 30
0.0
 11
53.500007489
 21
36.043851072
 31
0.0
  0
TEXT
  5
66
330
1D
100
AcDbEntity
  8
2
100
AcDbText
 10
26.944690603
 20
37.543850986
 30
0.0
 40
3.5
  1
57
 50
0.000000186
  7
BMG_Text
100
AcDbText
  0
LINE
  5
67
330
1D
100
AcDbEntity
  8
SK2
100
AcDbLine
 10
-39.842411041
 20
-14.0
 30
0.0
 11
-25.5
 21
-14.0
 31
0.0
  0
LINE
  5
68
330
1D
100
AcDbEntity
  8
SK2
100
AcDbLine
 10
-37.842411041
 20
-14.0
 30
0.0
 11
-38.292411041
 21
-10.5
 31
0.0
  0
LINE
  5
69
330
1D
100
AcDbEntity
  8
SK2
100
AcDbLine
 10
-38.292411041
 20
-10.5
 30
0.0
 11
-37.392411041
 21
-10.5
 31
0.0
  0
LINE
  5
6A
330
1D
100
AcDbEntity
  8
SK2
100
AcDbLine
 10
-37.392411041
 20
-10.5
 30
0.0
 11
-37.842411041
 21
-14.0
 31
0.0
  0
LINE
  5
6B
330
1D
100
AcDbEntity
  8
SK2
100
AcDbLine
 10
-39.842411041
 20
14.0
 30
0.0
 11
-25.5
 21
14.0
 31
0.0
  0
LINE
  5
6C
330
1D
100
AcDbEntity
  8
SK2
100
AcDbLine
 10
-37.842411041
 20
14.0
 30
0.0
 11
-37.392411041
 21
10.5
 31
0.0
  0
LINE
  5
6D
330
1D
100
AcDbEntity
  8
SK2
100
AcDbLine
 10
-37.392411041
 20
10.5
 30
0.0
 11
-38.292411041
 21
10.5
 31
0.0
  0
LINE
  5
6E
330
1D
100
AcDbEntity
  8
SK2
100
AcDbLine
 10
-38.292411041
 20
10.5
 30
0.0
 11
-37.842411041
 21
14.0
 31
0.0
  0
LINE
  5
6F
330
1D
100
AcDbEntity
  8
SK2
100
AcDbLine
 10
-37.842411041
 20
-10.5
 30
0.0
 11
-37.842411041
 21
10.5
 31
0.0
  0
TEXT
  5
70
330
1D
100
AcDbEntity
  8
SK2
100
AcDbText
 10
-39.342411041
 20
0.085312187
 30
0.0
 40
3.5
  1
28
 50
90.0
  7
BMG_Text
100
AcDbText
  0
CIRCLE
  5
71
330
1D
100
AcDbEntity
  8
SK2
100
AcDbCircle
 10
-40.592411041
 20
-2.164687813
 30
0.0
 40
1.25
  0
LINE
  5
72
330
1D
100
AcDbEntity
  8
SK2
100
AcDbLine
 10
-39.342411041
 20
-3.414687813
 30
0.0
 11
-41.842411041
 21
-0.914687813
 31
0.0
  0
TEXT
  5
73
330
1D
100
AcDbEntity
  8
SK6
100
AcDbText
 10
-23.53568841314146
 20
-32.50709342297801
 30
0.0
 40
3.5
  1
319.501
  7
BMG_Text
100
AcDbText
  0
LINE
  5
74
330
1D
100
AcDbEntity
  8
3
100
AcDbLine
 10
10.075367056
 20
-12.449730188
 30
0.0
 11
11.191892438
 21
-11.276568286
 31
0.0
  0
LINE
  5
75
330
1D
100
AcDbEntity
  8
4
100
AcDbLine
 10
1.133658003
 20
4.765574674
 30
0.0
 11
9.17155656
 21
14.502663903
 31
0.0
  0
LINE
  5
76
330
1D
100
AcDbEntity
  8
4
100
AcDbLine
 10
7.352513321
 20
15.040347655
 30
0.0
 11
19.041182177
 21
20.244478874
 31
0.0
  0
LINE
  5
77
330
1D
100
AcDbEntity
  8
3
100
AcDbLine
 10
32.999999821
 20
-18.500000238
 30
0.0
 11
22.500000894
 21
-18.500000238
 31
0.0
  0
ARC
  5
78
330
1D
100
AcDbEntity
  8
3
100
AcDbCircle
 10
22.499911576
 20
-28.499870988
 30
0.0
 40
9.99987075
100
AcDbArc
 50
89.99948823899999
 51
158.74476139
  0
LINE
  5
79
330
1D
100
AcDbEntity
  8
3
100
AcDbLine
 10
13.885195864
 20
-23.422067505
 30
0.0
 11
7.124525961
 21
-20.412022248
 31
0.0
  0
LINE
  5
7A
330
1D
100
AcDbEntity
  8
3
100
AcDbLine
 10
7.124525961
 20
-20.412022248
 30
0.0
 11
7.463245269
 21
-15.568108784
 31
0.0
  0
LINE
  5
7B
330
1D
100
AcDbEntity
  8
3
100
AcDbLine
 10
7.124525961
 20
-20.412022248
 30
0.0
 11
11.191892438
 21
-11.276568286
 31
0.0
  0
LINE
  5
7C
330
1D
100
AcDbEntity
  8
3
100
AcDbLine
 10
27.415984516
 20
-18.500000238
 30
0.0
 11
11.191892438
 21
-11.276568286
 31
0.0
  0
LINE
  5
7D
330
1D
100
AcDbEntity
  8
3
100
AcDbLine
 10
7.463245269
 20
-15.568108784
 30
0.0
 11
10.076060891
 21
-12.457853183
 31
0.0
  0
LINE
  5
7E
330
1D
100
AcDbEntity
  8
3
100
AcDbLine
 10
27.415984516
 20
18.500000238
 30
0.0
 11
11.191892438
 21
11.276568286
 31
0.0
  0
LINE
  5
7F
330
1D
100
AcDbEntity
  8
3
100
AcDbLine
 10
10.075367056
 20
-12.449730188
 30
0.0
 11
4.291161382
 21
-5.450041146
 31
0.0
  0
LINE
  5
80
330
1D
100
AcDbEntity
  8
3
100
AcDbLine
 10
4.291161396
 20
5.450041108
 30
0.0
 11
10.076060891
 21
12.457853183
 31
0.0
  0
LINE
  5
81
330
1D
100
AcDbEntity
  8
1
100
AcDbLine
 10
15.866750851
 20
-25.000000373
 30
0.0
 11
1.000000048
 21
-25.000000373
 31
0.0
  0
LINE
  5
82
330
1D
100
AcDbEntity
  8
1
100
AcDbLine
 10
1.000000048
 20
-25.000000373
 30
0.0
 11
0.0
 21
-24.000000209
 31
0.0
  0
LINE
  5
83
330
1D
100
AcDbEntity
  8
1
100
AcDbLine
 10
0.0
 20
-24.000000209
 30
0.0
 11
0.0
 21
24.000000209
 31
0.0
  0
LINE
  5
84
330
1D
100
AcDbEntity
  8
1
100
AcDbLine
 10
0.0
 20
24.000000209
 30
0.0
 11
1.000000048
 21
25.000000373
 31
0.0
  0
LINE
  5
85
330
1D
100
AcDbEntity
  8
1
100
AcDbLine
 10
1.000000048
 20
25.000000373
 30
0.0
 11
32.499998808
 21
25.000000373
 31
0.0
  0
LINE
  5
87
330
1D
100
AcDbEntity
  8
1
100
AcDbLine
 10
32.499998808
 20
25.000000373
 30
0.0
 11
32.999999821
 21
24.500002464
 31
0.0
  0
LINE
  5
88
330
1D
100
AcDbEntity
  8
1
100
AcDbLine
 10
32.999999821
 20
8.529361357
 30
0.0
 11
22.2
 21
8.529361055
 31
0.0
  0
ARC
  5
89
330
1D
100
AcDbEntity
  8
1
100
AcDbCircle
 10
63.531078052
 20
0.0
 30
0.0
 40
42.201990628
100
AcDbArc
 50
168.339742157
 51
180.0
  0
ARC
  5
8A
330
1D
100
AcDbEntity
  8
1
100
AcDbCircle
 10
63.531078052
 20
0.0
 30
0.0
 40
42.197103456
100
AcDbArc
 50
180.0
 51
191.660258093
  0
LINE
  5
8B
330
1D
100
AcDbEntity
  8
1
100
AcDbLine
 10
22.199999541
 20
-8.529361337
 30
0.0
 11
32.999999821
 21
-8.529361337
 31
0.0
  0
LINE
  5
8C
330
1D
100
AcDbEntity
  8
1
100
AcDbLine
 10
32.499998808
 20
-25.000000373
 30
0.0
 11
15.866750419
 21
-25.0
 31
0.0
  0
LINE
  5
8D
330
1D
100
AcDbEntity
  8
1
100
AcDbLine
 10
32.999999821
 20
18.500000238
 30
0.0
 11
22.500000894
 21
18.500000238
 31
0.0
  0
ARC
  5
8E
330
1D
100
AcDbEntity
  8
1
100
AcDbCircle
 10
22.499911576
 20
28.499870988
 30
0.0
 40
9.99987075
100
AcDbArc
 50
201.25523861
 51
270.000511761
  0
LINE
  5
8F
330
1D
100
AcDbEntity
  8
1
100
AcDbLine
 10
32.999999821
 20
-24.498217433
 30
0.0
 11
32.999999821
 21
24.500002464
 31
0.0
  0
LINE
  5
90
330
1D
100
AcDbEntity
  8
1
100
AcDbLine
 10
32.499998808
 20
-25.000000373
 30
0.0
 11
32.999999821
 21
-24.498217433
 31
0.0
  0
LINE
  5
91
330
1D
100
AcDbEntity
  8
3
100
AcDbLine
 10
4.00000019
 20
-6.250000093
 30
0.0
 11
6.274813773
 21
0.0
 31
0.0
  0
LINE
  5
92
330
1D
100
AcDbEntity
  8
3
100
AcDbLine
 10
6.274813773
 20
0.0
 30
0.0
 11
4.00000019
 21
6.250000093
 31
0.0
  0
LINE
  5
93
330
1D
100
AcDbEntity
  8
3
100
AcDbLine
 10
4.00000019
 20
6.250000093
 30
0.0
 11
4.00000019
 21
-6.250000093
 31
0.0
  0
LINE
  5
94
330
1D
100
AcDbEntity
  8
3
100
AcDbLine
 10
13.885195864
 20
23.422067505
 30
0.0
 11
7.124525961
 21
20.412022248
 31
0.0
  0
LINE
  5
95
330
1D
100
AcDbEntity
  8
3
100
AcDbLine
 10
7.124525961
 20
20.412022248
 30
0.0
 11
7.463245269
 21
15.568108784
 31
0.0
  0
LINE
  5
96
330
1D
100
AcDbEntity
  8
1
100
AcDbLine
 10
1.000000048
 20
-25.000000373
 30
0.0
 11
1.000000048
 21
25.000000373
 31
0.0
  0
LINE
  5
97
330
1D
100
AcDbEntity
  8
1
100
AcDbLine
 10
22.199999541
 20
-8.529361337
 30
0.0
 11
22.199999541
 21
8.529361337
 31
0.0
  0
LINE
  5
98
330
1D
100
AcDbEntity
  8
3
100
AcDbLine
 10
10.064575448
 20
12.443939748
 30
0.0
 11
11.191892438
 21
11.276568286
 31
0.0
  0
LINE
  5
99
330
1D
100
AcDbEntity
  8
3
100
AcDbLine
 10
7.463245269
 20
15.568108784
 30
0.0
 11
0.0
 21
6.536549608852674
 31
0.0
  0
LINE
  5
9A
330
1D
100
AcDbEntity
  8
3
100
AcDbLine
 10
0.0000000000000001
 20
-6.536549541193239
 30
0.0
 11
7.505610120000001
 21
-15.619375743
 31
0.0
  0
LINE
  5
9B
330
1D
100
AcDbEntity
  8
SK2
100
AcDbLine
 10
-48.029895735
 20
-25.000000373
 30
0.0
 11
1.000000048
 21
-25.000000373
 31
0.0
  0
LINE
  5
9C
330
1D
100
AcDbEntity
  8
SK2
100
AcDbLine
 10
-46.029895735
 20
-25.000000373
 30
0.0
 11
-46.479895735
 21
-21.500000373
 31
0.0
  0
LINE
  5
9D
330
1D
100
AcDbEntity
  8
SK2
100
AcDbLine
 10
-46.479895735
 20
-21.500000373
 30
0.0
 11
-45.579895735
 21
-21.500000373
 31
0.0
  0
LINE
  5
9E
330
1D
100
AcDbEntity
  8
SK2
100
AcDbLine
 10
-45.579895735
 20
-21.500000373
 30
0.0
 11
-46.029895735
 21
-25.000000373
 31
0.0
  0
LINE
  5
9F
330
1D
100
AcDbEntity
  8
SK2
100
AcDbLine
 10
-48.029895735
 20
25.000000373
 30
0.0
 11
1.000000048
 21
25.000000373
 31
0.0
  0
LINE
  5
A0
330
1D
100
AcDbEntity
  8
SK2
100
AcDbLine
 10
-46.029895735
 20
25.000000373
 30
0.0
 11
-45.579895735
 21
21.500000373
 31
0.0
  0
LINE
  5
A1
330
1D
100
AcDbEntity
  8
SK2
100
AcDbLine
 10
-45.579895735
 20
21.500000373
 30
0.0
 11
-46.479895735
 21
21.500000373
 31
0.0
  0
LINE
  5
A2
330
1D
100
AcDbEntity
  8
SK2
100
AcDbLine
 10
-46.479895735
 20
21.500000373
 30
0.0
 11
-46.029895735
 21
25.000000373
 31
0.0
  0
LINE
  5
A3
330
1D
100
AcDbEntity
  8
SK2
100
AcDbLine
 10
-46.029895735
 20
-21.500000373
 30
0.0
 11
-46.029895735
 21
21.500000373
 31
0.0
  0
TEXT
  5
A4
330
1D
100
AcDbEntity
  8
SK2
100
AcDbText
 10
-47.529895735
 20
0.194686941
 30
0.0
 40
3.5
  1
50
 50
90.0
  7
BMG_Text
100
AcDbText
  0
CIRCLE
  5
A5
330
1D
100
AcDbEntity
  8
SK2
100
AcDbCircle
 10
-48.779895735
 20
-2.055313059
 30
0.0
 40
1.25
  0
LINE
  5
A6
330
1D
100
AcDbEntity
  8
SK2
100
AcDbLine
 10
-47.529895735
 20
-3.305313059
 30
0.0
 11
-50.029895735
 21
-0.805313059
 31
0.0
  0
LINE
  5
A7
330
1D
100
AcDbEntity
  8
3
100
AcDbLine
 10
7.124525961
 20
20.412022248
 30
0.0
 11
11.191892438
 21
11.276568286
 31
0.0
  0
LINE
  5
A8
330
1D
100
AcDbEntity
  8
3
100
AcDbLine
 10
7.463245269
 20
15.568108784
 30
0.0
 11
10.076060891
 21
12.457853183
 31
0.0
  0
LINE
  5
A9
330
1D
100
AcDbEntity
  8
2
100
AcDbLine
 10
0.0
 20
-36.057868212
 30
0.0
 11
0.0
 21
-24.000000209
 31
0.0
  0
LINE
  5
AA
330
1D
100
AcDbEntity
  8
2
100
AcDbLine
 10
0.0
 20
-34.057868212
 30
0.0
 11
3.499999995
 21
-33.607868175
 31
0.0
  0
LINE
  5
AB
330
1D
100
AcDbEntity
  8
2
100
AcDbLine
 10
3.499999995
 20
-33.607868175
 30
0.0
 11
3.500000005
 21
-34.507868175
 31
0.0
  0
LINE
  5
AC
330
1D
100
AcDbEntity
  8
2
100
AcDbLine
 10
3.500000005
 20
-34.507868175
 30
0.0
 11
0.0
 21
-34.057868212
 31
0.0
  0
LINE
  5
AD
330
1D
100
AcDbEntity
  8
2
100
AcDbLine
 10
32.999999821
 20
-36.057867854
 30
0.0
 11
32.999999821
 21
-24.498217433
 31
0.0
  0
LINE
  5
AE
330
1D
100
AcDbEntity
  8
2
100
AcDbLine
 10
32.999999821
 20
-34.057867854
 30
0.0
 11
29.499999826
 21
-34.507867892
 31
0.0
  0
LINE
  5
AF
330
1D
100
AcDbEntity
  8
2
100
AcDbLine
 10
29.499999826
 20
-34.507867892
 30
0.0
 11
29.499999816
 21
-33.607867892
 31
0.0
  0
LINE
  5
B0
330
1D
100
AcDbEntity
  8
2
100
AcDbLine
 10
29.499999816
 20
-33.607867892
 30
0.0
 11
32.999999821
 21
-34.057867854
 31
0.0
  0
LINE
  5
B1
330
1D
100
AcDbEntity
  8
2
100
AcDbLine
 10
3.5
 20
-34.057868175
 30
0.0
 11
29.499999821
 21
-34.057867892
 31
0.0
  0
TEXT
  5
B2
330
1D
100
AcDbEntity
  8
2
100
AcDbText
 10
15.218124526
 20
-32.557868047
 30
0.0
 40
3.5
  1
33
 50
0.000000622
  7
BMG_Text
100
AcDbText
  0
ARC
  5
B3
330
1D
100
AcDbEntity
  8
1
100
AcDbCircle
 10
55.425376659
 20
-24.811357602
 30
0.0
 40
0.733594367
100
AcDbArc
 50
257.7435729960001
 51
326.87014499
  0
LINE
  5
B4
330
1D
100
AcDbEntity
  8
1
100
AcDbLine
 10
55.269643899
 20
-25.528231372
 30
0.0
 11
53.057261046
 21
-25.132545938
 31
0.0
  0
LINE
  5
B5
330
1D
100
AcDbEntity
  8
1
100
AcDbLine
 10
53.057261046
 20
-25.132545938
 30
0.0
 11
50.234418597
 21
-24.627422651
 31
0.0
  0
LINE
  5
B6
330
1D
100
AcDbEntity
  8
1
100
AcDbLine
 10
50.234418597
 20
-24.627422651
 30
0.0
 11
44.7347092
 21
-24.627422651
 31
0.0
  0
ARC
  5
B7
330
1D
100
AcDbEntity
  8
1
100
AcDbCircle
 10
44.694692186
 20
-24.996428415
 30
0.0
 40
0.371169255
100
AcDbArc
 50
83.81071788
 51
115.533164618
  0
LINE
  5
B8
330
1D
100
AcDbEntity
  8
1
100
AcDbLine
 10
44.534705814
 20
-24.661509057
 30
0.0
 11
44.534707588
 21
-24.9487472
 31
0.0
  0
ARC
  5
B9
330
1D
100
AcDbEntity
  8
1
100
AcDbCircle
 10
44.352410615
 20
-24.561007133
 30
0.0
 40
0.428456003
100
AcDbArc
 50
271.487422801
 51
295.180682162
  0
LINE
  5
BA
330
1D
100
AcDbEntity
  8
1
100
AcDbLine
 10
44.363804397
 20
-24.999798944
 30
0.0
 11
33.187974479
 21
-24.999798944
 31
0.0
  0
ARC
  5
BB
330
1D
100
AcDbEntity
  8
1
100
AcDbCircle
 10
32.697785858
 20
-50.016215231
 30
0.0
 40
25.021218371
100
AcDbArc
 50
88.877451303
 51
89.42685309100001
  0
ARC
  5
BC
330
1D
100
AcDbEntity
  8
1
100
AcDbCircle
 10
33.698076446
 20
48.087527381
 30
0.0
 40
73.087625059
100
AcDbArc
 50
266.864321034
 51
269.412040153
  0
ARC
  5
BD
330
1D
100
AcDbEntity
  8
1
100
AcDbCircle
 10
23.305771601
 20
48.087527381
 30
0.0
 40
73.093670813
100
AcDbArc
 50
275.018645329
 51
277.579878447
  0
LINE
  5
BE
330
1D
100
AcDbEntity
  8
1
100
AcDbLine
 10
32.94807696
 20
-24.372292419
 30
0.0
 11
33.077422764
 21
-24.347537865
 31
0.0
  0
LINE
  5
BF
330
1D
100
AcDbEntity
  8
1
100
AcDbLine
 10
33.077422764
 20
-24.347537865
 30
0.0
 11
33.163294431
 21
-24.313889181
 31
0.0
  0
LINE
  5
C0
330
1D
100
AcDbEntity
  8
1
100
AcDbLine
 10
33.163294431
 20
-24.313889181
 30
0.0
 11
33.19773474
 21
-24.2738777
 31
0.0
  0
LINE
  5
C1
330
1D
100
AcDbEntity
  8
1
100
AcDbLine
 10
33.19773474
 20
-24.2738777
 30
0.0
 11
33.174552258
 21
-24.231347924
 31
0.0
  0
LINE
  5
C2
330
1D
100
AcDbEntity
  8
1
100
AcDbLine
 10
33.174552258
 20
-24.231347924
 30
0.0
 11
33.093985405
 21
-24.191779753
 31
0.0
  0
LINE
  5
C3
330
1D
100
AcDbEntity
  8
1
100
AcDbLine
 10
33.093985405
 20
-24.191779753
 30
0.0
 11
32.96616697
 21
-24.161068459
 31
0.0
  0
LINE
  5
C4
330
1D
100
AcDbEntity
  8
1
100
AcDbLine
 10
32.96616697
 20
-24.161068459
 30
0.0
 11
32.948076446
 21
-24.158152555
 31
0.0
  0
ARC
  5
C5
330
1D
100
AcDbEntity
  8
1
100
AcDbCircle
 10
44.090381292
 20
48.087527381
 30
0.0
 40
73.099857912
100
AcDbArc
 50
258.646208461
 51
261.232468102
  0
ARC
  5
C6
330
1D
100
AcDbEntity
  8
1
100
AcDbCircle
 10
16.9066809
 20
30.97763766
 30
0.0
 40
55.516766983
100
AcDbArc
 50
283.323015467
 51
286.79728163
  0
LINE
  5
C7
330
1D
100
AcDbEntity
  8
1
100
AcDbLine
 10
32.94807696
 20
-22.163141256
 30
0.0
 11
33.078182724
 21
-22.106347342
 31
0.0
  0
LINE
  5
C8
330
1D
100
AcDbEntity
  8
1
100
AcDbLine
 10
33.078182724
 20
-22.106347342
 30
0.0
 11
33.162046459
 21
-22.032659238
 31
0.0
  0
LINE
  5
C9
330
1D
100
AcDbEntity
  8
1
100
AcDbLine
 10
33.162046459
 20
-22.032659238
 30
0.0
 11
33.197757092
 21
-21.941497659
 31
0.0
  0
LINE
  5
CA
330
1D
100
AcDbEntity
  8
1
100
AcDbLine
 10
33.197757092
 20
-21.941497659
 30
0.0
 11
33.169545468
 21
-21.839795371
 31
0.0
  0
LINE
  5
CB
330
1D
100
AcDbEntity
  8
1
100
AcDbLine
 10
33.169545468
 20
-21.839795371
 30
0.0
 11
33.069703963
 21
-21.745344361
 31
0.0
  0
LINE
  5
CC
330
1D
100
AcDbEntity
  8
1
100
AcDbLine
 10
33.069703963
 20
-21.745344361
 30
0.0
 11
32.948076446
 21
-21.689172039
 31
0.0
  0
ARC
  5
CD
330
1D
100
AcDbEntity
  8
1
100
AcDbCircle
 10
50.489471992
 20
30.97763766
 30
0.0
 40
55.511200686
100
AcDbArc
 50
248.00867783
 51
251.578963084
  0
ARC
  5
CE
330
1D
100
AcDbEntity
  8
1
100
AcDbCircle
 10
10.608329419
 20
21.112561932
 30
0.0
 40
44.840526479
100
AcDbArc
 50
294.776287456
 51
299.86802946
  0
ARC
  5
CF
330
1D
100
AcDbEntity
  8
1
100
AcDbCircle
 10
32.670645539
 20
-17.338120115
 30
0.0
 40
0.52825846
100
AcDbArc
 50
301.680443457
 51
58.319615642
  0
ARC
  5
D0
330
1D
100
AcDbEntity
  8
1
100
AcDbCircle
 10
56.787823473
 20
21.112561932
 30
0.0
 40
44.860005575
100
AcDbArc
 50
234.505296738
 51
237.898185021
  0
ARC
  5
D1
330
1D
100
AcDbEntity
  8
1
100
AcDbCircle
 10
45.8163215
 20
5.728002529
 30
0.0
 40
25.941010567
100
AcDbArc
 50
231.564528794
 51
234.505203419
  0
ARC
  5
D2
330
1D
100
AcDbEntity
  8
1
100
AcDbCircle
 10
11.187526548
 20
5.728002529
 30
0.0
 40
25.927756559
100
AcDbArc
 50
314.622234531
 51
321.212022181
  0
ARC
  5
D3
330
1D
100
AcDbEntity
  8
1
100
AcDbCircle
 10
15.362718453
 20
2.372504206
 30
0.0
 40
20.584556848
100
AcDbArc
 50
321.212022181
 51
328.033474671
  0
LINE
  5
D4
330
1D
100
AcDbEntity
  8
1
100
AcDbLine
 10
32.832052794
 20
-8.529361074
 30
0.0
 11
41.700000235
 21
-8.529360791
 31
0.0
  0
ARC
  5
D5
330
1D
100
AcDbEntity
  8
1
100
AcDbCircle
 10
0.368922183
 20
0.000000263
 30
0.0
 40
42.201990628
100
AcDbArc
 50
348.3397421569998
 51
0.0
  0
ARC
  5
D6
330
1D
100
AcDbEntity
  8
1
100
AcDbCircle
 10
0.368922183
 20
0.000000263
 30
0.0
 40
42.197103456
100
AcDbArc
 50
0.0
 51
11.660257723
  0
LINE
  5
D7
330
1D
100
AcDbEntity
  8
1
100
AcDbLine
 10
41.700002041
 20
8.529361601
 30
0.0
 11
32.832051043
 21
8.529361318
 31
0.0
  0
ARC
  5
D8
330
1D
100
AcDbEntity
  8
1
100
AcDbCircle
 10
15.362718453
 20
-2.37250368
 30
0.0
 40
20.591946036
100
AcDbArc
 50
31.966527242
 51
38.787977819
  0
ARC
  5
D9
330
1D
100
AcDbEntity
  8
1
100
AcDbCircle
 10
11.187526548
 20
-5.728002002
 30
0.0
 40
25.941010567
100
AcDbArc
 50
38.787977819
 51
45.377765469
  0
LINE
  5
DA
330
1D
100
AcDbEntity
  8
1
100
AcDbLine
 10
53.170707312
 20
-5.114234721
 30
0.0
 11
53.206261482
 21
-5.141472646
 31
0.0
  0
LINE
  5
DB
330
1D
100
AcDbEntity
  8
1
100
AcDbLine
 10
53.206261482
 20
-5.141472646
 30
0.0
 11
53.269010272
 21
-5.170136893
 31
0.0
  0
LINE
  5
DC
330
1D
100
AcDbEntity
  8
1
100
AcDbLine
 10
53.269010272
 20
-5.170136893
 30
0.0
 11
53.331867095
 21
-5.174232849
 31
0.0
  0
LINE
  5
DD
330
1D
100
AcDbEntity
  8
1
100
AcDbLine
 10
53.331867095
 20
-5.174232849
 30
0.0
 11
53.39999893
 21
-5.150298325
 31
0.0
  0
LINE
  5
DE
330
1D
100
AcDbEntity
  8
1
100
AcDbLine
 10
53.39999893
 20
-5.150298325
 30
0.0
 11
53.456641969
 21
-5.106729658
 31
0.0
  0
LINE
  5
DF
330
1D
100
AcDbEntity
  8
1
100
AcDbLine
 10
53.456641969
 20
-5.106729658
 30
0.0
 11
53.554285553
 21
-4.975277202
 31
0.0
  0
LINE
  5
E0
330
1D
100
AcDbEntity
  8
1
100
AcDbLine
 10
53.554285553
 20
-4.975277202
 30
0.0
 11
53.664371606
 21
-4.725400561
 31
0.0
  0
LINE
  5
E1
330
1D
100
AcDbEntity
  8
1
100
AcDbLine
 10
53.664371606
 20
-4.725400561
 30
0.0
 11
53.739059951
 21
-4.461431147
 31
0.0
  0
LINE
  5
E2
330
1D
100
AcDbEntity
  8
1
100
AcDbLine
 10
53.739059951
 20
-4.461431147
 30
0.0
 11
53.745042768
 21
-4.436513146
 31
0.0
  0
ARC
  5
E3
330
1D
100
AcDbEntity
  8
1
100
AcDbCircle
 10
66.627049288
 20
-2.493995551
 30
0.0
 40
13.027642403
100
AcDbArc
 50
188.575201336
 51
196.481250587
  0
ARC
  5
E4
330
1D
100
AcDbEntity
  8
1
100
AcDbCircle
 10
66.600000235
 20
-2.499999737
 30
0.0
 40
13.0
100
AcDbArc
 50
196.489696732
 51
201.864191223
  0
ARC
  5
E5
330
1D
100
AcDbEntity
  8
1
100
AcDbCircle
 10
126.722459375
 20
-3.499999737
 30
0.0
 40
72.289489757
100
AcDbArc
 50
183.046004171
 51
185.344722231
  0
ARC
  5
E6
330
1D
100
AcDbEntity
  8
1
100
AcDbCircle
 10
66.544551564
 20
-9.129852359
 30
0.0
 40
11.836340225
100
AcDbArc
 50
185.345024151
 51
192.606993773
  0
ARC
  5
E7
330
1D
100
AcDbEntity
  8
1
100
AcDbCircle
 10
58.250008747
 20
-10.984965426
 30
0.0
 40
3.336876416
100
AcDbArc
 50
192.606993773
 51
207.00288411
  0
ARC
  5
E8
330
1D
100
AcDbEntity
  8
1
100
AcDbCircle
 10
55.399259835
 20
-12.437676005
 30
0.0
 40
0.137323732
100
AcDbArc
 50
207.002623801
 51
332.997376199
  0
ARC
  5
EA
330
1D
100
AcDbEntity
  8
1
100
AcDbCircle
 10
52.548510924
 20
-10.984965426
 30
0.0
 40
3.336876416
100
AcDbArc
 50
332.9971158899999
 51
347.393006227
  0
ARC
  5
EB
330
1D
100
AcDbEntity
  8
1
100
AcDbCircle
 10
44.253968107
 20
-9.129852359
 30
0.0
 40
11.836340225
100
AcDbArc
 50
347.393006227
 51
354.654975849
  0
ARC
  5
EC
330
1D
100
AcDbEntity
  8
1
100
AcDbCircle
 10
-15.923939704
 20
-3.499999737
 30
0.0
 40
72.277020475
100
AcDbArc
 50
354.655277769
 51
354.760010183
  0
ARC
  5
ED
330
1D
100
AcDbEntity
  8
1
100
AcDbCircle
 10
66.600000235
 20
-2.499999737
 30
0.0
 40
13.0
100
AcDbArc
 50
215.782030925
 51
220.058783898
  0
LINE
  5
EE
330
1D
100
AcDbEntity
  8
1
100
AcDbLine
 10
56.650001791
 20
-10.866450814
 30
0.0
 11
56.650001791
 21
-13.764973467
 31
0.0
  0
LINE
  5
EF
330
1D
100
AcDbEntity
  8
1
100
AcDbLine
 10
56.650001791
 20
-13.764973467
 30
0.0
 11
56.49234378
 21
-13.91059879
 31
0.0
  0
LINE
  5
F0
330
1D
100
AcDbEntity
  8
1
100
AcDbLine
 10
56.49234378
 20
-13.91059879
 30
0.0
 11
56.229583294
 21
-13.864030688
 31
0.0
  0
ARC
  5
F1
330
1D
100
AcDbEntity
  8
1
100
AcDbCircle
 10
56.293160555
 20
-13.899113809
 30
0.0
 40
0.07456417
100
AcDbArc
 50
153.326885058
 51
167.639176193
  0
ARC
  5
F2
330
1D
100
AcDbEntity
  8
1
100
AcDbCircle
 10
56.480526784
 20
-13.940174661
 30
0.0
 40
0.266376833
100
AcDbArc
 50
167.639176193
 51
174.834712783
  0
ARC
  5
F3
330
1D
100
AcDbEntity
  8
1
100
AcDbCircle
 10
57.850769872
 20
-14.064037779
 30
0.0
 40
1.642206834
100
AcDbArc
 50
174.834774516
 51
179.978526419
  0
LINE
  5
F4
330
1D
100
AcDbEntity
  8
1
100
AcDbLine
 10
56.208562341
 20
-14.063422305
 30
0.0
 11
56.208562341
 21
-24.728929361
 31
0.0
  0
LINE
  5
F5
330
1D
100
AcDbEntity
  8
CUT
100
AcDbLine
 10
56.208562341
 20
-24.728929361
 30
0.0
 11
56.208424505
 21
-24.743858462
 31
0.0
  0
ARC
  5
F6
330
1D
100
AcDbEntity
  8
1
100
AcDbCircle
 10
55.402991531
 20
-24.717868399
 30
0.0
 40
0.805852194
100
AcDbArc
 50
260.4752254979999
 51
358.151796088
  0
LINE
  5
F7
330
1D
100
AcDbEntity
  8
1
100
AcDbLine
 10
55.269643899
 20
-25.51261123
 30
0.0
 11
55.120431122
 21
-25.189773848
 31
0.0
  0
LINE
  5
F8
330
1D
100
AcDbEntity
  8
1
100
AcDbLine
 10
55.120431122
 20
-25.189773848
 30
0.0
 11
54.911040005
 21
-24.582328012
 31
0.0
  0
LINE
  5
F9
330
1D
100
AcDbEntity
  8
1
100
AcDbLine
 10
54.911040005
 20
-24.582328012
 30
0.0
 11
54.70706546
 21
-23.806426411
 31
0.0
  0
LINE
  5
FA
330
1D
100
AcDbEntity
  8
1
100
AcDbLine
 10
54.70706546
 20
-23.806426411
 30
0.0
 11
54.510575023
 21
-22.869765495
 31
0.0
  0
LINE
  5
FB
330
1D
100
AcDbEntity
  8
1
100
AcDbLine
 10
54.510575023
 20
-22.869765495
 30
0.0
 11
54.318923738
 21
-21.750997489
 31
0.0
  0
LINE
  5
FC
330
1D
100
AcDbEntity
  8
1
100
AcDbLine
 10
54.318923738
 20
-21.750997489
 30
0.0
 11
54.13684645
 21
-20.472682749
 31
0.0
  0
LINE
  5
FD
330
1D
100
AcDbEntity
  8
1
100
AcDbLine
 10
54.13684645
 20
-20.472682749
 30
0.0
 11
53.966220703
 21
-19.048958754
 31
0.0
  0
LINE
  5
FE
330
1D
100
AcDbEntity
  8
1
100
AcDbLine
 10
53.966220703
 20
-19.048958754
 30
0.0
 11
53.808935222
 21
-17.493966704
 31
0.0
  0
LINE
  5
FF
330
1D
100
AcDbEntity
  8
1
100
AcDbLine
 10
53.808935222
 20
-17.493966704
 30
0.0
 11
53.665805843
 21
-15.812482422
 31
0.0
  0
LINE
  5
100
330
1D
100
AcDbEntity
  8
1
100
AcDbLine
 10
53.665805843
 20
-15.812482422
 30
0.0
 11
53.537119415
 21
-14.011220743
 31
0.0
  0
LINE
  5
101
330
1D
100
AcDbEntity
  8
1
100
AcDbLine
 10
53.537119415
 20
-14.011220743
 30
0.0
 11
53.424179789
 21
-12.109873553
 31
0.0
  0
LINE
  5
102
330
1D
100
AcDbEntity
  8
1
100
AcDbLine
 10
53.424179789
 20
-12.109873553
 30
0.0
 11
53.328301993
 21
-10.12813553
 31
0.0
  0
LINE
  5
103
330
1D
100
AcDbEntity
  8
1
100
AcDbLine
 10
53.328301993
 20
-10.12813553
 30
0.0
 11
53.264379736
 21
-8.493829255
 31
0.0
  0
LINE
  5
104
330
1D
100
AcDbEntity
  8
1
100
AcDbLine
 10
53.264379736
 20
-8.493829255
 30
0.0
 11
53.211726483
 21
-6.818702647
 31
0.0
  0
LINE
  5
105
330
1D
100
AcDbEntity
  8
1
100
AcDbLine
 10
53.211726483
 20
-6.818702647
 30
0.0
 11
53.170707312
 21
-5.114234721
 31
0.0
  0
ARC
  5
106
330
1D
100
AcDbEntity
  8
1
100
AcDbCircle
 10
57.557687572
 20
0.804546127
 30
0.0
 40
7.36733076
100
AcDbArc
 50
186.26946202
 51
233.454283158
  0
LINE
  5
107
330
1D
100
AcDbEntity
  8
1
100
AcDbLine
 10
50.234418597
 20
0.000000263
 30
0.0
 11
50.234418597
 21
-24.627422651
 31
0.0
  0
LINE
  5
108
330
1D
100
AcDbEntity
  8
1
100
AcDbLine
 10
44.30000135
 20
15.563014227
 30
0.0
 11
43.316226688
 21
14.384622018
 31
0.0
  0
ARC
  5
109
330
1D
100
AcDbEntity
  8
1
100
AcDbCircle
 10
45.305000235
 20
12.715844871
 30
0.0
 40
2.6
100
AcDbArc
 50
140.0
 51
320.0
  0
ARC
  5
10A
330
1D
100
AcDbEntity
  8
1
100
AcDbCircle
 10
66.600000235
 20
-2.499999737
 30
0.0
 40
13.0
100
AcDbArc
 50
179.999999754
 51
188.566811652
  0
LINE
  5
10B
330
1D
100
AcDbEntity
  8
1
100
AcDbLine
 10
53.59999859
 20
-2.499999681
 30
0.0
 11
53.59999859
 21
2.500000207
 31
0.0
  0
LINE
  5
10C
330
1D
100
AcDbEntity
  8
1
100
AcDbLine
 10
53.59999859
 20
0.000021613
 30
0.0
 11
44.064466145
 21
9.535534571
 31
0.0
  0
ARC
  5
10D
330
1D
100
AcDbEntity
  8
1
100
AcDbCircle
 10
47.599996951
 20
13.071069175
 30
0.0
 40
4.999998302
100
AcDbArc
 50
180.000014671
 51
225.000030774
  0
LINE
  5
10E
330
1D
100
AcDbEntity
  8
1
100
AcDbLine
 10
42.59999865
 20
13.071067894
 30
0.0
 11
42.59999865
 21
18.500000502
 31
0.0
  0
LINE
  5
10F
330
1D
100
AcDbEntity
  8
1
100
AcDbLine
 10
42.59999865
 20
18.500000502
 30
0.0
 11
42.258676376
 21
18.841322775
 31
0.0
  0
LINE
  5
110
330
1D
100
AcDbEntity
  8
1
100
AcDbLine
 10
42.258676376
 20
18.841322775
 30
0.0
 11
41.925296422
 21
19.174702729
 31
0.0
  0
LINE
  5
111
330
1D
100
AcDbEntity
  8
1
100
AcDbLine
 10
41.925296422
 20
19.174702729
 30
0.0
 11
41.600000348
 21
19.500000666
 31
0.0
  0
LINE
  5
112
330
1D
100
AcDbEntity
  8
1
100
AcDbLine
 10
41.600000348
 20
19.500000666
 30
0.0
 11
29.700000074
 21
19.500000666
 31
0.0
  0
LINE
  5
113
330
1D
100
AcDbEntity
  8
1
100
AcDbLine
 10
29.700000074
 20
19.500000666
 30
0.0
 11
29.700000235
 21
19.462020948
 31
0.0
  0
ARC
  5
114
330
1D
100
AcDbEntity
  8
1
100
AcDbCircle
 10
10.608329419
 20
-21.112561405
 30
0.0
 40
44.841817845
100
AcDbArc
 50
60.13197053999999
 51
64.80147795
  0
ARC
  5
115
330
1D
100
AcDbEntity
  8
1
100
AcDbCircle
 10
32.672782074
 20
17.338120642
 30
0.0
 40
0.527139528
100
AcDbArc
 50
301.482763458
 51
58.517177285
  0
ARC
  5
116
330
1D
100
AcDbEntity
  8
1
100
AcDbCircle
 10
56.787823473
 20
-21.112561405
 30
0.0
 40
44.860005575
100
AcDbArc
 50
122.101814979
 51
125.494703262
  0
ARC
  5
117
330
1D
100
AcDbEntity
  8
1
100
AcDbCircle
 10
45.8163215
 20
-5.728002002
 30
0.0
 40
25.941010567
100
AcDbArc
 50
125.494796581
 51
128.435471206
  0
LINE
  5
118
330
1D
100
AcDbEntity
  8
1
100
AcDbLine
 10
29.700000074
 20
14.579895216
 30
0.0
 11
29.65000109
 21
14.453460726
 31
0.0
  0
ARC
  5
119
330
1D
100
AcDbEntity
  8
1
100
AcDbCircle
 10
32.592799508
 20
13.204238444
 30
0.0
 40
3.196970259
100
AcDbArc
 50
156.998705567
 51
177.072795451
  0
ARC
  5
11A
330
1D
100
AcDbEntity
  8
1
100
AcDbCircle
 10
32.684785287
 20
-13.183061774
 30
0.0
 40
3.289958553
100
AcDbArc
 50
183.213706773
 51
202.71479221
  0
LINE
  5
11B
330
1D
100
AcDbEntity
  8
1
100
AcDbLine
 10
29.65000109
 20
-14.453460199
 30
0.0
 11
29.700000074
 21
-14.579894689
 31
0.0
  0
ARC
  5
11C
330
1D
100
AcDbEntity
  8
1
100
AcDbCircle
 10
30.854211783
 20
-19.574078618
 30
0.0
 40
1.471239834
100
AcDbArc
 50
188.725806727
 51
215.0650211
  0
LINE
  5
11D
330
1D
100
AcDbEntity
  8
1
100
AcDbLine
 10
29.65000109
 20
-20.41931424
 30
0.0
 11
29.700000074
 21
-20.500557234
 31
0.0
  0
LINE
  5
11E
330
1D
100
AcDbEntity
  8
1
100
AcDbLine
 10
29.700000074
 20
-23.044971486
 30
0.0
 11
29.65000109
 21
-23.002868255
 31
0.0
  0
LINE
  5
11F
330
1D
100
AcDbEntity
  8
1
100
AcDbLine
 10
29.65000109
 20
-23.002868255
 30
0.0
 11
29.560182479
 21
-22.933248167
 31
0.0
  0
LINE
  5
120
330
1D
100
AcDbEntity
  8
1
100
AcDbLine
 10
29.560182479
 20
-22.933248167
 30
0.0
 11
29.481452193
 21
-22.886819874
 31
0.0
  0
LINE
  5
121
330
1D
100
AcDbEntity
  8
1
100
AcDbLine
 10
29.481452193
 20
-22.886819874
 30
0.0
 11
29.42482033
 21
-22.874239569
 31
0.0
  0
LINE
  5
122
330
1D
100
AcDbEntity
  8
1
100
AcDbLine
 10
29.42482033
 20
-22.874239569
 30
0.0
 11
29.402163115
 21
-22.894261142
 31
0.0
  0
LINE
  5
123
330
1D
100
AcDbEntity
  8
1
100
AcDbLine
 10
29.402163115
 20
-22.894261142
 30
0.0
 11
29.400000584
 21
-22.910700848
 31
0.0
  0
ARC
  5
124
330
1D
100
AcDbEntity
  8
1
100
AcDbCircle
 10
30.515353977
 20
-22.721002659
 30
0.0
 40
1.174984413
100
AcDbArc
 50
198.332080229
 51
222.567551061
  0
LINE
  5
125
330
1D
100
AcDbEntity
  8
1
100
AcDbLine
 10
29.65000109
 20
-23.515831416
 30
0.0
 11
29.700000074
 21
-23.579064493
 31
0.0
  0
ARC
  5
126
330
1D
100
AcDbEntity
  8
1
100
AcDbCircle
 10
56.200000235
 20
14.42876487
 30
0.0
 40
0.8
100
AcDbArc
 50
280.0
 51
359.9999981879999
  0
LINE
  5
127
330
1D
100
AcDbEntity
  8
1
100
AcDbLine
 10
57.000000265
 20
14.428764845
 30
0.0
 11
57.000000235
 21
25.700000262
 31
0.0
  0
ARC
  5
128
330
1D
100
AcDbEntity
  8
1
100
AcDbCircle
 10
56.200000235
 20
25.700000262
 30
0.0
 40
0.8
100
AcDbArc
 50
0.0
 51
99.999994207
  0
LINE
  5
129
330
1D
100
AcDbEntity
  8
1
100
AcDbLine
 10
56.061081823
 20
26.487846191
 30
0.0
 11
44.961081693
 21
24.530616979
 31
0.0
  0
ARC
  5
12A
330
1D
100
AcDbEntity
  8
1
100
AcDbCircle
 10
45.100000235
 20
23.742770776
 30
0.0
 40
0.8
100
AcDbArc
 50
100.0
 51
179.999981157
  0
ARC
  5
12C
330
1D
100
AcDbEntity
  8
1
100
AcDbCircle
 10
45.100000235
 20
12.471535384
 30
0.0
 40
0.8
100
AcDbArc
 50
180.0
 51
280.000066304
  0
LINE
  5
12E
330
1D
100
AcDbEntity
  8
CUT
100
AcDbLine
 10
48.875842478
 20
-24.627422651
 30
0.0
 11
56.162571153
 21
-25.912270605
 31
0.0
  0
ARC
  5
12F
330
1D
100
AcDbEntity
  8
CUT
100
AcDbCircle
 10
56.200000235
 20
-25.699999736
 30
0.0
 40
0.21554549
100
AcDbArc
 50
260.0
 51
0.000216773
  0
LINE
  5
130
330
1D
100
AcDbEntity
  8
CUT
100
AcDbLine
 10
56.41554692
 20
-25.69999892
 30
0.0
 11
56.415545725
 21
-14.428764344
 31
0.0
  0
ARC
  5
131
330
1D
100
AcDbEntity
  8
CUT
100
AcDbCircle
 10
56.200000235
 20
-14.428764344
 30
0.0
 40
0.21554549
100
AcDbArc
 50
0.0
 51
79.99991814400002
  0
LINE
  5
132
330
1D
100
AcDbEntity
  8
CUT
100
AcDbLine
 10
56.237429615
 20
-14.216493552
 30
0.0
 11
56.208562341
 21
-14.211403874
 31
0.0
  0
ARC
  5
133
330
1D
100
AcDbEntity
  8
1
100
AcDbCircle
 10
44.694692186
 20
24.996428941
 30
0.0
 40
0.371169255
100
AcDbArc
 50
244.466835392
 51
276.189282123
  0
LINE
  5
134
330
1D
100
AcDbEntity
  8
1
100
AcDbLine
 10
44.7347092
 20
24.627423177
 30
0.0
 11
45.55051822602858
 21
24.627423177
 31
0.0
  0
LINE
  5
135
330
1D
100
AcDbEntity
  8
1
100
AcDbLine
 10
32.832052794
 20
-8.529361074
 30
0.0
 11
32.832052794
 21
8.529361318
 31
0.0
  0
ARC
  5
136
330
1D
100
AcDbEntity
  8
1
100
AcDbCircle
 10
65.963370184
 20
-2.85621989
 30
0.0
 40
12.275533487
100
AcDbArc
 50
201.459300997
 51
216.170637327
  0
LINE
  5
137
330
1D
100
AcDbEntity
  8
1
100
AcDbLine
 10
29.700000074
 20
-24.725923051
 30
0.0
 11
29.65000109
 21
-24.679669847
 31
0.0
  0
ARC
  5
138
330
1D
100
AcDbEntity
  8
1
100
AcDbCircle
 10
29.164406497
 20
-25.053931822
 30
0.0
 40
0.613085749
100
AcDbArc
 50
37.622493992
 51
67.401204479
  0
LINE
  5
139
330
1D
100
AcDbEntity
  8
1
100
AcDbLine
 10
29.400000551
 20
19.200001175
 30
0.0
 11
29.400000584
 21
-24.544168
 31
0.0
  0
ARC
  5
13A
330
1D
100
AcDbEntity
  8
1
100
AcDbCircle
 10
30.64507164
 20
-23.746622861
 30
0.0
 40
1.478607515
100
AcDbArc
 50
212.642078579
 51
227.70266195
  0
LINE
  5
13B
330
1D
100
AcDbEntity
  8
1
100
AcDbLine
 10
29.65000109
 20
-24.840293189
 30
0.0
 11
29.700000074
 21
-24.893207212
 31
0.0
  0
LINE
  5
13C
330
1D
100
AcDbEntity
  8
CUT
100
AcDbLine
 10
45.510102298
 20
-24.627422651
 30
0.0
 11
56.061081693
 21
-26.487845938
 31
0.0
  0
ARC
  5
13D
330
1D
100
AcDbEntity
  8
CUT
100
AcDbCircle
 10
56.200000235
 20
-25.699999736
 30
0.0
 40
0.8
100
AcDbArc
 50
260.0
 51
0.000058406
  0
LINE
  5
13E
330
1D
100
AcDbEntity
  8
CUT
100
AcDbLine
 10
57.000000265
 20
-25.69999892
 30
0.0
 11
57.000000235
 21
-14.428764344
 31
0.0
  0
ARC
  5
13F
330
1D
100
AcDbEntity
  8
CUT
100
AcDbCircle
 10
56.200000235
 20
-14.428764344
 30
0.0
 40
0.8
100
AcDbArc
 50
0.0
 51
55.898251634
  0
ARC
  5
140
330
1D
100
AcDbEntity
  8
1
100
AcDbCircle
 10
51.455256419
 20
20.584798252
 30
0.0
 40
0.7
100
AcDbArc
 50
183.384161802
 51
296.615838194
  0
ARC
  5
141
330
1D
100
AcDbEntity
  8
1
100
AcDbCircle
 10
50.457000235
 20
20.525767823
 30
0.0
 40
0.3
100
AcDbArc
 50
3.384161806
 51
176.615838202
  0
ARC
  5
143
330
1D
100
AcDbEntity
  8
1
100
AcDbCircle
 10
49.458744051
 20
20.584798252
 30
0.0
 40
0.7
100
AcDbArc
 50
243.384161801
 51
356.615838194
  0
ARC
  5
144
330
1D
100
AcDbEntity
  8
1
100
AcDbCircle
 10
49.010737811
 20
19.690767823
 30
0.0
 40
0.3
100
AcDbArc
 50
63.384161806
 51
236.615838195
  0
ARC
  5
146
330
1D
100
AcDbEntity
  8
1
100
AcDbCircle
 10
48.460487867
 20
18.855767823
 30
0.0
 40
0.7
100
AcDbArc
 50
303.384161806
 51
56.615838194
  0
ARC
  5
147
330
1D
100
AcDbEntity
  8
1
100
AcDbCircle
 10
49.010737811
 20
18.020767823
 30
0.0
 40
0.3
100
AcDbArc
 50
123.384161806
 51
296.615838197
  0
ARC
  5
149
330
1D
100
AcDbEntity
  8
1
100
AcDbCircle
 10
49.458744051
 20
17.126737394
 30
0.0
 40
0.7
100
AcDbArc
 50
3.384161811
 51
116.615838194
  0
ARC
  5
14A
330
1D
100
AcDbEntity
  8
1
100
AcDbCircle
 10
50.457000235
 20
17.185767823
 30
0.0
 40
0.3
100
AcDbArc
 50
183.384161806
 51
356.615838184
  0
ARC
  5
14C
330
1D
100
AcDbEntity
  8
1
100
AcDbCircle
 10
51.455256419
 20
17.126737394
 30
0.0
 40
0.7
100
AcDbArc
 50
63.38416180500001
 51
176.615838194
  0
ARC
  5
14D
330
1D
100
AcDbEntity
  8
1
100
AcDbCircle
 10
51.903262659
 20
18.020767823
 30
0.0
 40
0.3
100
AcDbArc
 50
243.384161806
 51
56.61583819499998
  0
ARC
  5
14F
330
1D
100
AcDbEntity
  8
1
100
AcDbCircle
 10
52.453512603
 20
18.855767823
 30
0.0
 40
0.7
100
AcDbArc
 50
123.384161806
 51
236.615838194
  0
ARC
  5
150
330
1D
100
AcDbEntity
  8
1
100
AcDbCircle
 10
51.903262659
 20
19.690767823
 30
0.0
 40
0.3
100
AcDbArc
 50
303.384161806
 51
116.615838194
  0
LINE
  5
152
330
1D
100
AcDbEntity
  8
1
100
AcDbLine
 10
29.600000244
 20
19.400000835
 30
0.0
 11
29.600000244
 21
24.544168527
 31
0.0
  0
ARC
  5
153
330
1D
100
AcDbEntity
  8
1
100
AcDbCircle
 10
30.845127185
 20
23.746576208
 30
0.0
 40
1.478680021
100
AcDbArc
 50
132.297709436
 51
147.357550037
  0
LINE
  5
154
330
1D
100
AcDbEntity
  8
1
100
AcDbLine
 10
29.850000751
 20
24.840293715
 30
0.0
 11
29.900000235
 21
24.893208083
 31
0.0
  0
ARC
  5
155
330
1D
100
AcDbEntity
  8
1
100
AcDbCircle
 10
33.898076446
 20
-48.087526855
 30
0.0
 40
73.090165449
100
AcDbArc
 50
90.587959716
 51
93.135678825
  0
ARC
  5
156
330
1D
100
AcDbEntity
  8
1
100
AcDbCircle
 10
32.897785518
 20
50.016215758
 30
0.0
 40
25.021218371
100
AcDbArc
 50
270.573148069
 51
271.122548696
  0
LINE
  5
157
330
1D
100
AcDbEntity
  8
1
100
AcDbLine
 10
56.650001791
 20
13.764973993
 30
0.0
 11
56.650000235
 21
10.866451124
 31
0.0
  0
ARC
  5
158
330
1D
100
AcDbEntity
  8
1
100
AcDbCircle
 10
66.600000235
 20
2.500000263
 30
0.0
 40
13.0
100
AcDbArc
 50
139.941221246
 51
180.000000246
  0
LINE
  5
15A
330
1D
100
AcDbEntity
  8
1
100
AcDbLine
 10
53.59999859
 20
0.000000263
 30
0.0
 11
50.234418597
 21
0.000000263
 31
0.0
  0
LINE
  5
15B
330
1D
100
AcDbEntity
  8
1
100
AcDbLine
 10
44.534705814
 20
24.308849389
 30
0.0
 11
44.534707588
 21
24.948747727
 31
0.0
  0
ARC
  5
15C
330
1D
100
AcDbEntity
  8
1
100
AcDbCircle
 10
44.352410615
 20
24.561007659
 30
0.0
 40
0.428456003
100
AcDbArc
 50
64.819317838
 51
88.512577199
  0
LINE
  5
15D
330
1D
100
AcDbEntity
  8
1
100
AcDbLine
 10
44.363804397
 20
24.99979947
 30
0.0
 11
33.38797414
 21
24.99979947
 31
0.0
  0
LINE
  5
15E
330
1D
100
AcDbEntity
  8
1
100
AcDbLine
 10
53.96483117
 20
-5.555292794
 30
0.0
 11
54.134679931
 21
-6.189957689
 31
0.0
  0
ARC
  5
15F
330
1D
100
AcDbEntity
  8
1
100
AcDbCircle
 10
254.589680797
 20
0.000000263
 30
0.0
 40
200.550549617
100
AcDbArc
 50
181.768705202
 51
185.345567256
  0
ARC
  5
160
330
1D
100
AcDbEntity
  8
1
100
AcDbCircle
 10
87.626293434
 20
-15.622407653
 30
0.0
 40
32.84354463
100
AcDbArc
 50
185.346011244
 51
192.608482125
  0
ARC
  5
161
330
1D
100
AcDbEntity
  8
1
100
AcDbCircle
 10
64.611556916
 20
-20.770388239
 30
0.0
 40
9.260080061
100
AcDbArc
 50
192.608482125
 51
205.30739409
  0
LINE
  5
162
330
1D
100
AcDbEntity
  8
1
100
AcDbLine
 10
29.700000074
 20
19.500000666
 30
0.0
 11
29.557856035
 21
19.357856626
 31
0.0
  0
LINE
  5
163
330
1D
100
AcDbEntity
  8
1
100
AcDbLine
 10
29.557856035
 20
19.357856626
 30
0.0
 11
29.585488376
 21
19.373933117
 31
0.0
  0
LINE
  5
164
330
1D
100
AcDbEntity
  8
1
100
AcDbLine
 10
29.585488376
 20
19.373933117
 30
0.0
 11
29.65000109
 21
19.421067352
 31
0.0
  0
LINE
  5
165
330
1D
100
AcDbEntity
  8
1
100
AcDbLine
 10
29.65000109
 20
19.421067352
 30
0.0
 11
29.700000074
 21
19.462021331
 31
0.0
  0
LINE
  5
166
330
1D
100
AcDbEntity
  8
1
100
AcDbLine
 10
41.700002041
 20
8.529361601
 30
0.0
 11
41.700002041
 21
-8.529361074
 31
0.0
  0
LINE
  5
167
330
1D
100
AcDbEntity
  8
1
100
AcDbLine
 10
29.400000584
 20
19.200001175
 30
0.0
 11
29.557856035
 21
19.357856626
 31
0.0
  0
LINE
  5
168
330
1D
100
AcDbEntity
  8
1
100
AcDbLine
 10
48.283431914
 20
12.220518927
 30
0.0
 11
47.296714273
 21
11.044597516
 31
0.0
  0
LINE
  5
169
330
1D
100
AcDbEntity
  8
CUT
100
AcDbLine
 10
55.269643899
 20
-25.51261123
 30
0.0
 11
55.269643899
 21
-25.528231372
 31
0.0
  0
LINE
  5
16A
330
1D
100
AcDbEntity
  8
CUT
100
AcDbLine
 10
56.41554692
 20
-14.428764318
 30
0.0
 11
57.000000265
 21
-14.428764318
 31
0.0
  0
LINE
  5
16B
330
1D
100
AcDbEntity
  8
CUT
100
AcDbLine
 10
56.41554692
 20
-25.69999892
 30
0.0
 11
57.000000265
 21
-25.69999892
 31
0.0
  0
LINE
  5
16C
330
1D
100
AcDbEntity
  8
CUT
100
AcDbLine
 10
56.162569907
 20
-25.912269687
 30
0.0
 11
56.061081823
 21
-26.487845664
 31
0.0
  0
LINE
  5
16D
330
1D
100
AcDbEntity
  8
CUT
100
AcDbLine
 10
56.237429615
 20
-14.216493552
 30
0.0
 11
56.297455218
 21
-13.876059761
 31
0.0
  0
LINE
  5
16F
330
1D
100
AcDbEntity
  8
SK2
100
AcDbLine
 10
71.289468237
 20
-26.499999736
 30
0.0
 11
56.200000235
 21
-26.499999736
 31
0.0
  0
LINE
  5
170
330
1D
100
AcDbEntity
  8
SK2
100
AcDbLine
 10
69.289468237
 20
-26.499999736
 30
0.0
 11
68.839468237
 21
-22.999999736
 31
0.0
  0
LINE
  5
171
330
1D
100
AcDbEntity
  8
SK2
100
AcDbLine
 10
68.839468237
 20
-22.999999736
 30
0.0
 11
69.739468237
 21
-22.999999736
 31
0.0
  0
LINE
  5
172
330
1D
100
AcDbEntity
  8
SK2
100
AcDbLine
 10
69.739468237
 20
-22.999999736
 30
0.0
 11
69.289468237
 21
-26.499999736
 31
0.0
  0
LINE
  5
173
330
1D
100
AcDbEntity
  8
SK2
100
AcDbLine
 10
71.289468237
 20
26.500000262
 30
0.0
 11
56.200000235
 21
26.500000262
 31
0.0
  0
LINE
  5
174
330
1D
100
AcDbEntity
  8
SK2
100
AcDbLine
 10
69.289468237
 20
26.500000262
 30
0.0
 11
69.739468237
 21
23.000000262
 31
0.0
  0
LINE
  5
175
330
1D
100
AcDbEntity
  8
SK2
100
AcDbLine
 10
69.739468237
 20
23.000000262
 30
0.0
 11
68.839468237
 21
23.000000262
 31
0.0
  0
LINE
  5
176
330
1D
100
AcDbEntity
  8
SK2
100
AcDbLine
 10
68.839468237
 20
23.000000262
 30
0.0
 11
69.289468237
 21
26.500000262
 31
0.0
  0
LINE
  5
177
330
1D
100
AcDbEntity
  8
SK2
100
AcDbLine
 10
69.289468237
 20
-22.999999736
 30
0.0
 11
69.289468237
 21
23.000000262
 31
0.0
  0
TEXT
  5
178
330
1D
100
AcDbEntity
  8
SK2
100
AcDbText
 10
67.789468237
 20
-3.040312829
 30
0.0
 40
3.5
  1
53
 50
90.0
  7
BMG_Text
100
AcDbText
  0
CIRCLE
  5
179
330
1D
100
AcDbEntity
  8
SK2
100
AcDbCircle
 10
66.539468237
 20
-5.290312829
 30
0.0
 40
1.25
  0
LINE
  5
17A
330
1D
100
AcDbEntity
  8
SK2
100
AcDbLine
 10
67.789468237
 20
-6.540312829
 30
0.0
 11
65.289468237
 21
-4.040312829
 31
0.0
  0
TEXT
  5
17B
330
1D
100
AcDbEntity
  8
SK2
100
AcDbText
 10
67.789468237
 20
1.187499671
 30
0.0
 40
3.5
  1
-70
 50
90.0
  7
BMG_Text
100
AcDbText
  0
LINE
  5
237
330
1D
100
AcDbEntity
  8
1
100
AcDbLine
 10
44.30000135
 20
15.563014227
 30
0.0
 11
44.30000135
 21
24.63917344924451
 31
0.0
  0
LINE
  5
239
330
1D
100
AcDbEntity
  8
1
100
AcDbLine
 10
44.30000135
 20
24.63917344924451
 30
0.0
 11
44.53470581422811
 21
24.66150958249034
 31
0.0
  0
LINE
  5
23A
330
1D
100
AcDbEntity
  8
1
100
AcDbLine
 10
48.283431914
 20
12.220518927
 30
0.0
 11
56.33891877713354
 21
13.64091866759023
 31
0.0
  0
LINE
  5
23B
330
1D
100
AcDbEntity
  8
1
100
AcDbLine
 10
56.33891877713354
 20
13.64091866759023
 30
0.0
 11
56.65000172440398
 21
13.64091866759023
 31
0.0
  0
LINE
  5
23C
330
1D
100
AcDbEntity
  8
3
100
AcDbLine
 10
45.55051822602858
 20
24.627423177
 30
0.0
 11
56.200000235
 21
25.700000262
 31
0.0
  0
LINE
  5
23D
330
1D
100
AcDbEntity
  8
3
100
AcDbLine
 10
56.200000235
 20
25.700000262
 30
0.0
 11
56.200000235
 21
14.42876487
 31
0.0
  0
LINE
  5
23E
330
1D
100
AcDbEntity
  8
3
100
AcDbLine
 10
56.200000235
 20
14.42876487
 30
0.0
 11
56.650001791
 21
13.764973993
 31
0.0
  0
LINE
  5
240
330
1D
100
AcDbEntity
  8
1
100
AcDbLine
 10
45.23891968884728
 20
11.68368934235051
 30
0.0
 11
56.33891877713354
 21
13.64091866759023
 31
0.0
  0
LINE
  5
241
330
1D
100
AcDbEntity
  8
1
100
AcDbLine
 10
44.30000023500001
 20
12.471535384
 30
0.0
 11
44.30000023500001
 21
23.76758019288106
 31
0.0
  0
LWPOLYLINE
  5
24E
330
1D
100
AcDbEntity
  8
INFTOTAL
100
AcDbPolyline
 90
        4
 70
     1
 43
0.0
 10
96.29506445058139
 20
48.21678287341203
 10
96.29506445058139
 20
-49.38752658514613
 10
-65.63935806020835
 20
-49.38752658514613
 10
-65.63935806020835
 20
48.21678287341203
  0
LINE
  5
250
330
1D
100
AcDbEntity
  8
NOCUT
100
AcDbLine
 10
53.600000235
 20
2.500000207184366
 30
0.0
 11
53.59999859
 21
0.0
 31
0.0
  0
LINE
  5
251
330
1D
100
AcDbEntity
  8
NOCUT
100
AcDbLine
 10
53.59999859
 20
0.0
 30
0.0
 11
0.0
 21
0.0
 31
0.0
  0
LINE
  5
252
330
1D
100
AcDbEntity
  8
NOCUT
100
AcDbLine
 10
0.0
 20
0.0
 30
0.0
 11
0.0
 21
24.000000209
 31
0.0
  0
LINE
  5
253
330
1D
100
AcDbEntity
  8
NOCUT
100
AcDbLine
 10
0.0
 20
24.000000209
 30
0.0
 11
1.000000048
 21
25.000000373
 31
0.0
  0
LINE
  5
254
330
1D
100
AcDbEntity
  8
NOCUT
100
AcDbLine
 10
1.000000048
 20
25.000000373
 30
0.0
 11
44.36431365981061
 21
25.000000373
 31
0.0
  0
LINE
  5
255
330
1D
100
AcDbEntity
  8
NOCUT
100
AcDbLine
 10
44.36431365981061
 20
25.000000373
 30
0.0
 11
44.36431365981061
 21
24.98929828933293
 31
0.0
  0
LINE
  5
256
330
1D
100
AcDbEntity
  8
NOCUT
100
AcDbLine
 10
44.36431365981061
 20
24.98929828933293
 30
0.0
 11
44.45122460200742
 21
24.97791333475704
 31
0.0
  0
LINE
  5
257
330
1D
100
AcDbEntity
  8
NOCUT
100
AcDbLine
 10
44.45122460200742
 20
24.97791333475704
 30
0.0
 11
44.53470758839441
 21
24.94874772656843
 31
0.0
  0
LINE
  5
258
330
1D
100
AcDbEntity
  8
NOCUT
100
AcDbLine
 10
44.53470758839441
 20
24.94874772656843
 30
0.0
 11
44.53470758839441
 21
24.66168241559825
 31
0.0
  0
LINE
  5
259
330
1D
100
AcDbEntity
  8
NOCUT
100
AcDbLine
 10
44.53470758839441
 20
24.66168241559825
 30
0.0
 11
44.63233328550405
 21
24.63053553659622
 31
0.0
  0
LINE
  5
25A
330
1D
100
AcDbEntity
  8
NOCUT
100
AcDbLine
 10
44.63233328550405
 20
24.63053553659622
 30
0.0
 11
44.694692186
 21
24.625259686
 31
0.0
  0
LINE
  5
25B
330
1D
100
AcDbEntity
  8
NOCUT
100
AcDbLine
 10
44.694692186
 20
24.625259686
 30
0.0
 11
44.73470920005258
 21
24.62742317621635
 31
0.0
  0
LINE
  5
25C
330
1D
100
AcDbEntity
  8
NOCUT
100
AcDbLine
 10
44.73470920005258
 20
24.62742317621635
 30
0.0
 11
45.510102298
 21
24.627423177
 31
0.0
  0
LINE
  5
261
330
1D
100
AcDbEntity
  8
NOCUT
100
AcDbLine
 10
56.650001791
 20
13.764973993
 30
0.0
 11
56.650001791
 21
10.84176624575759
 31
0.0
  0
ARC
  5
262
330
1D
100
AcDbEntity
  8
NOCUT
100
AcDbCircle
 10
66.46921617357049
 20
2.523095607956469
 30
0.0
 40
12.86923666233136
100
AcDbArc
 50
139.7292990025503
 51
180.1028242572133
  0
LINE
  5
278
330
1D
100
AcDbEntity
  8
NOCUT
100
AcDbLine
 10
56.650001791
 20
13.764973993
 30
0.0
 11
56.200000235
 21
14.42876487
 31
0.0
  0
LINE
  5
279
330
1D
100
AcDbEntity
  8
NOCUT
100
AcDbLine
 10
56.200000235
 20
14.42876487
 30
0.0
 11
56.200000235
 21
25.700000262
 31
0.0
  0
LINE
  5
27A
330
1D
100
AcDbEntity
  8
NOCUT
100
AcDbLine
 10
56.200000235
 20
25.700000262
 30
0.0
 11
45.55051822602858
 21
24.627423177
 31
0.0
  0
LINE
  5
27D
330
1D
100
AcDbEntity
  8
NOCUT
100
AcDbLine
 10
44.7347092
 20
24.627423177
 30
0.0
 11
45.55051822602858
 21
24.627423177
 31
0.0
  0
LINE
  5
2B2
330
1D
100
AcDbEntity
  8
SK4
100
AcDbLine
 10
-32.88968545
 20
0.0
 30
0.0
 11
59.36310877599999
 21
0.0
 31
0.0
  0
LINE
  5
2B6
330
1D
100
AcDbEntity
  8
3
100
AcDbLine
 10
3.999978009
 20
6.250061035
 30
0.0
 11
0.0
 21
6.250061035000001
 31
0.0
  0
LINE
  5
2B7
330
1D
100
AcDbEntity
  8
3
100
AcDbLine
 10
4.000022439
 20
-6.249938965
 30
0.0
 11
0.0
 21
-6.249938964999999
 31
0.0
  0
LINE
  5
2BE
330
1D
100
AcDbEntity
  8
SK3
100
AcDbLine
 10
-0.236790711
 20
6.250000093
 30
0.0
 11
0.0
 21
6.536549608852673
 31
0.0
  0
LINE
  5
2BF
330
1D
100
AcDbEntity
  8
SK3
100
AcDbLine
 10
0.0
 20
-6.536549541193235
 30
0.0
 11
-0.236790663
 21
-6.250000093
 31
0.0
  0
LINE
  5
33E
330
1D
100
AcDbEntity
  8
SK4
100
AcDbLine
 10
7.352513321000004
 20
-15.040347655
 30
0.0
 11
19.041182177
 21
-20.244478874
 31
0.0
  0
LINE
  5
33F
330
1D
100
AcDbEntity
  8
SK4
100
AcDbLine
 10
1.133658002999994
 20
-4.765574674
 30
0.0
 11
9.171556559999999
 21
-14.502663903
 31
0.0
  0
LINE
  5
340
330
1D
100
AcDbEntity
  8
SK4
100
AcDbLine
 10
1.133658002999994
 20
4.765574674
 30
0.0
 11
9.171556559999999
 21
14.502663903
 31
0.0
  0
LINE
  5
341
330
1D
100
AcDbEntity
  8
SK4
100
AcDbLine
 10
7.352513321000004
 20
15.040347655
 30
0.0
 11
19.041182177
 21
20.244478874
 31
0.0
  0
LINE
  5
348
330
1D
100
AcDbEntity
  8
SK1
100
AcDbLine
 10
0.0000018512297556
 20
-13.89999147046927
 30
0.0
 11
0.0000018512297557
 21
13.89999147046927
 31
0.0
  0
ARC
  5
34C
330
1D
100
AcDbEntity
  8
CUT
100
AcDbCircle
 10
56.200000235
 20
14.42876487
 30
0.0
 40
0.8
100
AcDbArc
 50
280.0000000000006
 51
359.9999981879998
  0
LINE
  5
34D
330
1D
100
AcDbEntity
  8
CUT
100
AcDbLine
 10
57.00000026500001
 20
14.428764845
 30
0.0
 11
57.00000023500002
 21
25.700000262
 31
0.0
  0
ARC
  5
34E
330
1D
100
AcDbEntity
  8
CUT
100
AcDbCircle
 10
56.200000235
 20
25.700000262
 30
0.0
 40
0.8
100
AcDbArc
 50
0.0
 51
99.99999420699895
  0
LINE
  5
34F
330
1D
100
AcDbEntity
  8
CUT
100
AcDbLine
 10
56.06108182300002
 20
26.487846191
 30
0.0
 11
44.96108169300001
 21
24.530616979
 31
0.0
  0
ARC
  5
350
330
1D
100
AcDbEntity
  8
CUT
100
AcDbCircle
 10
45.10000023500001
 20
23.742770776
 30
0.0
 40
0.8
100
AcDbArc
 50
99.99999999999959
 51
179.999981157
  0
ARC
  5
351
330
1D
100
AcDbEntity
  8
CUT
100
AcDbCircle
 10
45.10000023500001
 20
12.471535384
 30
0.0
 40
0.8
100
AcDbArc
 50
180.0
 51
280.0000663039999
  0
CIRCLE
  5
352
330
1D
100
AcDbEntity
  8
1
100
AcDbCircle
 10
50.45700023500001
 20
18.855767823
 30
0.0
 40
3.382303021
  0
LINE
  5
353
330
1D
100
AcDbEntity
  8
CUT
100
AcDbLine
 10
45.23891968884729
 20
11.68368934235051
 30
0.0
 11
56.33891877713356
 21
13.64091866759023
 31
0.0
  0
LINE
  5
354
330
1D
100
AcDbEntity
  8
CUT
100
AcDbLine
 10
44.30000023500003
 20
12.471535384
 30
0.0
 11
44.30000023500003
 21
23.76758019288106
 31
0.0
  0
HATCH
  5
359
330
1D
100
AcDbEntity
  8
7
100
AcDbHatch
 10
0.0
 20
0.0
 30
0.0
210
0.0
220
0.0
230
1.0
  2
ANSI37
 70
     0
 71
     0
 91
        2
 92
        7
 72
     1
 73
     1
 93
        8
 10
57.00000024249999
 20
14.42876484477478
 42
0.0
 10
57.00000023500002
 20
25.700000262
 42
0.4663076869309538
 10
56.06108178514239
 20
26.48784640659154
 42
0.0
 10
44.96108169289985
 20
24.53061697855733
 42
0.3639702155292833
 10
44.30000023500004
 20
23.7427708286196
 42
0.0
 10
44.30000023500003
 20
12.47153538399999
 42
0.4663077755622241
 10
45.23891908104429
 20
11.68368923517843
 42
0.0
 10
56.33891877713356
 20
13.64091866759023
 42
0.36397021804659
 97
        0
 92
       22
 72
     1
 73
     1
 93
        2
 10
47.074697214
 20
18.855767823
 42
-0.9999999999999988
 10
53.83930325600001
 20
18.855767823
 42
-0.9999999999999969
 97
        0
 75
     0
 76
     1
 52
90.0
 41
5.0
 77
     0
 78
     2
 53
135.0
 43
-66.55464204048246
 44
-6.600138886085038
 45
-0.4419417382415922
 46
-0.4419417382415922
 79
     0
 53
225.0
 43
-66.55464204048246
 44
-6.600138886085038
 45
0.4419417382415922
 46
-0.4419417382415923
 79
     0
 47
0.0
 98
        2
 10
51.64738812260396
 20
23.02642281741765
 10
51.64738812260396
 20
23.02642281741765
1001
ACAD
1010
0.0
1020
0.0
1030
0.0
1001
PE_URL
1000

  0
ENDSEC
  0
SECTION
  2
OBJECTS
  0
DICTIONARY
  5
C
330
0
100
AcDbDictionary
281
     1
  3
ACAD_COLOR
350
32F
  3
ACAD_DETAILVIEWSTYLE
350
22B
  3
ACAD_GROUP
350
D
  3
ACAD_LAYOUT
350
1A
  3
ACAD_MATERIAL
350
1BA
  3
ACAD_MLEADERSTYLE
350
1C8
  3
ACAD_MLINESTYLE
350
17
  3
ACAD_PLOTSETTINGS
350
19
  3
ACAD_PLOTSTYLENAME
350
E
  3
ACAD_SCALELIST
350
183
  3
ACAD_SECTIONVIEWSTYLE
350
22C
  3
ACAD_TABLESTYLE
350
211
  3
ACAD_VISUALSTYLE
350
1A9
  3
ACDB_RECOMPOSE_DATA
350
35F
  3
AcDbVariableDictionary
350
1C6
  3
APPDATA
350
214
  0
SUN
  5
263
330
17C
100
AcDbSun
 90
        1
290
     0
 63
     7
421
 16777215
 40
1.0
291
     1
 91
  2455826
 92
 54000000
292
     0
 70
     2
 71
   256
280
     1
  0
DICTIONARY
  5
215
330
2
100
AcDbDictionary
280
     1
281
     1
  3
ACAD_LAYERSTATES
360
216
  0
DICTIONARY
  5
356
330
1D
100
AcDbDictionary
280
     1
281
     1
  3
ACAD_SORTENTS
360
357
  0
DICTIONARY
  5
32F
102
{ACAD_REACTORS
330
C
102
}
330
C
100
AcDbDictionary
281
     1
  0
DICTIONARY
  5
22B
102
{ACAD_REACTORS
330
C
102
}
330
C
100
AcDbDictionary
281
     1
  0
DICTIONARY
  5
D
102
{ACAD_REACTORS
330
C
102
}
330
C
100
AcDbDictionary
281
     1
  0
DICTIONARY
  5
1A
102
{ACAD_REACTORS
330
C
102
}
330
C
100
AcDbDictionary
281
     1
  3
Layout1
350
1C
  3
Model
350
1E
  0
DICTIONARY
  5
1BA
102
{ACAD_REACTORS
330
C
102
}
330
C
100
AcDbDictionary
281
     1
  3
ByBlock
350
1BC
  3
ByLayer
350
1BB
  3
Global
350
1BD
  0
DICTIONARY
  5
1C8
102
{ACAD_REACTORS
330
C
102
}
330
C
100
AcDbDictionary
281
     1
  3
Standard
350
213
  0
DICTIONARY
  5
17
102
{ACAD_REACTORS
330
C
102
}
330
C
100
AcDbDictionary
281
     1
  3
Standard
350
18
  0
DICTIONARY
  5
19
102
{ACAD_REACTORS
330
C
102
}
330
C
100
AcDbDictionary
281
     1
  0
ACDBDICTIONARYWDFLT
  5
E
102
{ACAD_REACTORS
330
C
102
}
330
C
100
AcDbDictionary
281
     1
  3
Normal
350
F
100
AcDbDictionaryWithDefault
340
F
  0
DICTIONARY
  5
183
102
{ACAD_REACTORS
330
C
102
}
330
C
100
AcDbDictionary
281
     1
  3
A0
350
184
  3
A1
350
185
  3
A2
350
186
  3
A3
350
187
  3
A4
350
188
  3
A5
350
189
  3
A6
350
18A
  3
A7
350
18B
  3
A8
350
18C
  3
A9
350
18D
  3
B0
350
18E
  3
B1
350
18F
  3
B2
350
190
  3
B3
350
191
  3
B4
350
192
  3
B5
350
193
  3
B6
350
194
  3
B7
350
195
  3
B8
350
196
  3
B9
350
197
  3
C0
350
198
  3
C1
350
199
  3
C2
350
19A
  3
C3
350
19B
  3
C4
350
19C
  3
C5
350
19D
  3
C6
350
19E
  3
C7
350
19F
  3
C8
350
1A0
  3
C9
350
1A1
  3
D0
350
1A2
  3
D1
350
1A3
  3
D2
350
1A4
  0
DICTIONARY
  5
22C
102
{ACAD_REACTORS
330
C
102
}
330
C
100
AcDbDictionary
281
     1
  0
DICTIONARY
  5
211
102
{ACAD_REACTORS
330
C
102
}
330
C
100
AcDbDictionary
281
     1
  3
Standard
350
212
  0
DICTIONARY
  5
1A9
102
{ACAD_REACTORS
330
C
102
}
330
C
100
AcDbDictionary
281
     1
  3
2dWireframe
350
1AE
  3
3D Hidden
350
1B0
  3
3dWireframe
350
1AF
  3
Basic
350
1B1
  3
Brighten
350
1B5
  3
ColorChange
350
1B9
  3
Conceptual
350
1B3
  3
Dim
350
1B4
  3
EdgeColorOff
350
20B
  3
Facepattern
350
1B8
  3
Flat
350
1AA
  3
FlatWithEdges
350
1AB
  3
Gouraud
350
1AC
  3
GouraudWithEdges
350
1AD
  3
Hidden
350
208
  3
JitterOff
350
209
  3
Linepattern
350
1B7
  3
OverhangOff
350
20A
  3
Realistic
350
1B2
  3
Shaded
350
210
  3
Shaded with edges
350
20F
  3
Shades of Gray
350
20C
  3
Sketchy
350
20D
  3
Thicken
350
1B6
  3
Wireframe
350
207
  3
X-Ray
350
20E
  0
XRECORD
  5
35F
102
{ACAD_REACTORS
330
C
102
}
330
C
100
AcDbXrecord
280
     1
 90
        1
330
212
  0
DICTIONARY
  5
1C6
102
{ACAD_REACTORS
330
C
102
}
330
C
100
AcDbDictionary
281
     1
  3
CANNOSCALE
350
228
  3
CMLEADERSTYLE
350
22A
  3
CTABLESTYLE
350
229
  3
DIMASSOC
350
1CA
  3
HIDETEXT
350
1CB
  3
MSLTSCALE
350
1C9
  0
DICTIONARY
  5
214
102
{ACAD_REACTORS
330
C
102
}
330
C
100
AcDbDictionary
281
     1
  0
DICTIONARY
  5
216
102
{ACAD_REACTORS
330
215
102
}
330
215
100
AcDbDictionary
281
     1
  0
SORTENTSTABLE
  5
357
102
{ACAD_REACTORS
330
356
102
}
330
356
100
AcDbSortentsTable
330
1D
331
34C
  5
34E
331
34D
  5
34F
331
34E
  5
350
331
34F
  5
351
331
350
  5
352
331
351
  5
353
331
352
  5
355
331
353
  5
358
331
354
  5
359
331
0
  5
354
331
0
  5
34C
331
359
  5
34D
  0
LAYOUT
  5
1C
102
{ACAD_REACTORS
330
1A
102
}
330
1A
100
AcDbPlotSettings
  1

  2
none_device
  4

  6

 40
0.0
 41
0.0
 42
0.0
 43
0.0
 44
0.0
 45
0.0
 46
0.0
 47
0.0
 48
0.0
 49
0.0
140
0.0
141
0.0
142
1.0
143
1.0
 70
   688
 72
     0
 73
     0
 74
     5
  7

 75
    16
 76
     0
 77
     2
 78
   300
147
1.0
148
0.0
149
0.0
100
AcDbLayout
  1
Layout1
 70
     1
 71
     1
 10
0.0
 20
0.0
 11
12.0
 21
9.0
 12
0.0
 22
0.0
 32
0.0
 14
1.000000000000000E+20
 24
1.000000000000000E+20
 34
1.000000000000000E+20
 15
-1.000000000000000E+20
 25
-1.000000000000000E+20
 35
-1.000000000000000E+20
146
0.0
 13
0.0
 23
0.0
 33
0.0
 16
1.0
 26
0.0
 36
0.0
 17
0.0
 27
1.0
 37
0.0
 76
     0
330
1B
  0
LAYOUT
  5
1E
102
{ACAD_REACTORS
330
1A
102
}
330
1A
100
AcDbPlotSettings
  1

  2
none_device
  4

  6

 40
0.0
 41
0.0
 42
0.0
 43
0.0
 44
0.0
 45
0.0
 46
0.0
 47
0.0
 48
0.0
 49
0.0
140
0.0
141
0.0
142
1.0
143
1.0
 70
  1712
 72
     0
 73
     0
 74
     0
  7

 75
     0
 76
     0
 77
     2
 78
   300
147
1.0
148
0.0
149
0.0
100
AcDbLayout
  1
Model
 70
     1
 71
     0
 10
0.0
 20
0.0
 11
12.0
 21
9.0
 12
0.0
 22
0.0
 32
0.0
 14
-65.63935806020835
 24
-49.38752658514613
 34
0.0
 15
96.29506445058139
 25
48.21678287341203
 35
0.0
146
0.0
 13
0.0
 23
0.0
 33
0.0
 16
1.0
 26
0.0
 36
0.0
 17
0.0
 27
1.0
 37
0.0
 76
     0
330
1D
331
17C
  0
MATERIAL
  5
1BC
102
{ACAD_REACTORS
330
1BA
102
}
330
1BA
100
AcDbMaterial
  1
ByBlock
 72
     1
 94
      127
  0
MATERIAL
  5
1BB
102
{ACAD_REACTORS
330
1BA
102
}
330
1BA
100
AcDbMaterial
  1
ByLayer
 72
     1
 94
      127
  0
MATERIAL
  5
1BD
102
{ACAD_REACTORS
330
1BA
102
}
330
1BA
100
AcDbMaterial
  1
Global
 72
     1
 94
      127
  0
MLEADERSTYLE
  5
213
102
{ACAD_REACTORS
330
1C8
102
}
330
1C8
100
AcDbMLeaderStyle
179
     2
170
     2
171
     1
172
     0
 90
        2
 40
0.0
 41
0.0
173
     1
 91
-1056964608
340
14
 92
       -2
290
     1
 42
0.09
291
     1
 43
0.36
  3
Standard
341
0
 44
0.18
300

342
11
174
     1
178
     1
175
     1
176
     0
 93
-1056964608
 45
0.18
292
     0
297
     0
 46
0.18
343
0
 94
-1056964608
 47
1.0
 49
1.0
140
1.0
293
     1
141
0.0
294
     1
177
     0
142
1.0
295
     0
296
     0
143
0.125
271
     0
272
     9
273
     9
298
     0
  0
MLINESTYLE
  5
18
102
{ACAD_REACTORS
330
17
102
}
330
17
100
AcDbMlineStyle
  2
Standard
 70
     0
  3

 62
   256
 51
90.0
 52
90.0
 71
     2
 49
0.5
 62
   256
  6
BYLAYER
 49
-0.5
 62
   256
  6
BYLAYER
  0
ACDBPLACEHOLDER
  5
F
102
{ACAD_REACTORS
330
E
102
}
330
E
  0
SCALE
  5
184
102
{ACAD_REACTORS
330
183
102
}
330
183
100
AcDbScale
 70
     0
300
1:1
140
1.0
141
1.0
290
     1
  0
SCALE
  5
185
102
{ACAD_REACTORS
330
183
102
}
330
183
100
AcDbScale
 70
     0
300
1:2
140
1.0
141
2.0
290
     0
  0
SCALE
  5
186
102
{ACAD_REACTORS
330
183
102
}
330
183
100
AcDbScale
 70
     0
300
1:4
140
1.0
141
4.0
290
     0
  0
SCALE
  5
187
102
{ACAD_REACTORS
330
183
102
}
330
183
100
AcDbScale
 70
     0
300
1:5
140
1.0
141
5.0
290
     0
  0
SCALE
  5
188
102
{ACAD_REACTORS
330
183
102
}
330
183
100
AcDbScale
 70
     0
300
1:8
140
1.0
141
8.0
290
     0
  0
SCALE
  5
189
102
{ACAD_REACTORS
330
183
102
}
330
183
100
AcDbScale
 70
     0
300
1:10
140
1.0
141
10.0
290
     0
  0
SCALE
  5
18A
102
{ACAD_REACTORS
330
183
102
}
330
183
100
AcDbScale
 70
     0
300
1:16
140
1.0
141
16.0
290
     0
  0
SCALE
  5
18B
102
{ACAD_REACTORS
330
183
102
}
330
183
100
AcDbScale
 70
     0
300
1:20
140
1.0
141
20.0
290
     0
  0
SCALE
  5
18C
102
{ACAD_REACTORS
330
183
102
}
330
183
100
AcDbScale
 70
     0
300
1:30
140
1.0
141
30.0
290
     0
  0
SCALE
  5
18D
102
{ACAD_REACTORS
330
183
102
}
330
183
100
AcDbScale
 70
     0
300
1:40
140
1.0
141
40.0
290
     0
  0
SCALE
  5
18E
102
{ACAD_REACTORS
330
183
102
}
330
183
100
AcDbScale
 70
     0
300
1:50
140
1.0
141
50.0
290
     0
  0
SCALE
  5
18F
102
{ACAD_REACTORS
330
183
102
}
330
183
100
AcDbScale
 70
     0
300
1:100
140
1.0
141
100.0
290
     0
  0
SCALE
  5
190
102
{ACAD_REACTORS
330
183
102
}
330
183
100
AcDbScale
 70
     0
300
2:1
140
2.0
141
1.0
290
     0
  0
SCALE
  5
191
102
{ACAD_REACTORS
330
183
102
}
330
183
100
AcDbScale
 70
     0
300
4:1
140
4.0
141
1.0
290
     0
  0
SCALE
  5
192
102
{ACAD_REACTORS
330
183
102
}
330
183
100
AcDbScale
 70
     0
300
8:1
140
8.0
141
1.0
290
     0
  0
SCALE
  5
193
102
{ACAD_REACTORS
330
183
102
}
330
183
100
AcDbScale
 70
     0
300
10:1
140
10.0
141
1.0
290
     0
  0
SCALE
  5
194
102
{ACAD_REACTORS
330
183
102
}
330
183
100
AcDbScale
 70
     0
300
100:1
140
100.0
141
1.0
290
     0
  0
SCALE
  5
195
102
{ACAD_REACTORS
330
183
102
}
330
183
100
AcDbScale
 70
     0
300
1/128" = 1'-0"
140
0.0078125
141
12.0
290
     0
  0
SCALE
  5
196
102
{ACAD_REACTORS
330
183
102
}
330
183
100
AcDbScale
 70
     0
300
1/64" = 1'-0"
140
0.015625
141
12.0
290
     0
  0
SCALE
  5
197
102
{ACAD_REACTORS
330
183
102
}
330
183
100
AcDbScale
 70
     0
300
1/32" = 1'-0"
140
0.03125
141
12.0
290
     0
  0
SCALE
  5
198
102
{ACAD_REACTORS
330
183
102
}
330
183
100
AcDbScale
 70
     0
300
1/16" = 1'-0"
140
0.0625
141
12.0
290
     0
  0
SCALE
  5
199
102
{ACAD_REACTORS
330
183
102
}
330
183
100
AcDbScale
 70
     0
300
3/32" = 1'-0"
140
0.09375
141
12.0
290
     0
  0
SCALE
  5
19A
102
{ACAD_REACTORS
330
183
102
}
330
183
100
AcDbScale
 70
     0
300
1/8" = 1'-0"
140
0.125
141
12.0
290
     0
  0
SCALE
  5
19B
102
{ACAD_REACTORS
330
183
102
}
330
183
100
AcDbScale
 70
     0
300
3/16" = 1'-0"
140
0.1875
141
12.0
290
     0
  0
SCALE
  5
19C
102
{ACAD_REACTORS
330
183
102
}
330
183
100
AcDbScale
 70
     0
300
1/4" = 1'-0"
140
0.25
141
12.0
290
     0
  0
SCALE
  5
19D
102
{ACAD_REACTORS
330
183
102
}
330
183
100
AcDbScale
 70
     0
300
3/8" = 1'-0"
140
0.375
141
12.0
290
     0
  0
SCALE
  5
19E
102
{ACAD_REACTORS
330
183
102
}
330
183
100
AcDbScale
 70
     0
300
1/2" = 1'-0"
140
0.5
141
12.0
290
     0
  0
SCALE
  5
19F
102
{ACAD_REACTORS
330
183
102
}
330
183
100
AcDbScale
 70
     0
300
3/4" = 1'-0"
140
0.75
141
12.0
290
     0
  0
SCALE
  5
1A0
102
{ACAD_REACTORS
330
183
102
}
330
183
100
AcDbScale
 70
     0
300
1" = 1'-0"
140
1.0
141
12.0
290
     0
  0
SCALE
  5
1A1
102
{ACAD_REACTORS
330
183
102
}
330
183
100
AcDbScale
 70
     0
300
1-1/2" = 1'-0"
140
1.5
141
12.0
290
     0
  0
SCALE
  5
1A2
102
{ACAD_REACTORS
330
183
102
}
330
183
100
AcDbScale
 70
     0
300
3" = 1'-0"
140
3.0
141
12.0
290
     0
  0
SCALE
  5
1A3
102
{ACAD_REACTORS
330
183
102
}
330
183
100
AcDbScale
 70
     0
300
6" = 1'-0"
140
6.0
141
12.0
290
     0
  0
SCALE
  5
1A4
102
{ACAD_REACTORS
330
183
102
}
330
183
100
AcDbScale
 70
     0
300
1'-0" = 1'-0"
140
12.0
141
12.0
290
     0
  0
TABLESTYLE
  5
212
102
{ACAD_REACTORS
330
211
102
}
102
{ACAD_XDICTIONARY
360
35D
102
}
330
211
100
AcDbTableStyle
  3
Standard
 70
     0
 71
     0
 40
0.06
 41
0.06
280
     0
281
     0
  7
Standard
140
0.18
170
     2
 62
     0
 63
   257
283
     0
 90
        4
 91
        0
  1

274
    -2
284
     1
 64
     0
275
    -2
285
     1
 65
     0
276
    -2
286
     1
 66
     0
277
    -2
287
     1
 67
     0
278
    -2
288
     1
 68
     0
279
    -2
289
     1
 69
     0
  7
Standard
140
0.25
170
     5
 62
     0
 63
   257
283
     0
 90
        4
 91
        0
  1

274
    -2
284
     1
 64
     0
275
    -2
285
     1
 65
     0
276
    -2
286
     1
 66
     0
277
    -2
287
     1
 67
     0
278
    -2
288
     1
 68
     0
279
    -2
289
     1
 69
     0
  7
Standard
140
0.18
170
     5
 62
     0
 63
   257
283
     0
 90
        4
 91
        0
  1

274
    -2
284
     1
 64
     0
275
    -2
285
     1
 65
     0
276
    -2
286
     1
 66
     0
277
    -2
287
     1
 67
     0
278
    -2
288
     1
 68
     0
279
    -2
289
     1
 69
     0
  0
VISUALSTYLE
  5
1AE
102
{ACAD_REACTORS
330
1A9
102
}
330
1A9
100
AcDbVisualStyle
  2
2dWireframe
 70
     4
177
     3
291
     0
 70
    58
 90
        0
176
     1
 90
        2
176
     1
 90
        0
176
     1
 90
        0
176
     1
 40
-0.6
176
     1
 40
-30.0
176
     1
 62
     7
176
     1
 90
        1
176
     1
 90
        4
176
     1
 62
     7
176
     1
 62
   257
176
     1
 90
        1
176
     1
 90
        1
176
     1
 40
1.0
176
     1
 90
        0
176
     1
 62
   257
176
     1
 40
1.0
176
     1
 90
        1
176
     1
 90
        6
176
     1
 90
        2
176
     1
 62
     7
176
     1
 90
        5
176
     1
 90
        0
176
     1
 90
        0
176
     1
290
     0
176
     1
 90
        1
176
     1
 40
0.0
176
     1
 90
        0
176
     1
290
     1
176
     1
290
     1
176
     1
290
     0
176
     1
290
     0
176
     1
290
     0
176
     1
290
     0
176
     1
290
     0
176
     1
290
     0
176
     1
290
     0
176
     1
 90
       50
176
     1
 40
0.0
176
     1
 40
1.0
176
     1
 90
        0
176
     1
 62
    18
420
        0
176
     1
 90
       50
176
     1
 90
        3
176
     1
 62
     5
420
      255
176
     1
290
     0
176
     1
 90
       50
176
     1
 90
       50
176
     1
 90
       50
176
     1
290
     0
176
     1
 90
       50
176
     1
 62
   256
176
     0
 40
1.0
176
     0
 90
        2
176
     1
  1
strokes_ogs.tif
176
     1
290
     0
176
     1
 40
1.0
176
     1
 40
1.0
176
     1
  0
VISUALSTYLE
  5
1B0
102
{ACAD_REACTORS
330
1A9
102
}
330
1A9
100
AcDbVisualStyle
  2
3D Hidden
 70
     6
177
     3
291
     0
 70
    58
 90
        1
176
     1
 90
        2
176
     1
 90
        2
176
     1
 90
        0
176
     1
 40
-0.6
176
     1
 40
-30.0
176
     1
 62
     7
176
     1
 90
        2
176
     1
 90
        2
176
     1
 62
     7
176
     1
 62
   257
176
     1
 90
        2
176
     1
 90
        1
176
     1
 40
40.0
176
     1
 90
        0
176
     1
 62
   257
176
     1
 40
1.0
176
     1
 90
        1
176
     1
 90
        6
176
     1
 90
        2
176
     1
 62
     7
176
     1
 90
        3
176
     1
 90
        0
176
     1
 90
        0
176
     1
290
     0
176
     1
 90
        1
176
     1
 40
0.0
176
     1
 90
        0
176
     1
290
     0
176
     1
290
     1
176
     1
290
     1
176
     1
290
     0
176
     1
290
     0
176
     1
290
     0
176
     1
290
     0
176
     1
290
     0
176
     1
290
     0
176
     1
 90
       50
176
     1
 40
0.0
176
     1
 40
1.0
176
     1
 90
        0
176
     1
 62
    18
420
        0
176
     1
 90
       50
176
     1
 90
        3
176
     1
 62
     5
420
      255
176
     1
290
     0
176
     1
 90
       50
176
     1
 90
       50
176
     1
 90
       50
176
     1
290
     0
176
     1
 90
       50
176
     1
 62
   256
176
     0
 40
1.0
176
     0
 90
        2
176
     1
  1
strokes_ogs.tif
176
     1
290
     0
176
     1
 40
1.0
176
     1
 40
1.0
176
     1
  0
VISUALSTYLE
  5
1AF
102
{ACAD_REACTORS
330
1A9
102
}
330
1A9
100
AcDbVisualStyle
  2
3dWireframe
 70
     5
177
     3
291
     0
 70
    58
 90
        0
176
     1
 90
        2
176
     1
 90
        0
176
     1
 90
        0
176
     1
 40
-0.6
176
     1
 40
-30.0
176
     1
 62
     7
176
     1
 90
        1
176
     1
 90
        4
176
     1
 62
     7
176
     1
 62
   257
176
     1
 90
        1
176
     1
 90
        1
176
     1
 40
1.0
176
     1
 90
        0
176
     1
 62
   257
176
     1
 40
1.0
176
     1
 90
        1
176
     1
 90
        6
176
     1
 90
        2
176
     1
 62
     7
176
     1
 90
        5
176
     1
 90
        0
176
     1
 90
        0
176
     1
290
     0
176
     1
 90
        1
176
     1
 40
0.0
176
     1
 90
        0
176
     1
290
     0
176
     1
290
     1
176
     1
290
     1
176
     1
290
     0
176
     1
290
     0
176
     1
290
     0
176
     1
290
     0
176
     1
290
     0
176
     1
290
     0
176
     1
 90
       50
176
     1
 40
0.0
176
     1
 40
1.0
176
     1
 90
        0
176
     1
 62
    18
420
        0
176
     1
 90
       50
176
     1
 90
        3
176
     1
 62
     5
420
      255
176
     1
290
     0
176
     1
 90
       50
176
     1
 90
       50
176
     1
 90
       50
176
     1
290
     0
176
     1
 90
       50
176
     1
 62
   256
176
     0
 40
1.0
176
     0
 90
        2
176
     1
  1
strokes_ogs.tif
176
     1
290
     0
176
     1
 40
1.0
176
     1
 40
1.0
176
     1
  0
VISUALSTYLE
  5
1B1
102
{ACAD_REACTORS
330
1A9
102
}
330
1A9
100
AcDbVisualStyle
  2
Basic
 70
     7
177
     3
291
     1
 70
    58
 90
        1
176
     1
 90
        0
176
     1
 90
        1
176
     1
 90
        0
176
     1
 40
-0.6
176
     1
 40
-30.0
176
     1
 62
     7
176
     1
 90
        0
176
     1
 90
        4
176
     1
 62
     7
176
     1
 62
   257
176
     1
 90
        1
176
     1
 90
        1
176
     1
 40
1.0
176
     1
 90
        8
176
     1
 62
     7
176
     1
 40
1.0
176
     1
 90
        1
176
     1
 90
        6
176
     1
 90
        2
176
     1
 62
     7
176
     1
 90
        5
176
     1
 90
        0
176
     1
 90
        0
176
     1
290
     0
176
     1
 90
        1
176
     1
 40
0.0
176
     1
 90
        0
176
     1
290
     0
176
     1
290
     1
176
     1
290
     1
176
     1
290
     0
176
     1
290
     0
176
     1
290
     0
176
     1
290
     0
176
     1
290
     0
176
     1
290
     0
176
     1
 90
       50
176
     1
 40
0.0
176
     1
 40
1.0
176
     1
 90
        0
176
     1
 62
    18
420
        0
176
     1
 90
       50
176
     1
 90
        3
176
     1
 62
     5
420
      255
176
     1
290
     0
176
     1
 90
       50
176
     1
 90
       50
176
     1
 90
       50
176
     1
290
     0
176
     1
 90
       50
176
     1
 62
   256
176
     0
 40
1.0
176
     0
 90
        2
176
     1
  1
strokes_ogs.tif
176
     1
290
     0
176
     1
 40
1.0
176
     1
 40
1.0
176
     1
  0
VISUALSTYLE
  5
1B5
102
{ACAD_REACTORS
330
1A9
102
}
330
1A9
100
AcDbVisualStyle
  2
Brighten
 70
    12
177
     3
291
     1
 70
    58
 90
        2
176
     1
 90
        2
176
     1
 90
        0
176
     1
 90
        0
176
     1
 40
-0.6
176
     1
 40
-30.0
176
     1
 62
     7
176
     1
 90
        1
176
     1
 90
        4
176
     1
 62
     7
176
     1
 62
   257
176
     1
 90
        1
176
     1
 90
        1
176
     1
 40
1.0
176
     1
 90
        8
176
     1
 62
     7
176
     1
 40
1.0
176
     1
 90
        1
176
     1
 90
        6
176
     1
 90
        2
176
     1
 62
     7
176
     1
 90
        5
176
     1
 90
        0
176
     1
 90
        0
176
     1
290
     0
176
     1
 90
        1
176
     1
 40
50.0
176
     1
 90
        0
176
     1
290
     0
176
     1
290
     1
176
     1
290
     1
176
     1
290
     0
176
     1
290
     0
176
     1
290
     0
176
     1
290
     0
176
     1
290
     0
176
     1
290
     0
176
     1
 90
       50
176
     1
 40
0.0
176
     1
 40
1.0
176
     1
 90
        0
176
     1
 62
    18
420
        0
176
     1
 90
       50
176
     1
 90
        3
176
     1
 62
     5
420
      255
176
     1
290
     0
176
     1
 90
       50
176
     1
 90
       50
176
     1
 90
       50
176
     1
290
     0
176
     1
 90
       50
176
     1
 62
   256
176
     0
 40
1.0
176
     0
 90
        2
176
     1
  1
strokes_ogs.tif
176
     1
290
     0
176
     1
 40
1.0
176
     1
 40
1.0
176
     1
  0
VISUALSTYLE
  5
1B9
102
{ACAD_REACTORS
330
1A9
102
}
330
1A9
100
AcDbVisualStyle
  2
ColorChange
 70
    16
177
     3
291
     1
 70
    58
 90
        2
176
     1
 90
        2
176
     1
 90
        3
176
     1
 90
        0
176
     1
 40
-0.6
176
     1
 40
-30.0
176
     1
 62
     8
176
     1
 90
        1
176
     1
 90
        4
176
     1
 62
     7
176
     1
 62
   257
176
     1
 90
        1
176
     1
 90
        1
176
     1
 40
1.0
176
     1
 90
        8
176
     1
 62
     8
176
     1
 40
1.0
176
     1
 90
        1
176
     1
 90
        6
176
     1
 90
        2
176
     1
 62
     7
176
     1
 90
        5
176
     1
 90
        0
176
     1
 90
        0
176
     1
290
     0
176
     1
 90
        1
176
     1
 40
0.0
176
     1
 90
        0
176
     1
290
     0
176
     1
290
     1
176
     1
290
     1
176
     1
290
     0
176
     1
290
     0
176
     1
290
     0
176
     1
290
     0
176
     1
290
     0
176
     1
290
     0
176
     1
 90
       50
176
     1
 40
0.0
176
     1
 40
1.0
176
     1
 90
        0
176
     1
 62
    18
420
        0
176
     1
 90
       50
176
     1
 90
        3
176
     1
 62
     5
420
      255
176
     1
290
     0
176
     1
 90
       50
176
     1
 90
       50
176
     1
 90
       50
176
     1
290
     0
176
     1
 90
       50
176
     1
 62
   256
176
     0
 40
1.0
176
     0
 90
        2
176
     1
  1
strokes_ogs.tif
176
     1
290
     0
176
     1
 40
1.0
176
     1
 40
1.0
176
     1
  0
VISUALSTYLE
  5
1B3
102
{ACAD_REACTORS
330
1A9
102
}
330
1A9
100
AcDbVisualStyle
  2
Conceptual
 70
     9
177
     3
291
     0
 70
    58
 90
        3
176
     1
 90
        2
176
     1
 90
        0
176
     1
 90
        0
176
     1
 40
-0.6
176
     1
 40
-30.0
176
     1
 62
     7
176
     1
 90
        2
176
     1
 90
        2
176
     1
 62
     7
176
     1
 62
   257
176
     1
 90
        1
176
     1
 90
        1
176
     1
 40
40.0
176
     1
 90
        8
176
     1
 62
     7
176
     1
 40
1.0
176
     1
 90
        1
176
     1
 90
        6
176
     1
 90
        2
176
     1
 62
     7
176
     1
 90
        3
176
     1
 90
        0
176
     1
 90
        0
176
     1
290
     0
176
     1
 90
        1
176
     1
 40
0.0
176
     1
 90
        0
176
     1
290
     0
176
     1
290
     1
176
     1
290
     1
176
     1
290
     0
176
     1
290
     0
176
     1
290
     0
176
     1
290
     0
176
     1
290
     0
176
     1
290
     0
176
     1
 90
       50
176
     1
 40
0.0
176
     1
 40
1.0
176
     1
 90
        0
176
     1
 62
    18
420
        0
176
     1
 90
       50
176
     1
 90
        3
176
     1
 62
     5
420
      255
176
     1
290
     0
176
     1
 90
       50
176
     1
 90
       50
176
     1
 90
       50
176
     1
290
     0
176
     1
 90
       50
176
     1
 62
   256
176
     0
 40
1.0
176
     0
 90
        2
176
     1
  1
strokes_ogs.tif
176
     1
290
     0
176
     1
 40
1.0
176
     1
 40
1.0
176
     1
  0
VISUALSTYLE
  5
1B4
102
{ACAD_REACTORS
330
1A9
102
}
330
1A9
100
AcDbVisualStyle
  2
Dim
 70
    11
177
     3
291
     1
 70
    58
 90
        2
176
     1
 90
        2
176
     1
 90
        0
176
     1
 90
        0
176
     1
 40
-0.6
176
     1
 40
-30.0
176
     1
 62
     7
176
     1
 90
        1
176
     1
 90
        4
176
     1
 62
     7
176
     1
 62
   257
176
     1
 90
        1
176
     1
 90
        1
176
     1
 40
1.0
176
     1
 90
        8
176
     1
 62
     7
176
     1
 40
1.0
176
     1
 90
        1
176
     1
 90
        6
176
     1
 90
        2
176
     1
 62
     7
176
     1
 90
        5
176
     1
 90
        0
176
     1
 90
        0
176
     1
290
     0
176
     1
 90
        1
176
     1
 40
-50.0
176
     1
 90
        0
176
     1
290
     0
176
     1
290
     1
176
     1
290
     1
176
     1
290
     0
176
     1
290
     0
176
     1
290
     0
176
     1
290
     0
176
     1
290
     0
176
     1
290
     0
176
     1
 90
       50
176
     1
 40
0.0
176
     1
 40
1.0
176
     1
 90
        0
176
     1
 62
    18
420
        0
176
     1
 90
       50
176
     1
 90
        3
176
     1
 62
     5
420
      255
176
     1
290
     0
176
     1
 90
       50
176
     1
 90
       50
176
     1
 90
       50
176
     1
290
     0
176
     1
 90
       50
176
     1
 62
   256
176
     0
 40
1.0
176
     0
 90
        2
176
     1
  1
strokes_ogs.tif
176
     1
290
     0
176
     1
 40
1.0
176
     1
 40
1.0
176
     1
  0
VISUALSTYLE
  5
20B
102
{ACAD_REACTORS
330
1A9
102
}
330
1A9
100
AcDbVisualStyle
  2
EdgeColorOff
 70
    22
177
     3
291
     1
 70
    58
 90
        2
176
     0
 90
        2
176
     0
 90
        0
176
     0
 90
        0
176
     0
 40
0.6
176
     0
 40
30.0
176
     0
 62
     7
420
 16777215
176
     0
 90
        1
176
     0
 90
        4
176
     0
 62
     7
176
     0
 62
   257
176
     0
 90
        1
176
     0
 90
        1
176
     0
 40
1.0
176
     0
 90
        8
176
     2
 62
     7
176
     0
 40
1.0
176
     0
 90
        1
176
     0
 90
        6
176
     0
 90
        2
176
     0
 62
     7
176
     0
 90
        5
176
     0
 90
        0
176
     0
 90
        0
176
     0
290
     0
176
     0
 90
        1
176
     0
 40
0.0
176
     0
 90
        0
176
     0
290
     0
176
     0
290
     1
176
     0
290
     1
176
     0
290
     0
176
     0
290
     0
176
     0
290
     0
176
     0
290
     0
176
     0
290
     0
176
     0
290
     0
176
     0
 90
       50
176
     0
 40
0.0
176
     0
 40
1.0
176
     0
 90
        0
176
     0
 62
    18
420
        0
176
     0
 90
       50
176
     0
 90
        3
176
     0
 62
     5
420
      255
176
     0
290
     0
176
     0
 90
       50
176
     0
 90
       50
176
     0
 90
       50
176
     0
290
     0
176
     0
 90
       50
176
     0
 62
   256
176
     0
 40
1.0
176
     0
 90
        2
176
     0
  1
strokes_ogs.tif
176
     0
290
     0
176
     0
 40
1.0
176
     0
 40
1.0
176
     0
  0
VISUALSTYLE
  5
1B8
102
{ACAD_REACTORS
330
1A9
102
}
330
1A9
100
AcDbVisualStyle
  2
Facepattern
 70
    15
177
     3
291
     1
 70
    58
 90
        2
176
     1
 90
        2
176
     1
 90
        0
176
     1
 90
        0
176
     1
 40
-0.6
176
     1
 40
-30.0
176
     1
 62
     7
176
     1
 90
        1
176
     1
 90
        4
176
     1
 62
     7
176
     1
 62
   257
176
     1
 90
        1
176
     1
 90
        1
176
     1
 40
1.0
176
     1
 90
        8
176
     1
 62
     7
176
     1
 40
1.0
176
     1
 90
        1
176
     1
 90
        6
176
     1
 90
        2
176
     1
 62
     7
176
     1
 90
        5
176
     1
 90
        0
176
     1
 90
        0
176
     1
290
     0
176
     1
 90
        1
176
     1
 40
0.0
176
     1
 90
        0
176
     1
290
     0
176
     1
290
     1
176
     1
290
     1
176
     1
290
     0
176
     1
290
     0
176
     1
290
     0
176
     1
290
     0
176
     1
290
     0
176
     1
290
     0
176
     1
 90
       50
176
     1
 40
0.0
176
     1
 40
1.0
176
     1
 90
        0
176
     1
 62
    18
420
        0
176
     1
 90
       50
176
     1
 90
        3
176
     1
 62
     5
420
      255
176
     1
290
     0
176
     1
 90
       50
176
     1
 90
       50
176
     1
 90
       50
176
     1
290
     0
176
     1
 90
       50
176
     1
 62
   256
176
     0
 40
1.0
176
     0
 90
        2
176
     1
  1
strokes_ogs.tif
176
     1
290
     0
176
     1
 40
1.0
176
     1
 40
1.0
176
     1
  0
VISUALSTYLE
  5
1AA
102
{ACAD_REACTORS
330
1A9
102
}
330
1A9
100
AcDbVisualStyle
  2
Flat
 70
     0
177
     3
291
     1
 70
    58
 90
        2
176
     1
 90
        1
176
     1
 90
        1
176
     1
 90
        2
176
     1
 40
-0.6
176
     1
 40
30.0
176
     1
 62
     7
176
     1
 90
        0
176
     1
 90
        4
176
     1
 62
     7
176
     1
 62
   257
176
     1
 90
        1
176
     1
 90
        1
176
     1
 40
1.0
176
     1
 90
        8
176
     1
 62
     7
176
     1
 40
1.0
176
     1
 90
        1
176
     1
 90
        6
176
     1
 90
        2
176
     1
 62
     7
176
     1
 90
        5
176
     1
 90
        0
176
     1
 90
        0
176
     1
290
     0
176
     1
 90
       13
176
     1
 40
0.0
176
     1
 90
        0
176
     1
290
     0
176
     1
290
     1
176
     1
290
     1
176
     1
290
     0
176
     1
290
     0
176
     1
290
     0
176
     1
290
     0
176
     1
290
     0
176
     1
290
     0
176
     1
 90
       50
176
     1
 40
0.0
176
     1
 40
1.0
176
     1
 90
        0
176
     1
 62
    18
420
        0
176
     1
 90
       50
176
     1
 90
        3
176
     1
 62
     5
420
      255
176
     1
290
     0
176
     1
 90
       50
176
     1
 90
       50
176
     1
 90
       50
176
     1
290
     0
176
     1
 90
       50
176
     1
 62
   256
176
     0
 40
1.0
176
     0
 90
        2
176
     1
  1
strokes_ogs.tif
176
     1
290
     0
176
     1
 40
1.0
176
     1
 40
1.0
176
     1
  0
VISUALSTYLE
  5
1AB
102
{ACAD_REACTORS
330
1A9
102
}
330
1A9
100
AcDbVisualStyle
  2
FlatWithEdges
 70
     1
177
     3
291
     1
 70
    58
 90
        2
176
     1
 90
        1
176
     1
 90
        1
176
     1
 90
        2
176
     1
 40
-0.6
176
     1
 40
30.0
176
     1
 62
     7
176
     1
 90
        1
176
     1
 90
        4
176
     1
 62
     7
176
     1
 62
   257
176
     1
 90
        1
176
     1
 90
        1
176
     1
 40
1.0
176
     1
 90
        0
176
     1
 62
   257
176
     1
 40
1.0
176
     1
 90
        1
176
     1
 90
        6
176
     1
 90
        2
176
     1
 62
     7
176
     1
 90
        5
176
     1
 90
        0
176
     1
 90
        0
176
     1
290
     0
176
     1
 90
       13
176
     1
 40
0.0
176
     1
 90
        0
176
     1
290
     0
176
     1
290
     1
176
     1
290
     1
176
     1
290
     0
176
     1
290
     0
176
     1
290
     0
176
     1
290
     0
176
     1
290
     0
176
     1
290
     0
176
     1
 90
       50
176
     1
 40
0.0
176
     1
 40
1.0
176
     1
 90
        0
176
     1
 62
    18
420
        0
176
     1
 90
       50
176
     1
 90
        3
176
     1
 62
     5
420
      255
176
     1
290
     0
176
     1
 90
       50
176
     1
 90
       50
176
     1
 90
       50
176
     1
290
     0
176
     1
 90
       50
176
     1
 62
   256
176
     0
 40
1.0
176
     0
 90
        2
176
     1
  1
strokes_ogs.tif
176
     1
290
     0
176
     1
 40
1.0
176
     1
 40
1.0
176
     1
  0
VISUALSTYLE
  5
1AC
102
{ACAD_REACTORS
330
1A9
102
}
330
1A9
100
AcDbVisualStyle
  2
Gouraud
 70
     2
177
     3
291
     1
 70
    58
 90
        2
176
     1
 90
        2
176
     1
 90
        1
176
     1
 90
        2
176
     1
 40
-0.6
176
     1
 40
30.0
176
     1
 62
     7
176
     1
 90
        0
176
     1
 90
        4
176
     1
 62
     7
176
     1
 62
   257
176
     1
 90
        1
176
     1
 90
        1
176
     1
 40
1.0
176
     1
 90
        0
176
     1
 62
     7
176
     1
 40
1.0
176
     1
 90
        1
176
     1
 90
        6
176
     1
 90
        2
176
     1
 62
     7
176
     1
 90
        5
176
     1
 90
        0
176
     1
 90
        0
176
     1
290
     0
176
     1
 90
       13
176
     1
 40
0.0
176
     1
 90
        0
176
     1
290
     0
176
     1
290
     1
176
     1
290
     1
176
     1
290
     0
176
     1
290
     0
176
     1
290
     0
176
     1
290
     0
176
     1
290
     0
176
     1
290
     0
176
     1
 90
       50
176
     1
 40
0.0
176
     1
 40
1.0
176
     1
 90
        0
176
     1
 62
    18
420
        0
176
     1
 90
       50
176
     1
 90
        3
176
     1
 62
     5
420
      255
176
     1
290
     0
176
     1
 90
       50
176
     1
 90
       50
176
     1
 90
       50
176
     1
290
     0
176
     1
 90
       50
176
     1
 62
   256
176
     0
 40
1.0
176
     0
 90
        2
176
     1
  1
strokes_ogs.tif
176
     1
290
     0
176
     1
 40
1.0
176
     1
 40
1.0
176
     1
  0
VISUALSTYLE
  5
1AD
102
{ACAD_REACTORS
330
1A9
102
}
330
1A9
100
AcDbVisualStyle
  2
GouraudWithEdges
 70
     3
177
     3
291
     1
 70
    58
 90
        2
176
     1
 90
        2
176
     1
 90
        1
176
     1
 90
        2
176
     1
 40
-0.6
176
     1
 40
30.0
176
     1
 62
     7
176
     1
 90
        1
176
     1
 90
        4
176
     1
 62
     7
176
     1
 62
   257
176
     1
 90
        1
176
     1
 90
        1
176
     1
 40
1.0
176
     1
 90
        0
176
     1
 62
   257
176
     1
 40
1.0
176
     1
 90
        1
176
     1
 90
        6
176
     1
 90
        2
176
     1
 62
     7
176
     1
 90
        5
176
     1
 90
        0
176
     1
 90
        0
176
     1
290
     0
176
     1
 90
       13
176
     1
 40
0.0
176
     1
 90
        0
176
     1
290
     0
176
     1
290
     1
176
     1
290
     1
176
     1
290
     0
176
     1
290
     0
176
     1
290
     0
176
     1
290
     0
176
     1
290
     0
176
     1
290
     0
176
     1
 90
       50
176
     1
 40
0.0
176
     1
 40
1.0
176
     1
 90
        0
176
     1
 62
    18
420
        0
176
     1
 90
       50
176
     1
 90
        3
176
     1
 62
     5
420
      255
176
     1
290
     0
176
     1
 90
       50
176
     1
 90
       50
176
     1
 90
       50
176
     1
290
     0
176
     1
 90
       50
176
     1
 62
   256
176
     0
 40
1.0
176
     0
 90
        2
176
     1
  1
strokes_ogs.tif
176
     1
290
     0
176
     1
 40
1.0
176
     1
 40
1.0
176
     1
  0
VISUALSTYLE
  5
208
102
{ACAD_REACTORS
330
1A9
102
}
330
1A9
100
AcDbVisualStyle
  2
Hidden
 70
     6
177
     3
291
     0
 70
    58
 90
        1
176
     1
 90
        2
176
     1
 90
        2
176
     1
 90
        0
176
     1
 40
0.6
176
     1
 40
30.0
176
     1
 62
     7
420
 16777215
176
     1
 90
        2
176
     1
 90
        2
176
     1
 62
     7
176
     1
 62
   257
176
     1
 90
        2
176
     1
 90
        1
176
     1
 40
40.0
176
     1
 90
        0
176
     1
 62
   257
176
     1
 40
1.0
176
     1
 90
        1
176
     1
 90
        6
176
     1
 90
        2
176
     1
 62
     7
176
     1
 90
        3
176
     1
 90
        0
176
     1
 90
        0
176
     1
290
     0
176
     1
 90
        1
176
     1
 40
0.0
176
     1
 90
        0
176
     1
290
     0
176
     1
290
     1
176
     1
290
     1
176
     1
290
     0
176
     1
290
     0
176
     1
290
     0
176
     1
290
     0
176
     1
290
     0
176
     1
290
     0
176
     1
 90
       50
176
     1
 40
0.0
176
     1
 40
1.0
176
     1
 90
        0
176
     1
 62
    18
420
        0
176
     1
 90
       50
176
     1
 90
        3
176
     1
 62
     5
420
      255
176
     1
290
     0
176
     1
 90
       50
176
     1
 90
       50
176
     1
 90
       50
176
     1
290
     0
176
     1
 90
       50
176
     1
 62
   256
176
     0
 40
1.0
176
     0
 90
        2
176
     1
  1
strokes_ogs.tif
176
     1
290
     0
176
     1
 40
1.0
176
     1
 40
1.0
176
     1
  0
VISUALSTYLE
  5
209
102
{ACAD_REACTORS
330
1A9
102
}
330
1A9
100
AcDbVisualStyle
  2
JitterOff
 70
    20
177
     3
291
     1
 70
    58
 90
        2
176
     0
 90
        2
176
     0
 90
        0
176
     0
 90
        0
176
     0
 40
0.6
176
     0
 40
30.0
176
     0
 62
     7
420
 16777215
176
     0
 90
        1
176
     0
 90
        4
176
     0
 62
     7
176
     0
 62
   257
176
     0
 90
        1
176
     0
 90
        1
176
     0
 40
1.0
176
     0
 90
       10
176
     2
 62
     7
176
     0
 40
1.0
176
     0
 90
        1
176
     0
 90
        6
176
     0
 90
        2
176
     0
 62
     7
176
     0
 90
        5
176
     0
 90
        0
176
     0
 90
        0
176
     0
290
     0
176
     0
 90
        1
176
     0
 40
0.0
176
     0
 90
        0
176
     0
290
     0
176
     0
290
     1
176
     0
290
     1
176
     0
290
     0
176
     0
290
     0
176
     0
290
     0
176
     0
290
     0
176
     0
290
     0
176
     0
290
     0
176
     0
 90
       50
176
     0
 40
0.0
176
     0
 40
1.0
176
     0
 90
        0
176
     0
 62
    18
420
        0
176
     0
 90
       50
176
     0
 90
        3
176
     0
 62
     5
420
      255
176
     0
290
     0
176
     0
 90
       50
176
     0
 90
       50
176
     0
 90
       50
176
     0
290
     0
176
     0
 90
       50
176
     0
 62
   256
176
     0
 40
1.0
176
     0
 90
        2
176
     0
  1
strokes_ogs.tif
176
     0
290
     0
176
     0
 40
1.0
176
     0
 40
1.0
176
     0
  0
VISUALSTYLE
  5
1B7
102
{ACAD_REACTORS
330
1A9
102
}
330
1A9
100
AcDbVisualStyle
  2
Linepattern
 70
    14
177
     3
291
     1
 70
    58
 90
        2
176
     1
 90
        2
176
     1
 90
        0
176
     1
 90
        0
176
     1
 40
-0.6
176
     1
 40
-30.0
176
     1
 62
     7
176
     1
 90
        1
176
     1
 90
        4
176
     1
 62
     7
176
     1
 62
   257
176
     1
 90
        7
176
     1
 90
        7
176
     1
 40
1.0
176
     1
 90
        8
176
     1
 62
     7
176
     1
 40
1.0
176
     1
 90
        1
176
     1
 90
        6
176
     1
 90
        2
176
     1
 62
     7
176
     1
 90
        5
176
     1
 90
        0
176
     1
 90
        0
176
     1
290
     0
176
     1
 90
        1
176
     1
 40
0.0
176
     1
 90
        0
176
     1
290
     0
176
     1
290
     1
176
     1
290
     1
176
     1
290
     0
176
     1
290
     0
176
     1
290
     0
176
     1
290
     0
176
     1
290
     0
176
     1
290
     0
176
     1
 90
       50
176
     1
 40
0.0
176
     1
 40
1.0
176
     1
 90
        0
176
     1
 62
    18
420
        0
176
     1
 90
       50
176
     1
 90
        3
176
     1
 62
     5
420
      255
176
     1
290
     0
176
     1
 90
       50
176
     1
 90
       50
176
     1
 90
       50
176
     1
290
     0
176
     1
 90
       50
176
     1
 62
   256
176
     0
 40
1.0
176
     0
 90
        2
176
     1
  1
strokes_ogs.tif
176
     1
290
     0
176
     1
 40
1.0
176
     1
 40
1.0
176
     1
  0
VISUALSTYLE
  5
20A
102
{ACAD_REACTORS
330
1A9
102
}
330
1A9
100
AcDbVisualStyle
  2
OverhangOff
 70
    21
177
     3
291
     1
 70
    58
 90
        2
176
     0
 90
        2
176
     0
 90
        0
176
     0
 90
        0
176
     0
 40
0.6
176
     0
 40
30.0
176
     0
 62
     7
420
 16777215
176
     0
 90
        1
176
     0
 90
        4
176
     0
 62
     7
176
     0
 62
   257
176
     0
 90
        1
176
     0
 90
        1
176
     0
 40
1.0
176
     0
 90
        9
176
     2
 62
     7
176
     0
 40
1.0
176
     0
 90
        1
176
     0
 90
        6
176
     0
 90
        2
176
     0
 62
     7
176
     0
 90
        5
176
     0
 90
        0
176
     0
 90
        0
176
     0
290
     0
176
     0
 90
        1
176
     0
 40
0.0
176
     0
 90
        0
176
     0
290
     0
176
     0
290
     1
176
     0
290
     1
176
     0
290
     0
176
     0
290
     0
176
     0
290
     0
176
     0
290
     0
176
     0
290
     0
176
     0
290
     0
176
     0
 90
       50
176
     0
 40
0.0
176
     0
 40
1.0
176
     0
 90
        0
176
     0
 62
    18
420
        0
176
     0
 90
       50
176
     0
 90
        3
176
     0
 62
     5
420
      255
176
     0
290
     0
176
     0
 90
       50
176
     0
 90
       50
176
     0
 90
       50
176
     0
290
     0
176
     0
 90
       50
176
     0
 62
   256
176
     0
 40
1.0
176
     0
 90
        2
176
     0
  1
strokes_ogs.tif
176
     0
290
     0
176
     0
 40
1.0
176
     0
 40
1.0
176
     0
  0
VISUALSTYLE
  5
1B2
102
{ACAD_REACTORS
330
1A9
102
}
330
1A9
100
AcDbVisualStyle
  2
Realistic
 70
     8
177
     3
291
     0
 70
    58
 90
        2
176
     1
 90
        2
176
     1
 90
        0
176
     1
 90
        0
176
     1
 40
-0.6
176
     1
 40
-30.0
176
     1
 62
     7
176
     1
 90
        1
176
     1
 90
        0
176
     1
 62
     7
176
     1
 62
   257
176
     1
 90
        1
176
     1
 90
        1
176
     1
 40
1.0
176
     1
 90
        8
176
     1
 62
     8
176
     1
 40
1.0
176
     1
 90
        1
176
     1
 90
        6
176
     1
 90
        2
176
     1
 62
     7
176
     1
 90
        5
176
     1
 90
        0
176
     1
 90
        0
176
     1
290
     0
176
     1
 90
       13
176
     1
 40
0.0
176
     1
 90
        0
176
     1
290
     0
176
     1
290
     1
176
     1
290
     1
176
     1
290
     0
176
     1
290
     0
176
     1
290
     0
176
     1
290
     0
176
     1
290
     0
176
     1
290
     0
176
     1
 90
       50
176
     1
 40
0.0
176
     1
 40
1.0
176
     1
 90
        0
176
     1
 62
    18
420
        0
176
     1
 90
       50
176
     1
 90
        3
176
     1
 62
     5
420
      255
176
     1
290
     0
176
     1
 90
       50
176
     1
 90
       50
176
     1
 90
       50
176
     1
290
     0
176
     1
 90
       50
176
     1
 62
   256
176
     0
 40
1.0
176
     0
 90
        2
176
     1
  1
strokes_ogs.tif
176
     1
290
     0
176
     1
 40
1.0
176
     1
 40
1.0
176
     1
  0
VISUALSTYLE
  5
210
102
{ACAD_REACTORS
330
1A9
102
}
330
1A9
100
AcDbVisualStyle
  2
Shaded
 70
    27
177
     3
291
     0
 70
    58
 90
        2
176
     1
 90
        2
176
     1
 90
        1
176
     1
 90
        2
176
     1
 40
0.6
176
     1
 40
30.0
176
     1
 62
     7
420
 16777215
176
     1
 90
        0
176
     1
 90
        4
176
     1
 62
     7
176
     1
 62
   257
176
     1
 90
        1
176
     1
 90
        1
176
     1
 40
1.0
176
     1
 90
        8
176
     1
 62
   257
176
     1
 40
1.0
176
     1
 90
        1
176
     1
 90
        6
176
     1
 90
        2
176
     1
 62
     8
420
  7895160
176
     1
 90
        3
176
     1
 90
        0
176
     1
 90
        0
176
     1
290
     0
176
     1
 90
        5
176
     1
 40
0.0
176
     1
 90
        0
176
     1
290
     0
176
     1
290
     1
176
     1
290
     1
176
     1
290
     0
176
     1
290
     0
176
     1
290
     0
176
     1
290
     0
176
     1
290
     0
176
     1
290
     0
176
     1
 90
       50
176
     1
 40
0.0
176
     1
 40
1.0
176
     1
 90
        0
176
     1
 62
    18
420
        0
176
     1
 90
       50
176
     1
 90
        3
176
     1
 62
     5
420
      255
176
     1
290
     0
176
     1
 90
       50
176
     1
 90
       50
176
     1
 90
       50
176
     1
290
     0
176
     1
 90
       50
176
     1
 62
   256
176
     0
 40
1.0
176
     0
 90
        2
176
     1
  1
strokes_ogs.tif
176
     1
290
     0
176
     1
 40
1.0
176
     1
 40
1.0
176
     1
  0
VISUALSTYLE
  5
20F
102
{ACAD_REACTORS
330
1A9
102
}
330
1A9
100
AcDbVisualStyle
  2
Shaded with edges
 70
    26
177
     3
291
     0
 70
    58
 90
        2
176
     1
 90
        2
176
     1
 90
        1
176
     1
 90
        2
176
     1
 40
0.6
176
     1
 40
30.0
176
     1
 62
     7
420
 16777215
176
     1
 90
        1
176
     1
 90
       10
176
     1
 62
     7
176
     1
 62
   257
176
     1
 90
        2
176
     1
 90
        1
176
     1
 40
1.0
176
     1
 90
        8
176
     1
 62
   257
176
     1
 40
1.0
176
     1
 90
        1
176
     1
 90
        6
176
     1
 90
        2
176
     1
 62
     7
176
     1
 90
        3
176
     1
 90
        0
176
     1
 90
        0
176
     1
290
     0
176
     1
 90
        5
176
     1
 40
0.0
176
     1
 90
        0
176
     1
290
     0
176
     1
290
     1
176
     1
290
     1
176
     1
290
     0
176
     1
290
     0
176
     1
290
     0
176
     1
290
     0
176
     1
290
     0
176
     1
290
     0
176
     1
 90
       50
176
     1
 40
0.0
176
     1
 40
1.0
176
     1
 90
        0
176
     1
 62
    18
420
        0
176
     1
 90
       50
176
     1
 90
        3
176
     1
 62
     5
420
      255
176
     1
290
     0
176
     1
 90
       50
176
     1
 90
       50
176
     1
 90
       50
176
     1
290
     0
176
     1
 90
       50
176
     1
 62
   256
176
     0
 40
1.0
176
     0
 90
        2
176
     1
  1
strokes_ogs.tif
176
     1
290
     0
176
     1
 40
1.0
176
     1
 40
1.0
176
     1
  0
VISUALSTYLE
  5
20C
102
{ACAD_REACTORS
330
1A9
102
}
330
1A9
100
AcDbVisualStyle
  2
Shades of Gray
 70
    23
177
     3
291
     0
 70
    58
 90
        2
176
     1
 90
        2
176
     1
 90
        3
176
     1
 90
        0
176
     1
 40
0.6
176
     1
 40
30.0
176
     1
 62
     7
420
 16777215
176
     1
 90
        2
176
     1
 90
        2
176
     1
 62
     7
176
     1
 62
     7
176
     1
 90
        1
176
     1
 90
        1
176
     1
 40
40.0
176
     1
 90
        8
176
     1
 62
     7
176
     1
 40
1.0
176
     1
 90
        1
176
     1
 90
        6
176
     1
 90
        2
176
     1
 62
     7
176
     1
 90
        3
176
     1
 90
        0
176
     1
 90
        0
176
     1
290
     0
176
     1
 90
        1
176
     1
 40
0.0
176
     1
 90
        0
176
     1
290
     0
176
     1
290
     1
176
     1
290
     1
176
     1
290
     0
176
     1
290
     0
176
     1
290
     0
176
     1
290
     0
176
     1
290
     0
176
     1
290
     0
176
     1
 90
       50
176
     1
 40
0.0
176
     1
 40
1.0
176
     1
 90
        0
176
     1
 62
    18
420
        0
176
     1
 90
       50
176
     1
 90
        3
176
     1
 62
     5
420
      255
176
     1
290
     0
176
     1
 90
       50
176
     1
 90
       50
176
     1
 90
       50
176
     1
290
     0
176
     1
 90
       50
176
     1
 62
   256
176
     0
 40
1.0
176
     0
 90
        2
176
     1
  1
strokes_ogs.tif
176
     1
290
     0
176
     1
 40
1.0
176
     1
 40
1.0
176
     1
  0
VISUALSTYLE
  5
20D
102
{ACAD_REACTORS
330
1A9
102
}
330
1A9
100
AcDbVisualStyle
  2
Sketchy
 70
    24
177
     3
291
     0
 70
    58
 90
        1
176
     1
 90
        2
176
     1
 90
        2
176
     1
 90
        0
176
     1
 40
0.6
176
     1
 40
30.0
176
     1
 62
     7
420
 16777215
176
     1
 90
        2
176
     1
 90
        2
176
     1
 62
     7
176
     1
 62
     7
176
     1
 90
        1
176
     1
 90
        1
176
     1
 40
40.0
176
     1
 90
       11
176
     1
 62
     7
176
     1
 40
1.0
176
     1
 90
        1
176
     1
 90
        6
176
     1
 90
        2
176
     1
 62
     7
176
     1
 90
        6
176
     1
 90
        0
176
     1
 90
        0
176
     1
290
     0
176
     1
 90
        1
176
     1
 40
0.0
176
     1
 90
        0
176
     1
290
     0
176
     1
290
     1
176
     1
290
     1
176
     1
290
     0
176
     1
290
     0
176
     1
290
     0
176
     1
290
     0
176
     1
290
     0
176
     1
290
     0
176
     1
 90
       50
176
     1
 40
0.0
176
     1
 40
1.0
176
     1
 90
        0
176
     1
 62
    18
420
        0
176
     1
 90
       50
176
     1
 90
        3
176
     1
 62
     5
420
      255
176
     1
290
     0
176
     1
 90
       50
176
     1
 90
       50
176
     1
 90
       50
176
     1
290
     0
176
     1
 90
       50
176
     1
 62
   256
176
     0
 40
1.0
176
     0
 90
        2
176
     1
  1
strokes_ogs.tif
176
     1
290
     0
176
     1
 40
1.0
176
     1
 40
1.0
176
     1
  0
VISUALSTYLE
  5
1B6
102
{ACAD_REACTORS
330
1A9
102
}
330
1A9
100
AcDbVisualStyle
  2
Thicken
 70
    13
177
     3
291
     1
 70
    58
 90
        2
176
     1
 90
        2
176
     1
 90
        0
176
     1
 90
        0
176
     1
 40
-0.6
176
     1
 40
-30.0
176
     1
 62
     7
176
     1
 90
        1
176
     1
 90
        4
176
     1
 62
     7
176
     1
 62
   257
176
     1
 90
        1
176
     1
 90
        1
176
     1
 40
1.0
176
     1
 90
       12
176
     1
 62
     7
176
     1
 40
1.0
176
     1
 90
        1
176
     1
 90
        6
176
     1
 90
        2
176
     1
 62
     7
176
     1
 90
        5
176
     1
 90
        0
176
     1
 90
        0
176
     1
290
     0
176
     1
 90
        1
176
     1
 40
0.0
176
     1
 90
        0
176
     1
290
     0
176
     1
290
     1
176
     1
290
     1
176
     1
290
     0
176
     1
290
     0
176
     1
290
     0
176
     1
290
     0
176
     1
290
     0
176
     1
290
     0
176
     1
 90
       50
176
     1
 40
0.0
176
     1
 40
1.0
176
     1
 90
        0
176
     1
 62
    18
420
        0
176
     1
 90
       50
176
     1
 90
        3
176
     1
 62
     5
420
      255
176
     1
290
     0
176
     1
 90
       50
176
     1
 90
       50
176
     1
 90
       50
176
     1
290
     0
176
     1
 90
       50
176
     1
 62
   256
176
     0
 40
1.0
176
     0
 90
        2
176
     1
  1
strokes_ogs.tif
176
     1
290
     0
176
     1
 40
1.0
176
     1
 40
1.0
176
     1
  0
VISUALSTYLE
  5
207
102
{ACAD_REACTORS
330
1A9
102
}
330
1A9
100
AcDbVisualStyle
  2
Wireframe
 70
     5
177
     3
291
     0
 70
    58
 90
        0
176
     1
 90
        2
176
     1
 90
        0
176
     1
 90
        0
176
     1
 40
0.6
176
     1
 40
30.0
176
     1
 62
     7
420
 16777215
176
     1
 90
        1
176
     1
 90
        4
176
     1
 62
     7
176
     1
 62
   257
176
     1
 90
        1
176
     1
 90
        1
176
     1
 40
1.0
176
     1
 90
        0
176
     1
 62
   257
176
     1
 40
1.0
176
     1
 90
        1
176
     1
 90
        6
176
     1
 90
        2
176
     1
 62
     7
176
     1
 90
        3
176
     1
 90
        0
176
     1
 90
        0
176
     1
290
     0
176
     1
 90
        1
176
     1
 40
0.0
176
     1
 90
        0
176
     1
290
     0
176
     1
290
     1
176
     1
290
     1
176
     1
290
     0
176
     1
290
     0
176
     1
290
     0
176
     1
290
     0
176
     1
290
     0
176
     1
290
     0
176
     1
 90
       50
176
     1
 40
0.0
176
     1
 40
1.0
176
     1
 90
        0
176
     1
 62
    18
420
        0
176
     1
 90
       50
176
     1
 90
        3
176
     1
 62
     5
420
      255
176
     1
290
     0
176
     1
 90
       50
176
     1
 90
       50
176
     1
 90
       50
176
     1
290
     0
176
     1
 90
       50
176
     1
 62
   256
176
     0
 40
1.0
176
     0
 90
        2
176
     1
  1
strokes_ogs.tif
176
     1
290
     0
176
     1
 40
1.0
176
     1
 40
1.0
176
     1
  0
VISUALSTYLE
  5
20E
102
{ACAD_REACTORS
330
1A9
102
}
330
1A9
100
AcDbVisualStyle
  2
X-Ray
 70
    25
177
     3
291
     0
 70
    58
 90
        2
176
     1
 90
        2
176
     1
 90
        1
176
     1
 90
        1
176
     1
 40
0.5
176
     1
 40
30.0
176
     1
 62
     7
420
 16777215
176
     1
 90
        1
176
     1
 90
        0
176
     1
 62
     7
176
     1
 62
   257
176
     1
 90
        1
176
     1
 90
        1
176
     1
 40
1.0
176
     1
 90
        8
176
     1
 62
     7
176
     1
 40
1.0
176
     1
 90
        1
176
     1
 90
        6
176
     1
 90
        2
176
     1
 62
     7
176
     1
 90
        3
176
     1
 90
        0
176
     1
 90
        0
176
     1
290
     0
176
     1
 90
       13
176
     1
 40
0.0
176
     1
 90
        0
176
     1
290
     0
176
     1
290
     1
176
     1
290
     1
176
     1
290
     0
176
     1
290
     0
176
     1
290
     0
176
     1
290
     0
176
     1
290
     0
176
     1
290
     0
176
     1
 90
       50
176
     1
 40
0.0
176
     1
 40
1.0
176
     1
 90
        0
176
     1
 62
    18
420
        0
176
     1
 90
       50
176
     1
 90
        3
176
     1
 62
     5
420
      255
176
     1
290
     0
176
     1
 90
       50
176
     1
 90
       50
176
     1
 90
       50
176
     1
290
     0
176
     1
 90
       50
176
     1
 62
   256
176
     0
 40
1.0
176
     0
 90
        2
176
     1
  1
strokes_ogs.tif
176
     1
290
     0
176
     1
 40
1.0
176
     1
 40
1.0
176
     1
  0
DICTIONARYVAR
  5
228
102
{ACAD_REACTORS
330
1C6
102
}
330
1C6
100
DictionaryVariables
280
     0
  1
1:1
  0
DICTIONARYVAR
  5
22A
102
{ACAD_REACTORS
330
1C6
102
}
330
1C6
100
DictionaryVariables
280
     0
  1
Standard
  0
DICTIONARYVAR
  5
229
102
{ACAD_REACTORS
330
1C6
102
}
330
1C6
100
DictionaryVariables
280
     0
  1
Standard
  0
DICTIONARYVAR
  5
1CA
102
{ACAD_REACTORS
330
1C6
102
}
330
1C6
100
DictionaryVariables
280
     0
  1
2
  0
DICTIONARYVAR
  5
1CB
102
{ACAD_REACTORS
330
1C6
102
}
330
1C6
100
DictionaryVariables
280
     0
  1
1
  0
DICTIONARYVAR
  5
1C9
102
{ACAD_REACTORS
330
1C6
102
}
330
1C6
100
DictionaryVariables
280
     0
  1
0
  0
DICTIONARY
  5
35D
330
212
100
AcDbDictionary
280
     1
281
     1
  3
ACAD_ROUNDTRIP_2008_TABLESTYLE_CELLSTYLEMAP
360
35E
  0
CELLSTYLEMAP
  5
35E
102
{ACAD_REACTORS
330
35D
102
}
330
35D
100
AcDbCellStyleMap
 90
        3
300
CELLSTYLE
  1
TABLEFORMAT_BEGIN
 90
        5
170
     1
 91
        0
 92
    32768
 62
   257
 93
        1
300
CONTENTFORMAT
  1
CONTENTFORMAT_BEGIN
 90
        0
 91
        0
 92
        4
 93
        0
300

 40
0.0
140
1.0
 94
        5
 62
     0
340
11
144
0.25
309
CONTENTFORMAT_END
171
     1
301
MARGIN
  1
CELLMARGIN_BEGIN
 40
0.06
 40
0.06
 40
0.06
 40
0.06
 40
0.06
 40
0.06
309
CELLMARGIN_END
 94
        6
 95
        1
302
GRIDFORMAT
  1
GRIDFORMAT_BEGIN
 90
        0
 91
        1
 62
     0
 92
       -2
340
14
 93
        0
 40
0.045
309
GRIDFORMAT_END
 95
        2
302
GRIDFORMAT
  1
GRIDFORMAT_BEGIN
 90
        0
 91
        1
 62
     0
 92
       -2
340
14
 93
        0
 40
0.045
309
GRIDFORMAT_END
 95
        4
302
GRIDFORMAT
  1
GRIDFORMAT_BEGIN
 90
        0
 91
        1
 62
     0
 92
       -2
340
14
 93
        0
 40
0.045
309
GRIDFORMAT_END
 95
        8
302
GRIDFORMAT
  1
GRIDFORMAT_BEGIN
 90
        0
 91
        1
 62
     0
 92
       -2
340
14
 93
        0
 40
0.045
309
GRIDFORMAT_END
 95
       16
302
GRIDFORMAT
  1
GRIDFORMAT_BEGIN
 90
        0
 91
        1
 62
     0
 92
       -2
340
14
 93
        0
 40
0.045
309
GRIDFORMAT_END
 95
       32
302
GRIDFORMAT
  1
GRIDFORMAT_BEGIN
 90
        0
 91
        1
 62
     0
 92
       -2
340
14
 93
        0
 40
0.045
309
GRIDFORMAT_END
309
TABLEFORMAT_END
  1
CELLSTYLE_BEGIN
 90
        1
 91
        1
300
_TITLE
309
CELLSTYLE_END
300
CELLSTYLE
  1
TABLEFORMAT_BEGIN
 90
        5
170
     1
 91
        0
 92
        0
 62
   257
 93
        1
300
CONTENTFORMAT
  1
CONTENTFORMAT_BEGIN
 90
        0
 91
        0
 92
        4
 93
        0
300

 40
0.0
140
1.0
 94
        5
 62
     0
340
11
144
0.18
309
CONTENTFORMAT_END
171
     1
301
MARGIN
  1
CELLMARGIN_BEGIN
 40
0.06
 40
0.06
 40
0.06
 40
0.06
 40
0.06
 40
0.06
309
CELLMARGIN_END
 94
        6
 95
        1
302
GRIDFORMAT
  1
GRIDFORMAT_BEGIN
 90
        0
 91
        1
 62
     0
 92
       -2
340
14
 93
        0
 40
0.045
309
GRIDFORMAT_END
 95
        2
302
GRIDFORMAT
  1
GRIDFORMAT_BEGIN
 90
        0
 91
        1
 62
     0
 92
       -2
340
14
 93
        0
 40
0.045
309
GRIDFORMAT_END
 95
        4
302
GRIDFORMAT
  1
GRIDFORMAT_BEGIN
 90
        0
 91
        1
 62
     0
 92
       -2
340
14
 93
        0
 40
0.045
309
GRIDFORMAT_END
 95
        8
302
GRIDFORMAT
  1
GRIDFORMAT_BEGIN
 90
        0
 91
        1
 62
     0
 92
       -2
340
14
 93
        0
 40
0.045
309
GRIDFORMAT_END
 95
       16
302
GRIDFORMAT
  1
GRIDFORMAT_BEGIN
 90
        0
 91
        1
 62
     0
 92
       -2
340
14
 93
        0
 40
0.045
309
GRIDFORMAT_END
 95
       32
302
GRIDFORMAT
  1
GRIDFORMAT_BEGIN
 90
        0
 91
        1
 62
     0
 92
       -2
340
14
 93
        0
 40
0.045
309
GRIDFORMAT_END
309
TABLEFORMAT_END
  1
CELLSTYLE_BEGIN
 90
        2
 91
        1
300
_HEADER
309
CELLSTYLE_END
300
CELLSTYLE
  1
TABLEFORMAT_BEGIN
 90
        5
170
     1
 91
        0
 92
        0
 62
   257
 93
        1
300
CONTENTFORMAT
  1
CONTENTFORMAT_BEGIN
 90
        0
 91
        0
 92
        4
 93
        0
300

 40
0.0
140
1.0
 94
        2
 62
     0
340
11
144
0.18
309
CONTENTFORMAT_END
171
     1
301
MARGIN
  1
CELLMARGIN_BEGIN
 40
0.06
 40
0.06
 40
0.06
 40
0.06
 40
0.06
 40
0.06
309
CELLMARGIN_END
 94
        6
 95
        1
302
GRIDFORMAT
  1
GRIDFORMAT_BEGIN
 90
        0
 91
        1
 62
     0
 92
       -2
340
14
 93
        0
 40
0.045
309
GRIDFORMAT_END
 95
        2
302
GRIDFORMAT
  1
GRIDFORMAT_BEGIN
 90
        0
 91
        1
 62
     0
 92
       -2
340
14
 93
        0
 40
0.045
309
GRIDFORMAT_END
 95
        4
302
GRIDFORMAT
  1
GRIDFORMAT_BEGIN
 90
        0
 91
        1
 62
     0
 92
       -2
340
14
 93
        0
 40
0.045
309
GRIDFORMAT_END
 95
        8
302
GRIDFORMAT
  1
GRIDFORMAT_BEGIN
 90
        0
 91
        1
 62
     0
 92
       -2
340
14
 93
        0
 40
0.045
309
GRIDFORMAT_END
 95
       16
302
GRIDFORMAT
  1
GRIDFORMAT_BEGIN
 90
        0
 91
        1
 62
     0
 92
       -2
340
14
 93
        0
 40
0.045
309
GRIDFORMAT_END
 95
       32
302
GRIDFORMAT
  1
GRIDFORMAT_BEGIN
 90
        0
 91
        1
 62
     0
 92
       -2
340
14
 93
        0
 40
0.045
309
GRIDFORMAT_END
309
TABLEFORMAT_END
  1
CELLSTYLE_BEGIN
 90
        3
 91
        2
300
_DATA
309
CELLSTYLE_END
  0
ENDSEC
  0
EOF
