  0
SECTION
  2
HEADER
  9
$ACADVER
  1
AC1027
  9
$ACADMAINTVER
 70
   105
  9
$DWGCODEPAGE
  3
ANSI_1252
  9
$REQUIREDVERSIONS
160
                 0
  9
$LASTSAVEDBY
  1
matthias.ochs
  9
$INSBASE
 10
0.0
 20
0.0
 30
0.0
  9
$EXTMIN
 10
-58.46456048276639
 20
-41.06303459360284
 30
0.0
  9
$EXTMAX
 10
78.0040103783812
 20
40.74712297075223
 30
0.0
  9
$LIMMIN
 10
-64.583471641
 20
-28.024580469
  9
$LIMMAX
 10
76.564617145
 20
33.604203797
  9
$ORTHOMODE
 70
     0
  9
$REGENMODE
 70
     1
  9
$FILLMODE
 70
     1
  9
$QTEXTMODE
 70
     0
  9
$MIRRTEXT
 70
     1
  9
$LTSCALE
 40
1.0
  9
$ATTMODE
 70
     1
  9
$TEXTSIZE
 40
0.2
  9
$TRACEWID
 40
0.05
  9
$TEXTSTYLE
  7
Standard
  9
$CLAYER
  8
4
  9
$CELTYPE
  6
ByLayer
  9
$CECOLOR
 62
   256
  9
$CELTSCALE
 40
1.0
  9
$DISPSILH
 70
     0
  9
$DIMSCALE
 40
1.0
  9
$DIMASZ
 40
0.18
  9
$DIMEXO
 40
0.0625
  9
$DIMDLI
 40
0.38
  9
$DIMRND
 40
0.0
  9
$DIMDLE
 40
0.0
  9
$DIMEXE
 40
0.18
  9
$DIMTP
 40
0.0
  9
$DIMTM
 40
0.0
  9
$DIMTXT
 40
0.18
  9
$DIMCEN
 40
0.09
  9
$DIMTSZ
 40
0.0
  9
$DIMTOL
 70
     0
  9
$DIMLIM
 70
     0
  9
$DIMTIH
 70
     1
  9
$DIMTOH
 70
     1
  9
$DIMSE1
 70
     0
  9
$DIMSE2
 70
     0
  9
$DIMTAD
 70
     0
  9
$DIMZIN
 70
     0
  9
$DIMBLK
  1

  9
$DIMASO
 70
     1
  9
$DIMSHO
 70
     1
  9
$DIMPOST
  1

  9
$DIMAPOST
  1

  9
$DIMALT
 70
     0
  9
$DIMALTD
 70
     2
  9
$DIMALTF
 40
25.4
  9
$DIMLFAC
 40
1.0
  9
$DIMTOFL
 70
     0
  9
$DIMTVP
 40
0.0
  9
$DIMTIX
 70
     0
  9
$DIMSOXD
 70
     0
  9
$DIMSAH
 70
     0
  9
$DIMBLK1
  1

  9
$DIMBLK2
  1

  9
$DIMSTYLE
  2
Standard
  9
$DIMCLRD
 70
     0
  9
$DIMCLRE
 70
     0
  9
$DIMCLRT
 70
     0
  9
$DIMTFAC
 40
1.0
  9
$DIMGAP
 40
0.09
  9
$DIMJUST
 70
     0
  9
$DIMSD1
 70
     0
  9
$DIMSD2
 70
     0
  9
$DIMTOLJ
 70
     1
  9
$DIMTZIN
 70
     0
  9
$DIMALTZ
 70
     0
  9
$DIMALTTZ
 70
     0
  9
$DIMUPT
 70
     0
  9
$DIMDEC
 70
     4
  9
$DIMTDEC
 70
     4
  9
$DIMALTU
 70
     2
  9
$DIMALTTD
 70
     2
  9
$DIMTXSTY
  7
Standard
  9
$DIMAUNIT
 70
     0
  9
$DIMADEC
 70
     0
  9
$DIMALTRND
 40
0.0
  9
$DIMAZIN
 70
     0
  9
$DIMDSEP
 70
    46
  9
$DIMATFIT
 70
     3
  9
$DIMFRAC
 70
     0
  9
$DIMLDRBLK
  1

  9
$DIMLUNIT
 70
     2
  9
$DIMLWD
 70
    -2
  9
$DIMLWE
 70
    -2
  9
$DIMTMOVE
 70
     2
  9
$DIMFXL
 40
1.0
  9
$DIMFXLON
 70
     0
  9
$DIMJOGANG
 40
0.7853981633974483
  9
$DIMTFILL
 70
     0
  9
$DIMTFILLCLR
 70
     0
  9
$DIMARCSYM
 70
     0
  9
$DIMLTYPE
  6

  9
$DIMLTEX1
  6

  9
$DIMLTEX2
  6

  9
$DIMTXTDIRECTION
 70
     0
  9
$LUNITS
 70
     2
  9
$LUPREC
 70
     4
  9
$SKETCHINC
 40
0.1
  9
$FILLETRAD
 40
0.5
  9
$AUNITS
 70
     2
  9
$AUPREC
 70
     0
  9
$MENU
  1
.
  9
$ELEVATION
 40
0.0
  9
$PELEVATION
 40
0.0
  9
$THICKNESS
 40
0.0
  9
$LIMCHECK
 70
     0
  9
$CHAMFERA
 40
0.5
  9
$CHAMFERB
 40
0.5
  9
$CHAMFERC
 40
1.0
  9
$CHAMFERD
 40
0.0
  9
$SKPOLY
 70
     0
  9
$TDCREATE
 40
2458327.544407743
  9
$TDUCREATE
 40
2458327.46107441
  9
$TDUPDATE
 40
2458677.433319537
  9
$TDUUPDATE
 40
2458677.349986203
  9
$TDINDWG
 40
0.0164382986
  9
$TDUSRTIMER
 40
0.0084521875
  9
$USRTIMER
 70
     1
  9
$ANGBASE
 50
0.0
  9
$ANGDIR
 70
     0
  9
$PDMODE
 70
     0
  9
$PDSIZE
 40
0.0
  9
$PLINEWID
 40
0.0
  9
$SPLFRAME
 70
     0
  9
$SPLINETYPE
 70
     6
  9
$SPLINESEGS
 70
     8
  9
$HANDSEED
  5
37A
  9
$SURFTAB1
 70
     6
  9
$SURFTAB2
 70
     6
  9
$SURFTYPE
 70
     6
  9
$SURFU
 70
     6
  9
$SURFV
 70
     6
  9
$UCSBASE
  2

  9
$UCSNAME
  2

  9
$UCSORG
 10
0.0
 20
0.0
 30
0.0
  9
$UCSXDIR
 10
1.0
 20
0.0
 30
0.0
  9
$UCSYDIR
 10
0.0
 20
1.0
 30
0.0
  9
$UCSORTHOREF
  2

  9
$UCSORTHOVIEW
 70
     0
  9
$UCSORGTOP
 10
0.0
 20
0.0
 30
0.0
  9
$UCSORGBOTTOM
 10
0.0
 20
0.0
 30
0.0
  9
$UCSORGLEFT
 10
0.0
 20
0.0
 30
0.0
  9
$UCSORGRIGHT
 10
0.0
 20
0.0
 30
0.0
  9
$UCSORGFRONT
 10
0.0
 20
0.0
 30
0.0
  9
$UCSORGBACK
 10
0.0
 20
0.0
 30
0.0
  9
$PUCSBASE
  2

  9
$PUCSNAME
  2

  9
$PUCSORG
 10
0.0
 20
0.0
 30
0.0
  9
$PUCSXDIR
 10
1.0
 20
0.0
 30
0.0
  9
$PUCSYDIR
 10
0.0
 20
1.0
 30
0.0
  9
$PUCSORTHOREF
  2

  9
$PUCSORTHOVIEW
 70
     0
  9
$PUCSORGTOP
 10
0.0
 20
0.0
 30
0.0
  9
$PUCSORGBOTTOM
 10
0.0
 20
0.0
 30
0.0
  9
$PUCSORGLEFT
 10
0.0
 20
0.0
 30
0.0
  9
$PUCSORGRIGHT
 10
0.0
 20
0.0
 30
0.0
  9
$PUCSORGFRONT
 10
0.0
 20
0.0
 30
0.0
  9
$PUCSORGBACK
 10
0.0
 20
0.0
 30
0.0
  9
$USERI1
 70
     0
  9
$USERI2
 70
     0
  9
$USERI3
 70
     0
  9
$USERI4
 70
     0
  9
$USERI5
 70
     0
  9
$USERR1
 40
0.0
  9
$USERR2
 40
0.0
  9
$USERR3
 40
0.0
  9
$USERR4
 40
0.0
  9
$USERR5
 40
0.0
  9
$WORLDVIEW
 70
     1
  9
$SHADEDGE
 70
     3
  9
$SHADEDIF
 70
    70
  9
$TILEMODE
 70
     1
  9
$MAXACTVP
 70
    64
  9
$PINSBASE
 10
0.0
 20
0.0
 30
0.0
  9
$PLIMCHECK
 70
     0
  9
$PEXTMIN
 10
1.000000000000000E+20
 20
1.000000000000000E+20
 30
1.000000000000000E+20
  9
$PEXTMAX
 10
-1.000000000000000E+20
 20
-1.000000000000000E+20
 30
-1.000000000000000E+20
  9
$PLIMMIN
 10
0.0
 20
0.0
  9
$PLIMMAX
 10
0.0
 20
0.0
  9
$UNITMODE
 70
     0
  9
$VISRETAIN
 70
     1
  9
$PLINEGEN
 70
     0
  9
$PSLTSCALE
 70
     1
  9
$TREEDEPTH
 70
  3020
  9
$CMLSTYLE
  2
Standard
  9
$CMLJUST
 70
     0
  9
$CMLSCALE
 40
1.0
  9
$PROXYGRAPHICS
 70
     1
  9
$MEASUREMENT
 70
     0
  9
$CELWEIGHT
370
    -1
  9
$ENDCAPS
280
     0
  9
$JOINSTYLE
280
     0
  9
$LWDISPLAY
290
     0
  9
$INSUNITS
 70
     0
  9
$HYPERLINKBASE
  1

  9
$STYLESHEET
  1

  9
$XEDIT
290
     1
  9
$CEPSNTYPE
380
     0
  9
$PSTYLEMODE
290
     1
  9
$FINGERPRINTGUID
  2
{C3EBA417-A815-42CB-970E-CCF5E5604BA7}
  9
$VERSIONGUID
  2
{FAEB1C32-E019-11D5-929B-00C0DF256EC4}
  9
$EXTNAMES
290
     1
  9
$PSVPSCALE
 40
0.0
  9
$OLESTARTUP
290
     0
  9
$SORTENTS
280
   127
  9
$INDEXCTL
280
     0
  9
$HIDETEXT
280
     1
  9
$XCLIPFRAME
280
     2
  9
$HALOGAP
280
     0
  9
$OBSCOLOR
 70
   257
  9
$OBSLTYPE
280
     0
  9
$INTERSECTIONDISPLAY
280
     0
  9
$INTERSECTIONCOLOR
 70
   257
  9
$DIMASSOC
280
     2
  9
$PROJECTNAME
  1

  9
$CAMERADISPLAY
290
     0
  9
$LENSLENGTH
 40
50.0
  9
$CAMERAHEIGHT
 40
0.0
  9
$STEPSPERSEC
 40
2.0
  9
$STEPSIZE
 40
6.0
  9
$3DDWFPREC
 40
2.0
  9
$PSOLWIDTH
 40
0.25
  9
$PSOLHEIGHT
 40
4.0
  9
$LOFTANG1
 40
1.570796326794897
  9
$LOFTANG2
 40
1.570796326794897
  9
$LOFTMAG1
 40
0.0
  9
$LOFTMAG2
 40
0.0
  9
$LOFTPARAM
 70
     7
  9
$LOFTNORMALS
280
     1
  9
$LATITUDE
 40
37.795
  9
$LONGITUDE
 40
-122.394
  9
$NORTHDIRECTION
 40
0.0
  9
$TIMEZONE
 70
 -8000
  9
$LIGHTGLYPHDISPLAY
280
     1
  9
$TILEMODELIGHTSYNCH
280
     1
  9
$SOLIDHIST
280
     0
  9
$SHOWHIST
280
     1
  9
$DWFFRAME
280
     2
  9
$DGNFRAME
280
     2
  9
$REALWORLDSCALE
290
     1
  9
$INTERFERECOLOR
 62
   256
  9
$CSHADOW
280
     0
  9
$SHADOWPLANELOCATION
 40
0.0
  0
ENDSEC
  0
SECTION
  2
CLASSES
  0
CLASS
  1
ACDBDICTIONARYWDFLT
  2
AcDbDictionaryWithDefault
  3
ObjectDBX Classes
 90
        0
 91
       15
280
     0
281
     0
  0
CLASS
  1
SCALE
  2
AcDbScale
  3
ObjectDBX Classes
 90
     1153
 91
       15
280
     0
281
     0
  0
CLASS
  1
VISUALSTYLE
  2
AcDbVisualStyle
  3
ObjectDBX Classes
 90
     4095
 91
       15
280
     0
281
     0
  0
CLASS
  1
MATERIAL
  2
AcDbMaterial
  3
ObjectDBX Classes
 90
     1153
 91
       15
280
     0
281
     0
  0
CLASS
  1
DICTIONARYVAR
  2
AcDbDictionaryVar
  3
ObjectDBX Classes
 90
        0
 91
       13
280
     0
281
     0
  0
CLASS
  1
ACDBPLACEHOLDER
  2
AcDbPlaceHolder
  3
ObjectDBX Classes
 90
        0
 91
        1
280
     0
281
     0
  0
CLASS
  1
LAYOUT
  2
AcDbLayout
  3
ObjectDBX Classes
 90
        0
 91
        1
280
     0
281
     0
  0
CLASS
  1
TABLESTYLE
  2
AcDbTableStyle
  3
ObjectDBX Classes
 90
     4095
 91
       14
280
     0
281
     0
  0
CLASS
  1
MLEADERSTYLE
  2
AcDbMLeaderStyle
  3
ACDB_MLEADERSTYLE_CLASS
 90
     4095
 91
       14
280
     0
281
     0
  0
CLASS
  1
CELLSTYLEMAP
  2
AcDbCellStyleMap
  3
ObjectDBX Classes
 90
     1152
 91
        8
280
     0
281
     0
  0
CLASS
  1
SUN
  2
AcDbSun
  3
SCENEOE
 90
     1153
 91
       15
280
     0
281
     0
  0
CLASS
  1
SORTENTSTABLE
  2
AcDbSortentsTable
  3
ObjectDBX Classes
 90
        0
 91
       11
280
     0
281
     0
  0
ENDSEC
  0
SECTION
  2
TABLES
  0
TABLE
  2
VPORT
  5
8
330
0
100
AcDbSymbolTable
 70
     1
  0
VPORT
  5
220
330
8
100
AcDbSymbolTableRecord
100
AcDbViewportTableRecord
  2
*Active
 70
     0
 10
0.0
 20
0.0
 11
1.0
 21
1.0
 12
-14.56893967910096
 22
7.043571774846633
 13
0.0
 23
0.0
 14
0.5
 24
0.5
 15
0.5
 25
0.5
 16
0.0
 26
0.0
 36
1.0
 17
0.0
 27
0.0
 37
0.0
 40
187.7842300054041
 41
1.831002331002331
 42
50.0
 43
0.0
 44
0.0
 50
0.0
 51
0.0
 71
    16
 72
   100
 73
     1
 74
     3
 75
     0
 76
     0
 77
     0
 78
     0
281
     0
 65
     1
110
0.0
120
0.0
130
0.0
111
1.0
121
0.0
131
0.0
112
0.0
122
1.0
132
0.0
 79
     0
146
0.0
348
252
 60
     3
 61
     5
292
     1
282
     1
141
0.0
142
0.0
 63
   256
361
2F6
  0
ENDTAB
  0
TABLE
  2
LTYPE
  5
5
330
0
100
AcDbSymbolTable
 70
     8
  0
LTYPE
  5
14
330
5
100
AcDbSymbolTableRecord
100
AcDbLinetypeTableRecord
  2
ByBlock
 70
     0
  3

 72
    65
 73
     0
 40
0.0
  0
LTYPE
  5
15
330
5
100
AcDbSymbolTableRecord
100
AcDbLinetypeTableRecord
  2
ByLayer
 70
     0
  3

 72
    65
 73
     0
 40
0.0
  0
LTYPE
  5
16
330
5
100
AcDbSymbolTableRecord
100
AcDbLinetypeTableRecord
  2
Continuous
 70
     0
  3
Solid line
 72
    65
 73
     0
 40
0.0
  0
LTYPE
  5
20
330
5
100
AcDbSymbolTableRecord
100
AcDbLinetypeTableRecord
  2
PUNKT
 70
     0
  3
..............
 72
    65
 73
     2
 40
1.5
 49
0.7
 74
     0
 49
-0.8
 74
     0
  0
LTYPE
  5
21
330
5
100
AcDbSymbolTableRecord
100
AcDbLinetypeTableRecord
  2
GESTRICHELT
 70
     0
  3
-- -- -- -- --
 72
    65
 73
     7
 40
2.8
 49
0.9
 74
     0
 49
0.0
 74
     0
 49
0.9
 74
     0
 49
0.0
 74
     0
 49
0.2
 74
     0
 49
0.0
 74
     0
 49
-0.8
 74
     0
  0
LTYPE
  5
22
330
5
100
AcDbSymbolTableRecord
100
AcDbLinetypeTableRecord
  2
STRICHPUNKT
 70
     0
  3
--.--.--.--.--
 72
    65
 73
     4
 40
8.8
 49
5.5
 74
     0
 49
-1.3
 74
     0
 49
0.7
 74
     0
 49
-1.3
 74
     0
  0
LTYPE
  5
25
330
5
100
AcDbSymbolTableRecord
100
AcDbLinetypeTableRecord
  2
PHANTOM
 70
     0
  3
--..--..--..--
 72
    65
 73
     6
 40
14.2
 49
7.0
 74
     0
 49
-1.8
 74
     0
 49
0.9
 74
     0
 49
-1.8
 74
     0
 49
0.9
 74
     0
 49
-1.8
 74
     0
  0
LTYPE
  5
29A
330
5
100
AcDbSymbolTableRecord
100
AcDbLinetypeTableRecord
  2
DASH
 70
     0
  3
DASH _ _ _ _ _
 72
    65
 73
     2
 40
0.75
 49
0.4
 74
     0
 49
-0.35
 74
     0
  0
LTYPE
  5
29B
330
5
100
AcDbSymbolTableRecord
100
AcDbLinetypeTableRecord
  2
LONGDASH_DASH
 70
     0
  3
LONGDASH_DASH __ . __ . __
 72
    65
 73
     4
 40
0.85
 49
0.4
 74
     0
 49
-0.2
 74
     0
 49
0.05
 74
     0
 49
-0.2
 74
     0
  0
LTYPE
  5
29C
330
5
100
AcDbSymbolTableRecord
100
AcDbLinetypeTableRecord
  2
LONGDASH_DASH_DASH
 70
     0
  3
LONGDASH_DASH_DASH __ . . __ . . __
 72
    65
 73
     6
 40
1.1
 49
0.4
 74
     0
 49
-0.2
 74
     0
 49
0.05
 74
     0
 49
-0.2
 74
     0
 49
0.05
 74
     0
 49
-0.2
 74
     0
  0
ENDTAB
  0
TABLE
  2
LAYER
  5
2
102
{ACAD_XDICTIONARY
360
2B9
102
}
330
0
100
AcDbSymbolTable
 70
    17
  0
LAYER
  5
263
330
2
100
AcDbSymbolTableRecord
100
AcDbLayerTableRecord
  2
200
 70
     0
 62
     2
  6
Continuous
370
    50
390
F
347
261
348
0
  0
LAYER
  5
29D
330
2
100
AcDbSymbolTableRecord
100
AcDbLayerTableRecord
  2
0
 70
     0
 62
     1
  6
Continuous
370
    -3
390
F
347
261
348
0
  0
LAYER
  5
29E
330
2
100
AcDbSymbolTableRecord
100
AcDbLayerTableRecord
  2
1
 70
     0
 62
     4
  6
Continuous
370
    50
390
F
347
261
348
0
  0
LAYER
  5
29F
330
2
100
AcDbSymbolTableRecord
100
AcDbLayerTableRecord
  2
2
 70
     0
 62
     7
  6
Continuous
370
    25
390
F
347
261
348
0
  0
LAYER
  5
2A0
330
2
100
AcDbSymbolTableRecord
100
AcDbLayerTableRecord
  2
3
 70
     0
 62
     1
  6
DASH
370
    35
390
F
347
261
348
0
  0
LAYER
  5
2A1
330
2
100
AcDbSymbolTableRecord
100
AcDbLayerTableRecord
  2
4
 70
     0
 62
     2
  6
LONGDASH_DASH
370
    25
390
F
347
261
348
0
  0
LAYER
  5
2A2
330
2
100
AcDbSymbolTableRecord
100
AcDbLayerTableRecord
  2
6
 70
     0
 62
    -5
  6
Continuous
370
    -3
390
F
347
261
348
0
  0
LAYER
  5
2A3
330
2
100
AcDbSymbolTableRecord
100
AcDbLayerTableRecord
  2
CUT
 70
     0
 62
     1
  6
Continuous
370
    25
390
F
347
261
348
0
  0
LAYER
  5
2A4
330
2
100
AcDbSymbolTableRecord
100
AcDbLayerTableRecord
  2
NOCUT
 70
     0
 62
     7
  6
Continuous
370
    25
390
F
347
261
348
0
  0
LAYER
  5
2A5
330
2
100
AcDbSymbolTableRecord
100
AcDbLayerTableRecord
  2
SK1
 70
     0
 62
     4
  6
Continuous
370
    50
390
F
347
261
348
0
  0
LAYER
  5
2A6
330
2
100
AcDbSymbolTableRecord
100
AcDbLayerTableRecord
  2
SK2
 70
     0
 62
     7
  6
Continuous
370
    25
390
F
347
261
348
0
  0
LAYER
  5
2A7
330
2
100
AcDbSymbolTableRecord
100
AcDbLayerTableRecord
  2
SK3
 70
     0
 62
     1
  6
DASH
370
    35
390
F
347
261
348
0
  0
LAYER
  5
2A8
330
2
100
AcDbSymbolTableRecord
100
AcDbLayerTableRecord
  2
SK4
 70
     0
 62
     2
  6
LONGDASH_DASH
370
    25
390
F
347
261
348
0
  0
LAYER
  5
2A9
330
2
100
AcDbSymbolTableRecord
100
AcDbLayerTableRecord
  2
SK6
 70
     0
 62
     5
  6
Continuous
370
    -3
390
F
347
261
348
0
  0
LAYER
  5
2AA
330
2
100
AcDbSymbolTableRecord
100
AcDbLayerTableRecord
  2
INFTOTAL
 70
     0
 62
     9
  6
Continuous
370
    18
390
F
347
261
348
0
  0
LAYER
  5
334
330
2
100
AcDbSymbolTableRecord
100
AcDbLayerTableRecord
  2
7
 70
     0
 62
     5
  6
Continuous
370
    18
390
F
347
261
348
0
1001
AcAecLayerStandard
1000

1000

  0
LAYER
  5
336
330
2
100
AcDbSymbolTableRecord
100
AcDbLayerTableRecord
  2
11
 70
     0
 62
     4
  6
Continuous
370
    50
390
F
347
261
348
0
1001
AcAecLayerStandard
1000

1000

  0
ENDTAB
  0
TABLE
  2
STYLE
  5
3
330
0
100
AcDbSymbolTable
 70
     3
  0
STYLE
  5
11
330
3
100
AcDbSymbolTableRecord
100
AcDbTextStyleTableRecord
  2
Standard
 70
     0
 40
0.0
 41
1.0
 50
0.0
 71
     0
 42
0.2
  3
txt
  4

  0
STYLE
  5
262
330
3
100
AcDbSymbolTableRecord
100
AcDbTextStyleTableRecord
  2
BMG_Text
 70
     0
 40
3.5
 41
1.0
 50
0.0
 71
     0
 42
0.2
  3
monos.ttf
  4

1001
ACAD
1000
Monospac821 BT
1071
       49
  0
STYLE
  5
33B
330
3
100
AcDbSymbolTableRecord
100
AcDbTextStyleTableRecord
  2
SLDTEXTSTYLE0
 70
     0
 40
0.0
 41
0.605
 50
0.0
 71
     0
 42
0.2
  3
TXT
  4

  0
ENDTAB
  0
TABLE
  2
VIEW
  5
6
330
0
100
AcDbSymbolTable
 70
     0
  0
ENDTAB
  0
TABLE
  2
UCS
  5
7
330
0
100
AcDbSymbolTable
 70
     0
  0
ENDTAB
  0
TABLE
  2
APPID
  5
9
330
0
100
AcDbSymbolTable
 70
     3
  0
APPID
  5
12
330
9
100
AcDbSymbolTableRecord
100
AcDbRegAppTableRecord
  2
ACAD
 70
     0
  0
APPID
  5
335
330
9
100
AcDbSymbolTableRecord
100
AcDbRegAppTableRecord
  2
AcAecLayerStandard
 70
     0
  0
APPID
  5
33E
330
9
100
AcDbSymbolTableRecord
100
AcDbRegAppTableRecord
  2
PE_URL
 70
     0
  0
ENDTAB
  0
TABLE
  2
DIMSTYLE
  5
A
330
0
100
AcDbSymbolTable
 70
     6
100
AcDbDimStyleTable
  0
DIMSTYLE
105
28
330
A
100
AcDbSymbolTableRecord
100
AcDbDimStyleTableRecord
  2
Standard
 70
     0
178
     0
340
11
  0
DIMSTYLE
105
337
330
A
100
AcDbSymbolTableRecord
100
AcDbDimStyleTableRecord
  2
Matthias
 70
     0
 41
3.0
 44
2.0
 73
     0
 77
     1
140
3.0
147
2.0
178
     0
340
11
  0
DIMSTYLE
105
339
102
{ACAD_REACTORS
102
}
330
A
100
AcDbSymbolTableRecord
100
AcDbDimStyleTableRecord
  2
ISO-25
 70
     0
 41
2.5
 42
0.625
 43
3.75
 44
1.25
 73
     0
 74
     0
 77
     1
 78
     8
140
2.5
141
2.5
143
0.0393700787
147
0.625
171
     3
172
     1
178
     0
271
     2
272
     2
274
     3
278
    44
283
     0
284
     8
340
11
  0
DIMSTYLE
105
33A
330
A
100
AcDbSymbolTableRecord
100
AcDbDimStyleTableRecord
  2
SLDDIMSTYLE0
 70
     0
 41
3.5
 44
0.0
 45
0.000000001
 73
     0
 74
     0
 77
     1
 78
    12
 79
     3
140
3.5
144
0.5
147
0.875
173
     1
178
     0
271
     2
272
     1
276
     2
284
    12
340
33B
  0
DIMSTYLE
105
33C
330
A
100
AcDbSymbolTableRecord
100
AcDbDimStyleTableRecord
  2
SLDDIMSTYLE1
 70
     0
 41
3.5
 44
0.0
 45
0.000000001
 73
     0
 74
     0
 77
     1
 78
    12
 79
     3
140
3.5
144
0.5
147
0.875
173
     1
178
     0
271
     2
272
     3
276
     2
284
    12
340
33B
  0
DIMSTYLE
105
33D
330
A
100
AcDbSymbolTableRecord
100
AcDbDimStyleTableRecord
  2
SLDDIMSTYLE2
 70
     0
 41
3.5
 44
0.0
 45
0.000000001
 73
     0
 74
     0
 77
     1
 78
    12
 79
     3
140
3.5
147
0.875
173
     1
178
     0
271
     2
272
     0
276
     2
284
    12
340
33B
  0
ENDTAB
  0
TABLE
  2
BLOCK_RECORD
  5
1
330
0
100
AcDbSymbolTable
 70
     1
  0
BLOCK_RECORD
  5
1D
102
{ACAD_XDICTIONARY
360
364
102
}
330
1
100
AcDbSymbolTableRecord
100
AcDbBlockTableRecord
  2
*Model_Space
340
1E
 70
     0
280
     1
281
     0
  0
BLOCK_RECORD
  5
1B
330
1
100
AcDbSymbolTableRecord
100
AcDbBlockTableRecord
  2
*Paper_Space
340
1C
 70
     0
280
     1
281
     0
  0
ENDTAB
  0
ENDSEC
  0
SECTION
  2
BLOCKS
  0
BLOCK
  5
24B
330
1D
100
AcDbEntity
  8
0
100
AcDbBlockBegin
  2
*Model_Space
 70
     0
 10
0.0
 20
0.0
 30
0.0
  3
*Model_Space
  1

  0
ENDBLK
  5
24C
330
1D
100
AcDbEntity
  8
0
100
AcDbBlockEnd
  0
BLOCK
  5
249
330
1B
100
AcDbEntity
 67
     1
  8
0
100
AcDbBlockBegin
  2
*Paper_Space
 70
     0
 10
0.0
 20
0.0
 30
0.0
  3
*Paper_Space
  1

  0
ENDBLK
  5
24A
330
1B
100
AcDbEntity
 67
     1
  8
0
100
AcDbBlockEnd
  0
ENDSEC
  0
SECTION
  2
ENTITIES
  0
LINE
  5
29
330
1D
100
AcDbEntity
  8
4
100
AcDbLine
 10
1.775675608
 20
-4.233640674
 30
0.0
 11
28.668469173
 21
-16.391793573
 31
0.0
  0
LINE
  5
2A
330
1D
100
AcDbEntity
  8
SK1
100
AcDbLine
 10
-19.5
 20
-11.000003815
 30
0.0
 11
-19.5
 21
11.0
 31
0.0
  0
LINE
  5
2B
330
1D
100
AcDbEntity
  8
SK1
100
AcDbLine
 10
-19.5
 20
11.0
 30
0.0
 11
-21.641021729
 21
10.69909668
 31
0.0
  0
LINE
  5
2C
330
1D
100
AcDbEntity
  8
SK1
100
AcDbLine
 10
-21.641021729
 20
10.69909668
 30
0.0
 11
-23.295819494
 21
10.990856094
 31
0.0
  0
ARC
  5
2D
330
1D
100
AcDbEntity
  8
SK1
100
AcDbCircle
 10
-23.400009155
 20
10.399971008
 30
0.0
 40
0.600000558
100
AcDbArc
 50
79.99993622300002
 51
179.997814306
  0
LINE
  5
2E
330
1D
100
AcDbEntity
  8
SK1
100
AcDbLine
 10
-24.0
 20
10.399993896
 30
0.0
 11
-24.000009714
 21
-10.400028285
 31
0.0
  0
ARC
  5
2F
330
1D
100
AcDbEntity
  8
SK1
100
AcDbCircle
 10
-23.400009155
 20
-10.400028229
 30
0.0
 40
0.600000558
100
AcDbArc
 50
180.000005364
 51
280.001817703
  0
LINE
  5
30
330
1D
100
AcDbEntity
  8
SK1
100
AcDbLine
 10
-23.295806885
 20
-10.990879059
 30
0.0
 11
-21.641021729
 21
-10.699100494
 31
0.0
  0
LINE
  5
31
330
1D
100
AcDbEntity
  8
SK1
100
AcDbLine
 10
-21.641021729
 20
-10.699100494
 30
0.0
 11
-19.5
 21
-11.000003815
 31
0.0
  0
ARC
  5
32
330
1D
100
AcDbEntity
  8
SK1
100
AcDbCircle
 10
-0.299987793
 20
-11.300037384
 30
0.0
 40
0.500000179
100
AcDbArc
 50
53.129754066
 51
105.00063283
  0
LINE
  5
33
330
1D
100
AcDbEntity
  8
SK1
100
AcDbLine
 10
-0.429406511
 20
-10.817061491
 30
0.0
 11
-1.112182617
 21
-11.000003815
 31
0.0
  0
ARC
  5
34
330
1D
100
AcDbEntity
  8
SK1
100
AcDbCircle
 10
-0.299987793
 20
11.299980164
 30
0.0
 40
0.500000179
100
AcDbArc
 50
254.998467366
 51
306.870288849
  0
LINE
  5
35
330
1D
100
AcDbEntity
  8
SK1
100
AcDbLine
 10
-0.429406466
 20
10.817034776
 30
0.0
 11
-1.112213135
 21
11.0
 31
0.0
  0
LINE
  5
36
330
1D
100
AcDbEntity
  8
SK1
100
AcDbLine
 10
-1.112213135
 20
11.0
 30
0.0
 11
-1.112197876
 21
-11.000003815
 31
0.0
  0
LINE
  5
37
330
1D
100
AcDbEntity
  8
SK1
100
AcDbLine
 10
-1.112197876
 20
-11.000003815
 30
0.0
 11
-19.5
 21
-11.000003815
 31
0.0
  0
LINE
  5
38
330
1D
100
AcDbEntity
  8
SK1
100
AcDbLine
 10
-19.5
 20
11.0
 30
0.0
 11
-1.112197876
 21
11.0
 31
0.0
  0
LINE
  5
3A
330
1D
100
AcDbEntity
  8
4
100
AcDbLine
 10
0.0
 20
0.0
 30
0.0
 11
50.07317599000001
 21
0.0
 31
0.0
  0
CIRCLE
  5
3C
330
1D
100
AcDbEntity
  8
SK1
100
AcDbCircle
 10
-9.650009155
 20
0.0
 30
0.0
 40
3.0
  0
LINE
  5
3D
330
1D
100
AcDbEntity
  8
SK1
100
AcDbLine
 10
-3.424312592
 20
-13.274999619
 30
0.0
 11
-8.575679779
 21
-13.274999619
 31
0.0
  0
LINE
  5
3E
330
1D
100
AcDbEntity
  8
SK1
100
AcDbLine
 10
-3.424312592
 20
13.274999619
 30
0.0
 11
-8.575687408
 21
13.274999619
 31
0.0
  0
LINE
  5
3F
330
1D
100
AcDbEntity
  8
SK1
100
AcDbLine
 10
-10.142810822
 20
-11.360654831
 30
0.0
 11
-9.268497467
 21
-12.875001907
 31
0.0
  0
LINE
  5
40
330
1D
100
AcDbEntity
  8
SK1
100
AcDbLine
 10
-1.85717392
 20
-11.360643387
 30
0.0
 11
-2.731487274
 21
-12.875001907
 31
0.0
  0
LINE
  5
41
330
1D
100
AcDbEntity
  8
SK1
100
AcDbLine
 10
-10.142818451
 20
11.360639572
 30
0.0
 11
-9.268505096
 21
12.875005722
 31
0.0
  0
LINE
  5
42
330
1D
100
AcDbEntity
  8
SK1
100
AcDbLine
 10
-1.85717392
 20
11.360635757
 30
0.0
 11
-2.731494904
 21
12.875001907
 31
0.0
  0
ARC
  5
43
330
1D
100
AcDbEntity
  8
SK1
100
AcDbCircle
 10
-9.449993134
 20
-10.96064949
 30
0.0
 40
0.800000438
100
AcDbArc
 50
182.819682343
 51
210.000427246
  0
ARC
  5
44
330
1D
100
AcDbEntity
  8
SK1
100
AcDbCircle
 10
-8.575679779
 20
-12.475000381
 30
0.0
 40
0.799998464
100
AcDbArc
 50
210.000190735
 51
269.999999404
  0
ARC
  5
45
330
1D
100
AcDbEntity
  8
SK1
100
AcDbCircle
 10
-3.424312592
 20
-12.475000381
 30
0.0
 40
0.799999246
100
AcDbArc
 50
270.0
 51
330.0000929829999
  0
ARC
  5
46
330
1D
100
AcDbEntity
  8
SK1
100
AcDbCircle
 10
-2.549999237
 20
-10.960645676
 30
0.0
 40
0.800003158
100
AcDbArc
 50
330.0003204349999
 51
357.180053712
  0
ARC
  5
47
330
1D
100
AcDbEntity
  8
SK1
100
AcDbCircle
 10
-2.549999237
 20
10.960638046
 30
0.0
 40
0.800003046
100
AcDbArc
 50
2.820220221
 51
29.99966561800001
  0
ARC
  5
48
330
1D
100
AcDbEntity
  8
SK1
100
AcDbCircle
 10
-3.424312592
 20
12.475000381
 30
0.0
 40
0.799998464
100
AcDbArc
 50
30.000183105
 51
90.000002503
  0
ARC
  5
49
330
1D
100
AcDbEntity
  8
SK1
100
AcDbCircle
 10
-8.575687408
 20
12.475000381
 30
0.0
 40
0.799999246
100
AcDbArc
 50
90.0
 51
149.999572635
  0
ARC
  5
4A
330
1D
100
AcDbEntity
  8
SK1
100
AcDbCircle
 10
-9.449993134
 20
10.960638046
 30
0.0
 40
0.800005095
100
AcDbArc
 50
150.000083923
 51
177.179787008
  0
LINE
  5
4B
330
1D
100
AcDbEntity
  8
SK4
100
AcDbLine
 10
-6.0
 20
13.43154287
 30
0.0
 11
-6.0
 21
10.305803303
 31
0.0
  0
LINE
  5
4C
330
1D
100
AcDbEntity
  8
SK4
100
AcDbLine
 10
-6.0
 20
-13.43154287
 30
0.0
 11
-6.0
 21
-10.305803303
 31
0.0
  0
LINE
  5
4D
330
1D
100
AcDbEntity
  8
SK3
100
AcDbLine
 10
-0.0000000000000013
 20
5.249999941692177
 30
0.0
 11
-20.922650383
 21
5.250001167
 31
0.0
  0
LINE
  5
4E
330
1D
100
AcDbEntity
  8
SK3
100
AcDbLine
 10
-20.922647978
 20
-5.249998833
 30
0.0
 11
0.0000000000000107
 21
-5.250000058307814
 31
0.0
  0
LINE
  5
4F
330
1D
100
AcDbEntity
  8
SK3
100
AcDbLine
 10
-0.999996964
 20
-5.25
 30
0.0
 11
-0.999996964
 21
5.25
 31
0.0
  0
LINE
  5
50
330
1D
100
AcDbEntity
  8
11
100
AcDbLine
 10
-21.499999019
 20
-6.0
 30
0.0
 11
-8.999996793
 21
-5.999997137
 31
0.0
  0
LINE
  5
51
330
1D
100
AcDbEntity
  8
SK3
100
AcDbLine
 10
-8.999996793
 20
-5.999997137
 30
0.0
 11
-6.200969372
 21
-5.25
 31
0.0
  0
LINE
  5
52
330
1D
100
AcDbEntity
  8
11
100
AcDbLine
 10
-21.500004623
 20
6.0
 30
0.0
 11
-8.999999541
 21
6.000002863
 31
0.0
  0
LINE
  5
53
330
1D
100
AcDbEntity
  8
SK3
100
AcDbLine
 10
-8.999999541
 20
6.000002863
 30
0.0
 11
-6.20095075
 21
5.25
 31
0.0
  0
LINE
  5
54
330
1D
100
AcDbEntity
  8
SK3
100
AcDbLine
 10
-8.999996793
 20
-5.999997137
 30
0.0
 11
-8.999999541
 21
6.000002863
 31
0.0
  0
LINE
  5
55
330
1D
100
AcDbEntity
  8
SK3
100
AcDbLine
 10
-23.999998786
 20
-6.5
 30
0.0
 11
-23.566986084
 21
-6.25
 31
0.0
  0
LINE
  5
56
330
1D
100
AcDbEntity
  8
SK3
100
AcDbLine
 10
-23.566986084
 20
6.25
 30
0.0
 11
-24.000004857
 21
6.5
 31
0.0
  0
LINE
  5
57
330
1D
100
AcDbEntity
  8
SK3
100
AcDbLine
 10
-21.499998903
 20
-6.25
 30
0.0
 11
-20.922647978
 21
-5.249998865
 31
0.0
  0
LINE
  5
58
330
1D
100
AcDbEntity
  8
SK3
100
AcDbLine
 10
-20.922647978
 20
-5.249998865
 30
0.0
 11
-20.922647978
 21
5.250001135
 31
0.0
  0
LINE
  5
59
330
1D
100
AcDbEntity
  8
SK3
100
AcDbLine
 10
-20.922647978
 20
5.250001135
 30
0.0
 11
-21.50000474
 21
6.25
 31
0.0
  0
LINE
  5
5A
330
1D
100
AcDbEntity
  8
SK3
100
AcDbLine
 10
-21.50000474
 20
6.25
 30
0.0
 11
-23.566986084
 21
6.25
 31
0.0
  0
LINE
  5
5B
330
1D
100
AcDbEntity
  8
SK3
100
AcDbLine
 10
-23.566986084
 20
6.25
 30
0.0
 11
-23.566986084
 21
-6.25
 31
0.0
  0
LINE
  5
5C
330
1D
100
AcDbEntity
  8
SK3
100
AcDbLine
 10
-23.566986084
 20
-6.25
 30
0.0
 11
-21.50000474
 21
-6.25
 31
0.0
  0
LINE
  5
5D
330
1D
100
AcDbEntity
  8
SK3
100
AcDbLine
 10
-21.50000474
 20
-6.25
 30
0.0
 11
-21.50000474
 21
6.25
 31
0.0
  0
LINE
  5
5E
330
1D
100
AcDbEntity
  8
2
100
AcDbLine
 10
0.0
 20
30.0
 30
0.0
 11
0.0
 21
18.75
 31
0.0
  0
LINE
  5
5F
330
1D
100
AcDbEntity
  8
2
100
AcDbLine
 10
0.0
 20
28.0
 30
0.0
 11
3.499999999
 21
28.450000004
 31
0.0
  0
LINE
  5
60
330
1D
100
AcDbEntity
  8
2
100
AcDbLine
 10
3.499999999
 20
28.450000004
 30
0.0
 11
3.500000001
 21
27.550000004
 31
0.0
  0
LINE
  5
61
330
1D
100
AcDbEntity
  8
2
100
AcDbLine
 10
3.500000001
 20
27.550000004
 30
0.0
 11
0.0
 21
28.0
 31
0.0
  0
LINE
  5
62
330
1D
100
AcDbEntity
  8
1
100
AcDbLine
 10
46.999999996
 20
30.000000056
 30
0.0
 11
46.999999996
 21
18.750000056
 31
0.0
  0
LINE
  5
63
330
1D
100
AcDbEntity
  8
2
100
AcDbLine
 10
46.999999996
 20
28.000000056
 30
0.0
 11
43.499999997
 21
27.550000052
 31
0.0
  0
LINE
  5
64
330
1D
100
AcDbEntity
  8
2
100
AcDbLine
 10
43.499999997
 20
27.550000052
 30
0.0
 11
43.499999995
 21
28.450000052
 31
0.0
  0
LINE
  5
65
330
1D
100
AcDbEntity
  8
2
100
AcDbLine
 10
43.499999995
 20
28.450000052
 30
0.0
 11
46.999999996
 21
28.000000056
 31
0.0
  0
LINE
  5
66
330
1D
100
AcDbEntity
  8
2
100
AcDbLine
 10
3.5
 20
28.000000004
 30
0.0
 11
43.499999996
 21
28.000000052
 31
0.0
  0
TEXT
  5
67
330
1D
100
AcDbEntity
  8
2
100
AcDbText
 10
21.835311971
 20
29.500000026
 30
0.0
 40
3.5
  1
47
 50
0.000000068
  7
BMG_Text
100
AcDbText
  0
LINE
  5
68
330
1D
100
AcDbEntity
  8
SK2
100
AcDbLine
 10
-42.0
 20
-19.500003815
 30
0.0
 11
0.75
 21
-19.500003815
 31
0.0
  0
LINE
  5
69
330
1D
100
AcDbEntity
  8
SK2
100
AcDbLine
 10
-40.0
 20
-19.500003815
 30
0.0
 11
-40.45
 21
-16.000003815
 31
0.0
  0
LINE
  5
6A
330
1D
100
AcDbEntity
  8
SK2
100
AcDbLine
 10
-40.45
 20
-16.000003815
 30
0.0
 11
-39.55
 21
-16.000003815
 31
0.0
  0
LINE
  5
6B
330
1D
100
AcDbEntity
  8
SK2
100
AcDbLine
 10
-39.55
 20
-16.000003815
 30
0.0
 11
-40.0
 21
-19.500003815
 31
0.0
  0
LINE
  5
6C
330
1D
100
AcDbEntity
  8
SK2
100
AcDbLine
 10
-42.0
 20
19.5
 30
0.0
 11
0.75
 21
19.5
 31
0.0
  0
LINE
  5
6D
330
1D
100
AcDbEntity
  8
SK2
100
AcDbLine
 10
-40.0
 20
19.5
 30
0.0
 11
-39.55
 21
16.0
 31
0.0
  0
LINE
  5
6E
330
1D
100
AcDbEntity
  8
SK2
100
AcDbLine
 10
-39.55
 20
16.0
 30
0.0
 11
-40.45
 21
16.0
 31
0.0
  0
LINE
  5
6F
330
1D
100
AcDbEntity
  8
SK2
100
AcDbLine
 10
-40.45
 20
16.0
 30
0.0
 11
-40.0
 21
19.5
 31
0.0
  0
LINE
  5
70
330
1D
100
AcDbEntity
  8
SK2
100
AcDbLine
 10
-40.0
 20
-16.000003815
 30
0.0
 11
-40.0
 21
16.0
 31
0.0
  0
TEXT
  5
71
330
1D
100
AcDbEntity
  8
SK2
100
AcDbText
 10
-41.5
 20
0.331403907
 30
0.0
 40
3.5
  1
39
 50
90.0
  7
BMG_Text
100
AcDbText
  0
CIRCLE
  5
72
330
1D
100
AcDbEntity
  8
SK2
100
AcDbCircle
 10
-42.75
 20
-1.918596093
 30
0.0
 40
1.25
  0
LINE
  5
73
330
1D
100
AcDbEntity
  8
SK2
100
AcDbLine
 10
-41.5
 20
-3.168596093
 30
0.0
 11
-44.0
 21
-0.668596093
 31
0.0
  0
LINE
  5
74
330
1D
100
AcDbEntity
  8
SK2
100
AcDbLine
 10
-34.0
 20
-11.000003815
 30
0.0
 11
-19.5
 21
-11.000003815
 31
0.0
  0
LINE
  5
75
330
1D
100
AcDbEntity
  8
SK2
100
AcDbLine
 10
-32.0
 20
-11.000003815
 30
0.0
 11
-32.45
 21
-7.500003815
 31
0.0
  0
LINE
  5
76
330
1D
100
AcDbEntity
  8
SK2
100
AcDbLine
 10
-32.45
 20
-7.500003815
 30
0.0
 11
-31.55
 21
-7.500003815
 31
0.0
  0
LINE
  5
77
330
1D
100
AcDbEntity
  8
SK2
100
AcDbLine
 10
-31.55
 20
-7.500003815
 30
0.0
 11
-32.0
 21
-11.000003815
 31
0.0
  0
LINE
  5
78
330
1D
100
AcDbEntity
  8
SK2
100
AcDbLine
 10
-34.0
 20
11.0
 30
0.0
 11
-19.5
 21
11.0
 31
0.0
  0
LINE
  5
79
330
1D
100
AcDbEntity
  8
SK2
100
AcDbLine
 10
-32.0
 20
11.0
 30
0.0
 11
-31.55
 21
7.5
 31
0.0
  0
LINE
  5
7A
330
1D
100
AcDbEntity
  8
SK2
100
AcDbLine
 10
-31.55
 20
7.5
 30
0.0
 11
-32.45
 21
7.5
 31
0.0
  0
LINE
  5
7B
330
1D
100
AcDbEntity
  8
SK2
100
AcDbLine
 10
-32.45
 20
7.5
 30
0.0
 11
-32.0
 21
11.0
 31
0.0
  0
LINE
  5
7C
330
1D
100
AcDbEntity
  8
SK2
100
AcDbLine
 10
-32.0
 20
-7.500003815
 30
0.0
 11
-32.0
 21
7.5
 31
0.0
  0
TEXT
  5
7D
330
1D
100
AcDbEntity
  8
SK2
100
AcDbText
 10
-33.5
 20
0.085310347
 30
0.0
 40
3.5
  1
22
 50
90.0
  7
BMG_Text
100
AcDbText
  0
CIRCLE
  5
7E
330
1D
100
AcDbEntity
  8
SK2
100
AcDbCircle
 10
-34.75
 20
-2.164689653
 30
0.0
 40
1.25
  0
LINE
  5
7F
330
1D
100
AcDbEntity
  8
SK2
100
AcDbLine
 10
-33.5
 20
-3.414689653
 30
0.0
 11
-36.0
 21
-0.914689653
 31
0.0
  0
TEXT
  5
80
330
1D
100
AcDbEntity
  8
SK6
100
AcDbText
 10
-22.79462193518424
 20
-24.55903317606483
 30
0.0
 40
3.5
  1
319.401
  7
BMG_Text
100
AcDbText
  0
LINE
  5
81
330
1D
100
AcDbEntity
  8
3
100
AcDbLine
 10
28.000000864
 20
-14.717770421
 30
0.0
 11
3.573421846
 21
-3.674586702
 31
0.0
  0
LINE
  5
82
330
1D
100
AcDbEntity
  8
1
100
AcDbLine
 10
28.000000864
 20
5.356071565
 30
0.0
 11
19.5
 21
5.356071321
 31
0.0
  0
ARC
  5
83
330
1D
100
AcDbEntity
  8
1
100
AcDbCircle
 10
51.980727994
 20
0.0
 30
0.0
 40
32.919374098
100
AcDbArc
 50
170.636193962
 51
180.0
  0
ARC
  5
84
330
1D
100
AcDbEntity
  8
1
100
AcDbCircle
 10
51.980727994
 20
0.0
 30
0.0
 40
32.913740696
100
AcDbArc
 50
180.0
 51
189.363806488
  0
LINE
  5
85
330
1D
100
AcDbEntity
  8
1
100
AcDbLine
 10
19.500000402
 20
-5.356071517
 30
0.0
 11
28.000000864
 21
-5.356071517
 31
0.0
  0
LINE
  5
86
330
1D
100
AcDbEntity
  8
1
100
AcDbLine
 10
27.699999511
 20
-19.500000402
 30
0.0
 11
0.750000007
 21
-19.500000402
 31
0.0
  0
LINE
  5
87
330
1D
100
AcDbEntity
  8
1
100
AcDbLine
 10
0.750000007
 20
-19.500000402
 30
0.0
 11
0.0
 21
-18.750000745
 31
0.0
  0
LINE
  5
88
330
1D
100
AcDbEntity
  8
1
100
AcDbLine
 10
0.0
 20
-18.750000745
 30
0.0
 11
0.0
 21
18.750000745
 31
0.0
  0
LINE
  5
89
330
1D
100
AcDbEntity
  8
1
100
AcDbLine
 10
0.0
 20
18.750000745
 30
0.0
 11
0.750000007
 21
19.500000402
 31
0.0
  0
LINE
  5
8A
330
1D
100
AcDbEntity
  8
1
100
AcDbLine
 10
0.750000007
 20
19.500000402
 30
0.0
 11
27.699999511
 21
19.500000402
 31
0.0
  0
LINE
  5
8B
330
1D
100
AcDbEntity
  8
1
100
AcDbLine
 10
27.699999511
 20
19.500000402
 30
0.0
 11
28.000000864
 21
19.197942676
 31
0.0
  0
LINE
  5
8C
330
1D
100
AcDbEntity
  8
1
100
AcDbLine
 10
28.000000864
 20
19.197942676
 30
0.0
 11
28.000000864
 21
-19.197942676
 31
0.0
  0
LINE
  5
8D
330
1D
100
AcDbEntity
  8
1
100
AcDbLine
 10
27.699999511
 20
-19.500000402
 30
0.0
 11
28.000000864
 21
-19.197942676
 31
0.0
  0
LINE
  5
8E
330
1D
100
AcDbEntity
  8
1
100
AcDbLine
 10
0.750000007
 20
-19.500000402
 30
0.0
 11
0.750000007
 21
19.500000402
 31
0.0
  0
LINE
  5
8F
330
1D
100
AcDbEntity
  8
1
100
AcDbLine
 10
19.500000402
 20
-5.356071517
 30
0.0
 11
19.500000402
 21
5.356071517
 31
0.0
  0
LINE
  5
90
330
1D
100
AcDbEntity
  8
3
100
AcDbLine
 10
4.910862016
 20
0.0
 30
0.0
 11
3.000000026
 21
5.250050221
 31
0.0
  0
LINE
  5
91
330
1D
100
AcDbEntity
  8
3
100
AcDbLine
 10
3.000000026
 20
5.250050221
 30
0.0
 11
3.000000026
 21
-5.250000234
 31
0.0
  0
LINE
  5
92
330
1D
100
AcDbEntity
  8
3
100
AcDbLine
 10
3.000000026
 20
-5.250050221
 30
0.0
 11
4.910862016
 21
0.0
 31
0.0
  0
LINE
  5
93
330
1D
100
AcDbEntity
  8
3
100
AcDbLine
 10
28.000000864
 20
17.461390319
 30
0.0
 11
0.98944945
 21
5.249999883
 31
0.0
  0
LINE
  5
94
330
1D
100
AcDbEntity
  8
3
100
AcDbLine
 10
3.573421833
 20
3.674586739
 30
0.0
 11
28.000000864
 21
14.717771697
 31
0.0
  0
LINE
  5
95
330
1D
100
AcDbEntity
  8
3
100
AcDbLine
 10
0.989449559
 20
-5.250000117
 30
0.0
 11
28.000000864
 21
-17.461391621
 31
0.0
  0
LINE
  5
96
330
1D
100
AcDbEntity
  8
4
100
AcDbLine
 10
1.775675608
 20
4.233640674
 30
0.0
 11
28.668469173
 21
16.391793573
 31
0.0
  0
LINE
  5
97
330
1D
100
AcDbEntity
  8
2
100
AcDbLine
 10
0.0
 20
-29.420376569
 30
0.0
 11
0.0
 21
-18.750000745
 31
0.0
  0
LINE
  5
98
330
1D
100
AcDbEntity
  8
2
100
AcDbLine
 10
0.0
 20
-27.420376569
 30
0.0
 11
3.500000002
 21
-26.970376588
 31
0.0
  0
LINE
  5
99
330
1D
100
AcDbEntity
  8
2
100
AcDbLine
 10
3.500000002
 20
-26.970376588
 30
0.0
 11
3.499999998
 21
-27.870376588
 31
0.0
  0
LINE
  5
9A
330
1D
100
AcDbEntity
  8
2
100
AcDbLine
 10
3.499999998
 20
-27.870376588
 30
0.0
 11
0.0
 21
-27.420376569
 31
0.0
  0
LINE
  5
9B
330
1D
100
AcDbEntity
  8
2
100
AcDbLine
 10
28.000000864
 20
-29.42037672
 30
0.0
 11
28.000000864
 21
-19.197942676
 31
0.0
  0
LINE
  5
9C
330
1D
100
AcDbEntity
  8
2
100
AcDbLine
 10
28.000000864
 20
-27.42037672
 30
0.0
 11
24.500000862
 21
-27.870376701
 31
0.0
  0
LINE
  5
9D
330
1D
100
AcDbEntity
  8
2
100
AcDbLine
 10
24.500000862
 20
-27.870376701
 30
0.0
 11
24.500000867
 21
-26.970376701
 31
0.0
  0
LINE
  5
9E
330
1D
100
AcDbEntity
  8
2
100
AcDbLine
 10
24.500000867
 20
-26.970376701
 30
0.0
 11
28.000000864
 21
-27.42037672
 31
0.0
  0
LINE
  5
9F
330
1D
100
AcDbEntity
  8
2
100
AcDbLine
 10
3.5
 20
-27.420376588
 30
0.0
 11
24.500000864
 21
-27.420376701
 31
0.0
  0
TEXT
  5
A0
330
1D
100
AcDbEntity
  8
2
100
AcDbText
 10
12.335312627
 20
-25.920376636
 30
0.0
 40
3.5
  1
28
 50
359.999999691
  7
BMG_Text
100
AcDbText
  0
ARC
  5
A1
330
1D
100
AcDbEntity
  8
1
100
AcDbCircle
 10
52.208861073
 20
-1.998249979
 30
0.0
 40
8.008861816
100
AcDbArc
 50
180.012517252
 51
202.279709733
  0
ARC
  5
A2
330
1D
100
AcDbEntity
  8
1
100
AcDbCircle
 10
45.526194269
 20
-18.713861652
 30
0.0
 40
0.806317232
100
AcDbArc
 50
260.507481333
 51
357.896535299
  0
LINE
  5
A3
330
1D
100
AcDbEntity
  8
1
100
AcDbLine
 10
44.199999448
 20
-1.305035922
 30
0.0
 11
44.149767634
 21
-1.541287779
 31
0.0
  0
LINE
  5
A4
330
1D
100
AcDbEntity
  8
1
100
AcDbLine
 10
44.149767634
 20
-1.541287779
 30
0.0
 11
44.062290367
 21
-1.764161187
 31
0.0
  0
LINE
  5
A5
330
1D
100
AcDbEntity
  8
1
100
AcDbLine
 10
44.062290367
 20
-1.764161187
 30
0.0
 11
44.002730426
 21
-1.84203419
 31
0.0
  0
LINE
  5
A6
330
1D
100
AcDbEntity
  8
1
100
AcDbLine
 10
44.002730426
 20
-1.84203419
 30
0.0
 11
43.975729522
 21
-1.860028273
 31
0.0
  0
LINE
  5
A7
330
1D
100
AcDbEntity
  8
1
100
AcDbLine
 10
43.975729522
 20
-1.860028273
 30
0.0
 11
43.944016125
 21
-1.868373506
 31
0.0
  0
LINE
  5
A8
330
1D
100
AcDbEntity
  8
1
100
AcDbLine
 10
43.944016125
 20
-1.868373506
 30
0.0
 11
43.916191932
 21
-1.864602464
 31
0.0
  0
LINE
  5
A9
330
1D
100
AcDbEntity
  8
1
100
AcDbLine
 10
43.916191932
 20
-1.864602464
 30
0.0
 11
43.885793563
 21
-1.848675684
 31
0.0
  0
LINE
  5
AA
330
1D
100
AcDbEntity
  8
1
100
AcDbLine
 10
43.885793563
 20
-1.848675684
 30
0.0
 11
43.843835619
 21
-1.805919363
 31
0.0
  0
LINE
  5
AB
330
1D
100
AcDbEntity
  8
1
100
AcDbLine
 10
43.843835619
 20
-1.805919363
 30
0.0
 11
43.800134238
 21
-1.733978187
 31
0.0
  0
LINE
  5
AC
330
1D
100
AcDbEntity
  8
1
100
AcDbLine
 10
44.199999448
 20
2.000000537
 30
0.0
 11
44.199999448
 21
-1.999999653
 31
0.0
  0
LINE
  5
AD
330
1D
100
AcDbEntity
  8
1
100
AcDbLine
 10
43.363768634
 20
-19.164811378
 30
0.0
 11
44.745877412
 21
-19.412721997
 31
0.0
  0
LINE
  5
AE
330
1D
100
AcDbEntity
  8
1
100
AcDbLine
 10
44.745877412
 20
-19.412721997
 30
0.0
 11
45.393217381
 21
-19.52880018
 31
0.0
  0
LINE
  5
AF
330
1D
100
AcDbEntity
  8
1
100
AcDbLine
 10
43.363768634
 20
0.000000442
 30
0.0
 11
43.363768634
 21
-19.164811378
 31
0.0
  0
ARC
  5
B0
330
1D
100
AcDbEntity
  8
1
100
AcDbCircle
 10
47.169804782
 20
0.035914871
 30
0.0
 40
3.806205592
100
AcDbArc
 50
180.540637044
 51
207.710348843
  0
ARC
  5
B2
330
1D
100
AcDbEntity
  8
1
100
AcDbCircle
 10
27.841187682
 20
12.471696434
 30
0.0
 40
0.23991131
100
AcDbArc
 50
11.006449348
 51
53.903372518
  0
ARC
  5
B3
330
1D
100
AcDbEntity
  8
1
100
AcDbCircle
 10
8.609760325
 20
-16.46779766
 30
0.0
 40
34.986515051
100
AcDbArc
 50
56.377327849
 51
59.06009047800001
  0
ARC
  5
B4
330
1D
100
AcDbEntity
  8
1
100
AcDbCircle
 10
43.625176219
 20
-16.46779766
 30
0.0
 40
34.980486158
100
AcDbArc
 50
116.563028469
 51
118.744007418
  0
ARC
  5
B5
330
1D
100
AcDbEntity
  8
1
100
AcDbCircle
 10
27.922064806
 20
14.964928826
 30
0.0
 40
0.156803305
100
AcDbArc
 50
292.682174817
 51
67.317825183
  0
ARC
  5
B6
330
1D
100
AcDbEntity
  8
1
100
AcDbCircle
 10
12.939887344
 20
-16.46779766
 30
0.0
 40
34.977327837
100
AcDbArc
 50
64.528097096
 51
66.652549519
  0
ARC
  5
B7
330
1D
100
AcDbEntity
  8
1
100
AcDbCircle
 10
42.488332824
 20
-24.162556728
 30
0.0
 40
43.302984159
100
AcDbArc
 50
111.162050608
 51
111.240985639
  0
ARC
  5
B8
330
1D
100
AcDbEntity
  8
1
100
AcDbCircle
 10
-4.767188388
 20
-259.092125012
 30
0.0
 40
277.120445099
100
AcDbArc
 50
83.26858471900003
 51
83.44762446199998
  0
LINE
  5
B9
330
1D
100
AcDbEntity
  8
1
100
AcDbLine
 10
27.715560075
 20
16.117997909
 30
0.0
 11
28.665136572
 21
16.039303014
 31
0.0
  0
LINE
  5
BA
330
1D
100
AcDbEntity
  8
1
100
AcDbLine
 10
28.665136572
 20
16.039303014
 30
0.0
 11
29.628308516
 21
16.021917084
 31
0.0
  0
LINE
  5
BB
330
1D
100
AcDbEntity
  8
1
100
AcDbLine
 10
29.628308516
 20
16.021917084
 30
0.0
 11
30.588410821
 21
16.056308964
 31
0.0
  0
LINE
  5
BC
330
1D
100
AcDbEntity
  8
1
100
AcDbLine
 10
30.588410821
 20
16.056308964
 30
0.0
 11
31.349770751
 21
16.115816752
 31
0.0
  0
LINE
  5
BD
330
1D
100
AcDbEntity
  8
1
100
AcDbLine
 10
31.349770751
 20
16.115816752
 30
0.0
 11
32.104332026
 21
16.205652127
 31
0.0
  0
LINE
  5
BE
330
1D
100
AcDbEntity
  8
1
100
AcDbLine
 10
32.104332026
 20
16.205652127
 30
0.0
 11
32.839965102
 21
16.329516167
 31
0.0
  0
LINE
  5
BF
330
1D
100
AcDbEntity
  8
1
100
AcDbLine
 10
32.839965102
 20
16.329516167
 30
0.0
 11
33.544532981
 21
16.491109947
 31
0.0
  0
LINE
  5
C0
330
1D
100
AcDbEntity
  8
1
100
AcDbLine
 10
33.544532981
 20
16.491109947
 30
0.0
 11
33.928331014
 21
16.603749687
 31
0.0
  0
LINE
  5
C1
330
1D
100
AcDbEntity
  8
1
100
AcDbLine
 10
33.928331014
 20
16.603749687
 30
0.0
 11
34.284148392
 21
16.736388648
 31
0.0
  0
LINE
  5
C2
330
1D
100
AcDbEntity
  8
1
100
AcDbLine
 10
34.284148392
 20
16.736388648
 30
0.0
 11
34.620814052
 21
16.914837504
 31
0.0
  0
LINE
  5
C3
330
1D
100
AcDbEntity
  8
1
100
AcDbLine
 10
34.620814052
 20
16.914837504
 30
0.0
 11
34.785918918
 21
17.070346022
 31
0.0
  0
LINE
  5
C4
330
1D
100
AcDbEntity
  8
1
100
AcDbLine
 10
34.785918918
 20
17.070346022
 30
0.0
 11
34.828409579
 21
17.202372173
 31
0.0
  0
LINE
  5
C5
330
1D
100
AcDbEntity
  8
1
100
AcDbLine
 10
34.828409579
 20
17.202372173
 30
0.0
 11
34.774616387
 21
17.330324719
 31
0.0
  0
LINE
  5
C6
330
1D
100
AcDbEntity
  8
1
100
AcDbLine
 10
34.774616387
 20
17.330324719
 30
0.0
 11
34.597676274
 21
17.465785587
 31
0.0
  0
LINE
  5
C7
330
1D
100
AcDbEntity
  8
1
100
AcDbLine
 10
34.597676274
 20
17.465785587
 30
0.0
 11
34.400098052
 21
17.554410244
 31
0.0
  0
LINE
  5
C8
330
1D
100
AcDbEntity
  8
1
100
AcDbLine
 10
34.400098052
 20
17.554410244
 30
0.0
 11
34.174095866
 21
17.627764935
 31
0.0
  0
LINE
  5
C9
330
1D
100
AcDbEntity
  8
1
100
AcDbLine
 10
34.174095866
 20
17.627764935
 30
0.0
 11
33.667918321
 21
17.742945323
 31
0.0
  0
LINE
  5
CA
330
1D
100
AcDbEntity
  8
1
100
AcDbLine
 10
33.667918321
 20
17.742945323
 30
0.0
 11
33.126853433
 21
17.824886808
 31
0.0
  0
LINE
  5
CB
330
1D
100
AcDbEntity
  8
1
100
AcDbLine
 10
33.126853433
 20
17.824886808
 30
0.0
 11
32.355397966
 21
17.901631514
 31
0.0
  0
ARC
  5
CC
330
1D
100
AcDbEntity
  8
1
100
AcDbCircle
 10
-11.494133022
 20
-564.848260189
 30
0.0
 40
584.397311936
100
AcDbArc
 50
85.696837583
 51
86.216342435
  0
ARC
  5
CD
330
1D
100
AcDbEntity
  8
1
100
AcDbCircle
 10
15.292150724
 20
-37.50827071
 30
0.0
 40
57.014018926
100
AcDbArc
 50
78.078224415
 51
78.35546562200001
  0
ARC
  5
CE
330
1D
100
AcDbEntity
  8
1
100
AcDbCircle
 10
36.942785819
 20
-37.50827071
 30
0.0
 40
57.017989819
100
AcDbArc
 50
99.04138533499999
 51
100.246803522
  0
LINE
  5
CF
330
1D
100
AcDbEntity
  8
1
100
AcDbLine
 10
27.982531142
 20
18.801276082
 30
0.0
 11
28.034400221
 21
18.813072214
 31
0.0
  0
LINE
  5
D0
330
1D
100
AcDbEntity
  8
1
100
AcDbLine
 10
28.034400221
 20
18.813072214
 30
0.0
 11
28.068710145
 21
18.828545207
 31
0.0
  0
LINE
  5
D1
330
1D
100
AcDbEntity
  8
1
100
AcDbLine
 10
28.068710145
 20
18.828545207
 30
0.0
 11
28.082421076
 21
18.846316705
 31
0.0
  0
LINE
  5
D2
330
1D
100
AcDbEntity
  8
1
100
AcDbLine
 10
28.082421076
 20
18.846316705
 30
0.0
 11
28.072683167
 21
18.864412302
 31
0.0
  0
LINE
  5
D3
330
1D
100
AcDbEntity
  8
1
100
AcDbLine
 10
28.072683167
 20
18.864412302
 30
0.0
 11
28.039790716
 21
18.880425463
 31
0.0
  0
LINE
  5
D4
330
1D
100
AcDbEntity
  8
1
100
AcDbLine
 10
28.039790716
 20
18.880425463
 30
0.0
 11
27.982531142
 21
18.893175269
 31
0.0
  0
ARC
  5
D5
330
1D
100
AcDbEntity
  8
1
100
AcDbCircle
 10
19.622277743
 20
-37.50827071
 30
0.0
 40
57.017689742
100
AcDbArc
 50
81.568573479
 51
82.767924027
  0
ARC
  5
D6
330
1D
100
AcDbEntity
  8
1
100
AcDbCircle
 10
32.6126588
 20
-37.50827071
 30
0.0
 40
57.012493804
100
AcDbArc
 50
94.658263533
 51
95.85151243599998
  0
LINE
  5
D7
330
1D
100
AcDbEntity
  8
1
100
AcDbLine
 10
27.982531142
 20
19.315900723
 30
0.0
 11
28.034279149
 21
19.321792269
 31
0.0
  0
LINE
  5
D8
330
1D
100
AcDbEntity
  8
1
100
AcDbLine
 10
28.034279149
 20
19.321792269
 30
0.0
 11
28.068801415
 21
19.329525972
 31
0.0
  0
LINE
  5
D9
330
1D
100
AcDbEntity
  8
1
100
AcDbLine
 10
28.068801415
 20
19.329525972
 30
0.0
 11
28.082413625
 21
19.338190997
 31
0.0
  0
LINE
  5
DA
330
1D
100
AcDbEntity
  8
1
100
AcDbLine
 10
28.082413625
 20
19.338190997
 30
0.0
 11
28.073254999
 21
19.346766615
 31
0.0
  0
LINE
  5
DB
330
1D
100
AcDbEntity
  8
1
100
AcDbLine
 10
28.073254999
 20
19.346766615
 30
0.0
 11
28.042189803
 21
19.354271213
 31
0.0
  0
LINE
  5
DC
330
1D
100
AcDbEntity
  8
1
100
AcDbLine
 10
28.042189803
 20
19.354271213
 30
0.0
 11
27.992935878
 21
19.359907577
 31
0.0
  0
LINE
  5
DD
330
1D
100
AcDbEntity
  8
1
100
AcDbLine
 10
27.992935878
 20
19.359907577
 30
0.0
 11
27.982531142
 21
19.360682437
 31
0.0
  0
ARC
  5
DE
330
1D
100
AcDbEntity
  8
1
100
AcDbCircle
 10
23.952404762
 20
-37.50827071
 30
0.0
 40
57.011576096
100
AcDbArc
 50
85.946401968
 51
87.13693913300001
  0
ARC
  5
DF
330
1D
100
AcDbEntity
  8
1
100
AcDbCircle
 10
28.282531781
 20
-37.50827071
 30
0.0
 40
57.008291271
100
AcDbArc
 50
90.30151426800002
 51
91.49016387
  0
LINE
  5
E0
330
1D
100
AcDbEntity
  8
1
100
AcDbLine
 10
27.982531142
 20
19.499231571
 30
0.0
 11
28.034226995
 21
19.499564985
 31
0.0
  0
LINE
  5
E1
330
1D
100
AcDbEntity
  8
1
100
AcDbLine
 10
28.034226995
 20
19.499564985
 30
0.0
 11
28.055736822
 21
19.499743799
 31
0.0
  0
LINE
  5
E2
330
1D
100
AcDbEntity
  8
1
100
AcDbLine
 10
28.055736822
 20
19.499743799
 30
0.0
 11
37.528548416
 21
19.499743799
 31
0.0
  0
LINE
  5
E3
330
1D
100
AcDbEntity
  8
1
100
AcDbLine
 10
36.600001183
 20
16.035642916
 30
0.0
 11
36.333978203
 21
16.496405447
 31
0.0
  0
LINE
  5
E4
330
1D
100
AcDbEntity
  8
1
100
AcDbLine
 10
36.333978203
 20
16.496405447
 30
0.0
 11
36.085456636
 21
16.926859016
 31
0.0
  0
LINE
  5
E5
330
1D
100
AcDbEntity
  8
1
100
AcDbLine
 10
36.085456636
 20
16.926859016
 30
0.0
 11
35.854890969
 21
17.326210136
 31
0.0
  0
LINE
  5
E6
330
1D
100
AcDbEntity
  8
1
100
AcDbLine
 10
35.854890969
 20
17.326210136
 30
0.0
 11
35.642705884
 21
17.693724925
 31
0.0
  0
LINE
  5
E7
330
1D
100
AcDbEntity
  8
1
100
AcDbLine
 10
35.642705884
 20
17.693724925
 30
0.0
 11
35.449288812
 21
18.028730968
 31
0.0
  0
LINE
  5
E8
330
1D
100
AcDbEntity
  8
1
100
AcDbLine
 10
35.449288812
 20
18.028730968
 30
0.0
 11
35.275001105
 21
18.330609867
 31
0.0
  0
LINE
  5
E9
330
1D
100
AcDbEntity
  8
1
100
AcDbLine
 10
35.275001105
 20
18.330609867
 30
0.0
 11
35.120155689
 21
18.598808417
 31
0.0
  0
LINE
  5
EA
330
1D
100
AcDbEntity
  8
1
100
AcDbLine
 10
35.120155689
 20
18.598808417
 30
0.0
 11
34.98503941
 21
18.832834879
 31
0.0
  0
LINE
  5
EB
330
1D
100
AcDbEntity
  8
1
100
AcDbLine
 10
34.98503941
 20
18.832834879
 30
0.0
 11
34.869905588
 21
19.032255257
 31
0.0
  0
LINE
  5
EC
330
1D
100
AcDbEntity
  8
1
100
AcDbLine
 10
34.869905588
 20
19.032255257
 30
0.0
 11
34.774959114
 21
19.196706334
 31
0.0
  0
LINE
  5
ED
330
1D
100
AcDbEntity
  8
1
100
AcDbLine
 10
34.774959114
 20
19.196706334
 30
0.0
 11
34.700375077
 21
19.325886363
 31
0.0
  0
LINE
  5
EE
330
1D
100
AcDbEntity
  8
1
100
AcDbLine
 10
34.700375077
 20
19.325886363
 30
0.0
 11
34.646295037
 21
19.419555063
 31
0.0
  0
LINE
  5
EF
330
1D
100
AcDbEntity
  8
1
100
AcDbLine
 10
34.646295037
 20
19.419555063
 30
0.0
 11
34.612815854
 21
19.477544794
 31
0.0
  0
LINE
  5
F0
330
1D
100
AcDbEntity
  8
1
100
AcDbLine
 10
34.612815854
 20
19.477544794
 30
0.0
 11
34.600000855
 21
19.499743799
 31
0.0
  0
LINE
  5
F1
330
1D
100
AcDbEntity
  8
1
100
AcDbLine
 10
36.600001183
 20
11.171068506
 30
0.0
 11
36.600001183
 21
16.035642916
 31
0.0
  0
ARC
  5
F2
330
1D
100
AcDbEntity
  8
1
100
AcDbCircle
 10
41.600000339
 20
11.171065484
 30
0.0
 40
4.999999156
100
AcDbArc
 50
179.999965366
 51
224.999966347
  0
LINE
  5
F3
330
1D
100
AcDbEntity
  8
1
100
AcDbLine
 10
44.199999448
 20
1.500000455
 30
0.0
 11
43.410807874
 21
2.289193193
 31
0.0
  0
LINE
  5
F4
330
1D
100
AcDbEntity
  8
1
100
AcDbLine
 10
43.410807874
 20
2.289193193
 30
0.0
 11
42.625401196
 21
3.074600803
 31
0.0
  0
LINE
  5
F5
330
1D
100
AcDbEntity
  8
1
100
AcDbLine
 10
42.625401196
 20
3.074600803
 30
0.0
 11
41.845075813
 21
3.854924323
 31
0.0
  0
LINE
  5
F6
330
1D
100
AcDbEntity
  8
1
100
AcDbLine
 10
41.845075813
 20
3.854924323
 30
0.0
 11
41.071128127
 21
4.628873406
 31
0.0
  0
LINE
  5
F7
330
1D
100
AcDbEntity
  8
1
100
AcDbLine
 10
41.071128127
 20
4.628873406
 30
0.0
 11
40.304832187
 21
5.39516888
 31
0.0
  0
LINE
  5
F8
330
1D
100
AcDbEntity
  8
1
100
AcDbLine
 10
40.304832187
 20
5.39516888
 30
0.0
 11
38.800258216
 21
6.899742851
 31
0.0
  0
LINE
  5
FA
330
1D
100
AcDbEntity
  8
1
100
AcDbLine
 10
38.800258216
 20
6.899742851
 30
0.0
 11
38.064464953
 21
7.635534251
 31
0.0
  0
LINE
  5
FC
330
1D
100
AcDbEntity
  8
1
100
AcDbLine
 10
37.676665958
 20
-19.164811378
 30
0.0
 11
43.363768634
 21
-19.164811378
 31
0.0
  0
LINE
  5
FD
330
1D
100
AcDbEntity
  8
1
100
AcDbLine
 10
37.676665958
 20
-19.449678739
 30
0.0
 11
37.676665958
 21
-19.164811378
 31
0.0
  0
ARC
  5
FE
330
1D
100
AcDbEntity
  8
1
100
AcDbCircle
 10
37.517156202
 20
-19.157585328
 30
0.0
 40
0.342347464
100
AcDbArc
 50
271.907195424
 51
298.638640103
  0
LINE
  5
FF
330
1D
100
AcDbEntity
  8
1
100
AcDbLine
 10
37.528548416
 20
-19.499742916
 30
0.0
 11
28.055736822
 21
-19.499742916
 31
0.0
  0
ARC
  5
100
330
1D
100
AcDbEntity
  8
1
100
AcDbCircle
 10
27.877259943
 20
-39.775608457
 30
0.0
 40
20.276651041
100
AcDbArc
 50
89.495670962
 51
89.702533596
  0
ARC
  5
101
330
1D
100
AcDbEntity
  8
1
100
AcDbCircle
 10
28.282531781
 20
37.508271593
 30
0.0
 40
57.008756748
100
AcDbArc
 50
268.50983613
 51
269.698485732
  0
ARC
  5
102
330
1D
100
AcDbEntity
  8
1
100
AcDbCircle
 10
23.952404762
 20
37.508271593
 30
0.0
 40
57.010003324
100
AcDbArc
 50
272.8630608669999
 51
274.053598032
  0
LINE
  5
103
330
1D
100
AcDbEntity
  8
1
100
AcDbLine
 10
27.982531142
 20
-19.360681554
 30
0.0
 11
28.034240034
 21
-19.355481049
 31
0.0
  0
LINE
  5
104
330
1D
100
AcDbEntity
  8
1
100
AcDbLine
 10
28.034240034
 20
-19.355481049
 30
0.0
 11
28.068764162
 21
-19.348365744
 31
0.0
  0
LINE
  5
105
330
1D
100
AcDbEntity
  8
1
100
AcDbLine
 10
28.068764162
 20
-19.348365744
 30
0.0
 11
28.082404312
 21
-19.339998742
 31
0.0
  0
LINE
  5
106
330
1D
100
AcDbEntity
  8
1
100
AcDbLine
 10
28.082404312
 20
-19.339998742
 30
0.0
 11
28.07336862
 21
-19.331248036
 31
0.0
  0
LINE
  5
107
330
1D
100
AcDbEntity
  8
1
100
AcDbLine
 10
28.07336862
 20
-19.331248036
 30
0.0
 11
28.042417046
 21
-19.323166018
 31
0.0
  0
LINE
  5
108
330
1D
100
AcDbEntity
  8
1
100
AcDbLine
 10
28.042417046
 20
-19.323166018
 30
0.0
 11
27.993153807
 21
-19.31680881
 31
0.0
  0
LINE
  5
109
330
1D
100
AcDbEntity
  8
1
100
AcDbLine
 10
27.993153807
 20
-19.31680881
 30
0.0
 11
27.982531142
 21
-19.315899839
 31
0.0
  0
ARC
  5
10A
330
1D
100
AcDbEntity
  8
1
100
AcDbCircle
 10
32.6126588
 20
37.508271593
 30
0.0
 40
57.014399146
100
AcDbArc
 50
264.148487564
 51
265.3417364670001
  0
ARC
  5
10B
330
1D
100
AcDbEntity
  8
1
100
AcDbCircle
 10
19.622277743
 20
37.508271593
 30
0.0
 40
57.016445711
100
AcDbArc
 50
277.232075973
 51
278.4314265209999
  0
LINE
  5
10C
330
1D
100
AcDbEntity
  8
1
100
AcDbLine
 10
27.982531142
 20
-18.893174386
 30
0.0
 11
28.034318265
 21
-18.882143801
 31
0.0
  0
LINE
  5
10D
330
1D
100
AcDbEntity
  8
1
100
AcDbLine
 10
28.034318265
 20
-18.882143801
 30
0.0
 11
28.068630051
 21
-18.867359986
 31
0.0
  0
LINE
  5
10E
330
1D
100
AcDbEntity
  8
1
100
AcDbLine
 10
28.068630051
 20
-18.867359986
 30
0.0
 11
28.082404312
 21
-18.849974057
 31
0.0
  0
LINE
  5
10F
330
1D
100
AcDbEntity
  8
1
100
AcDbLine
 10
28.082404312
 20
-18.849974057
 30
0.0
 11
28.072934624
 21
-18.83173131
 31
0.0
  0
LINE
  5
110
330
1D
100
AcDbEntity
  8
1
100
AcDbLine
 10
28.072934624
 20
-18.83173131
 30
0.0
 11
28.040295493
 21
-18.815036422
 31
0.0
  0
LINE
  5
111
330
1D
100
AcDbEntity
  8
1
100
AcDbLine
 10
28.040295493
 20
-18.815036422
 30
0.0
 11
27.982531142
 21
-18.801275199
 31
0.0
  0
ARC
  5
112
330
1D
100
AcDbEntity
  8
1
100
AcDbCircle
 10
36.942785819
 20
37.508271593
 30
0.0
 40
57.017611823
100
AcDbArc
 50
259.753196478
 51
260.958614665
  0
ARC
  5
113
330
1D
100
AcDbEntity
  8
1
100
AcDbCircle
 10
15.292150724
 20
37.508271593
 30
0.0
 40
57.014921249
100
AcDbArc
 50
281.6445343780001
 51
282.861778057
  0
LINE
  5
114
330
1D
100
AcDbEntity
  8
1
100
AcDbLine
 10
27.982531142
 20
-18.071194669
 30
0.0
 11
28.03447659
 21
-18.053637376
 31
0.0
  0
LINE
  5
115
330
1D
100
AcDbEntity
  8
1
100
AcDbLine
 10
28.03447659
 20
-18.053637376
 30
0.0
 11
28.068415847
 21
-18.030574104
 31
0.0
  0
LINE
  5
116
330
1D
100
AcDbEntity
  8
1
100
AcDbLine
 10
28.068415847
 20
-18.030574104
 30
0.0
 11
28.0824099
 21
-18.002913823
 31
0.0
  0
LINE
  5
117
330
1D
100
AcDbEntity
  8
1
100
AcDbLine
 10
28.0824099
 20
-18.002913823
 30
0.0
 11
28.072012615
 21
-17.97319532
 31
0.0
  0
LINE
  5
118
330
1D
100
AcDbEntity
  8
1
100
AcDbLine
 10
28.072012615
 20
-17.97319532
 30
0.0
 11
28.036000234
 21
-17.946024915
 31
0.0
  0
LINE
  5
119
330
1D
100
AcDbEntity
  8
1
100
AcDbLine
 10
28.036000234
 20
-17.946024915
 30
0.0
 11
27.982531142
 21
-17.926848983
 31
0.0
  0
ARC
  5
11A
330
1D
100
AcDbEntity
  8
1
100
AcDbCircle
 10
38.158205805
 20
24.162557611
 30
0.0
 40
43.29786638
100
AcDbArc
 50
254.791808239
 51
256.408777439
  0
ARC
  5
11B
330
1D
100
AcDbEntity
  8
1
100
AcDbCircle
 10
14.076730738
 20
24.162557611
 30
0.0
 40
43.297304671
100
AcDbArc
 50
287.089084438
 51
288.732853185
  0
LINE
  5
11C
330
1D
100
AcDbEntity
  8
1
100
AcDbLine
 10
27.982531142
 20
-16.842923617
 30
0.0
 11
28.034739223
 21
-16.817489197
 31
0.0
  0
LINE
  5
11D
330
1D
100
AcDbEntity
  8
1
100
AcDbLine
 10
28.034739223
 20
-16.817489197
 30
0.0
 11
28.068121549
 21
-16.784971138
 31
0.0
  0
LINE
  5
11E
330
1D
100
AcDbEntity
  8
1
100
AcDbLine
 10
28.068121549
 20
-16.784971138
 30
0.0
 11
28.082432252
 21
-16.744434392
 31
0.0
  0
LINE
  5
11F
330
1D
100
AcDbEntity
  8
1
100
AcDbLine
 10
28.082432252
 20
-16.744434392
 30
0.0
 11
28.070202124
 21
-16.69917584
 31
0.0
  0
LINE
  5
120
330
1D
100
AcDbEntity
  8
1
100
AcDbLine
 10
28.070202124
 20
-16.69917584
 30
0.0
 11
28.027903315
 21
-16.657849332
 31
0.0
  0
LINE
  5
121
330
1D
100
AcDbEntity
  8
1
100
AcDbLine
 10
28.027903315
 20
-16.657849332
 30
0.0
 11
27.982531142
 21
-16.635981878
 31
0.0
  0
ARC
  5
122
330
1D
100
AcDbEntity
  8
1
100
AcDbCircle
 10
42.488332824
 20
24.162557611
 30
0.0
 40
43.303078035
100
AcDbArc
 50
248.759014361
 51
250.427305833
  0
ARC
  5
123
330
1D
100
AcDbEntity
  8
1
100
AcDbCircle
 10
12.939887344
 20
16.467798543
 30
0.0
 40
34.973260297
100
AcDbArc
 50
293.347450481
 51
295.471902904
  0
ARC
  5
124
330
1D
100
AcDbEntity
  8
1
100
AcDbCircle
 10
27.922007363
 20
-14.964927943
 30
0.0
 40
0.156825465
100
AcDbArc
 50
292.701538346
 51
67.29846165399998
  0
ARC
  5
125
330
1D
100
AcDbEntity
  8
1
100
AcDbCircle
 10
43.625176219
 20
16.467798543
 30
0.0
 40
34.987063284
100
AcDbArc
 50
241.255992582
 51
243.436971531
  0
ARC
  5
126
330
1D
100
AcDbEntity
  8
1
100
AcDbCircle
 10
8.609760325
 20
16.467798543
 30
0.0
 40
34.991229485
100
AcDbArc
 50
301.3222843589999
 51
303.622672151
  0
ARC
  5
127
330
1D
100
AcDbEntity
  8
1
100
AcDbCircle
 10
27.821145131
 20
-12.45698568
 30
0.0
 40
0.263712778
100
AcDbArc
 50
307.7325510460001
 51
52.267448954
  0
ARC
  5
128
330
1D
100
AcDbEntity
  8
1
100
AcDbCircle
 10
39.397531698
 20
4.467842209
 30
0.0
 40
20.221897657
100
AcDbArc
 50
231.467030901
 51
234.505203419
  0
ARC
  5
129
330
1D
100
AcDbEntity
  8
1
100
AcDbCircle
 10
47.955303238
 20
16.467798543
 30
0.0
 40
34.972862207
100
AcDbArc
 50
234.505296738
 51
235.180525909
  0
ARC
  5
12A
330
1D
100
AcDbEntity
  8
1
100
AcDbCircle
 10
12.837404845
 20
4.467842209
 30
0.0
 40
20.220826768
100
AcDbArc
 50
312.8914974
 51
318.468956415
  0
ARC
  5
12B
330
1D
100
AcDbEntity
  8
1
100
AcDbCircle
 10
27.4584554
 20
-8.593345085
 30
0.0
 40
0.631720075
100
AcDbArc
 50
326.0577949360001
 51
33.942205064
  0
ARC
  5
12C
330
1D
100
AcDbEntity
  8
1
100
AcDbCircle
 10
40.471009031
 20
1.850553517
 30
0.0
 40
16.061987692
100
AcDbArc
 50
211.664060808
 51
218.787977819
  0
ARC
  5
12D
330
1D
100
AcDbEntity
  8
1
100
AcDbCircle
 10
43.727658717
 20
4.467842209
 30
0.0
 40
20.233988242
100
AcDbArc
 50
218.787977819
 51
218.908255546
  0
LINE
  5
12E
330
1D
100
AcDbEntity
  8
1
100
AcDbLine
 10
26.799999204
 20
-5.356071075
 30
0.0
 11
34.899998483
 21
-5.356071075
 31
0.0
  0
ARC
  5
12F
330
1D
100
AcDbEntity
  8
1
100
AcDbCircle
 10
2.419272033
 20
0.000000442
 30
0.0
 40
32.919374098
100
AcDbArc
 50
350.636193962
 51
0.0
  0
ARC
  5
130
330
1D
100
AcDbEntity
  8
1
100
AcDbCircle
 10
2.419272033
 20
0.000000442
 30
0.0
 40
32.913740696
100
AcDbArc
 50
0.0
 51
9.363806038
  0
LINE
  5
131
330
1D
100
AcDbEntity
  8
1
100
AcDbLine
 10
34.899998483
 20
5.356071958
 30
0.0
 11
26.605422319
 21
5.356071958
 31
0.0
  0
ARC
  5
132
330
1D
100
AcDbEntity
  8
1
100
AcDbCircle
 10
43.727658717
 20
-4.467841326
 30
0.0
 40
20.23398204
100
AcDbArc
 50
141.091744454
 51
141.212022181
  0
ARC
  5
133
330
1D
100
AcDbEntity
  8
1
100
AcDbCircle
 10
40.471009031
 20
-1.850552634
 30
0.0
 40
16.055954342
100
AcDbArc
 50
141.212022181
 51
148.335939192
  0
ARC
  5
134
330
1D
100
AcDbEntity
  8
1
100
AcDbCircle
 10
27.454027988
 20
8.593345968
 30
0.0
 40
0.63539787
100
AcDbArc
 50
326.280709995
 51
33.719290005
  0
ARC
  5
135
330
1D
100
AcDbEntity
  8
1
100
AcDbCircle
 10
12.837404845
 20
-4.467841326
 30
0.0
 40
20.23135964
100
AcDbArc
 50
41.53104358499999
 51
47.1085026
  0
ARC
  5
136
330
1D
100
AcDbEntity
  8
1
100
AcDbCircle
 10
47.955303238
 20
-16.46779766
 30
0.0
 40
34.979035305
100
AcDbArc
 50
124.819474091
 51
125.494703262
  0
ARC
  5
137
330
1D
100
AcDbEntity
  8
1
100
AcDbCircle
 10
39.397531698
 20
-4.467841326
 30
0.0
 40
20.233988242
100
AcDbArc
 50
125.494796581
 51
128.532969099
  0
LINE
  5
138
330
1D
100
AcDbEntity
  8
1
100
AcDbLine
 10
27.982531142
 20
12.248422461
 30
0.0
 11
28.041910407
 21
12.313028308
 31
0.0
  0
LINE
  5
139
330
1D
100
AcDbEntity
  8
1
100
AcDbLine
 10
28.041910407
 20
12.313028308
 30
0.0
 11
28.076725107
 21
12.402115831
 31
0.0
  0
LINE
  5
13A
330
1D
100
AcDbEntity
  8
1
100
AcDbLine
 10
30.79999986
 20
19.116158107
 30
0.0
 11
30.534908202
 21
19.120643357
 31
0.0
  0
LINE
  5
13B
330
1D
100
AcDbEntity
  8
1
100
AcDbLine
 10
30.534908202
 20
19.120643357
 30
0.0
 11
30.277347219
 21
19.133625994
 31
0.0
  0
LINE
  5
13C
330
1D
100
AcDbEntity
  8
1
100
AcDbLine
 10
30.277347219
 20
19.133625994
 30
0.0
 11
30.034873661
 21
19.154398212
 31
0.0
  0
LINE
  5
13D
330
1D
100
AcDbEntity
  8
1
100
AcDbLine
 10
30.034873661
 20
19.154398212
 30
0.0
 11
29.813701313
 21
19.181527639
 31
0.0
  0
LINE
  5
13E
330
1D
100
AcDbEntity
  8
1
100
AcDbLine
 10
29.813701313
 20
19.181527639
 30
0.0
 11
29.618162688
 21
19.213846395
 31
0.0
  0
LINE
  5
13F
330
1D
100
AcDbEntity
  8
1
100
AcDbLine
 10
29.618162688
 20
19.213846395
 30
0.0
 11
29.455477398
 21
19.249214301
 31
0.0
  0
LINE
  5
140
330
1D
100
AcDbEntity
  8
1
100
AcDbLine
 10
29.455477398
 20
19.249214301
 30
0.0
 11
29.328690868
 21
19.286385248
 31
0.0
  0
LINE
  5
141
330
1D
100
AcDbEntity
  8
1
100
AcDbLine
 10
29.328690868
 20
19.286385248
 30
0.0
 11
29.243687194
 21
19.323006714
 31
0.0
  0
LINE
  5
142
330
1D
100
AcDbEntity
  8
1
100
AcDbLine
 10
29.243687194
 20
19.323006714
 30
0.0
 11
29.203418669
 21
19.357612798
 31
0.0
  0
LINE
  5
143
330
1D
100
AcDbEntity
  8
1
100
AcDbLine
 10
29.203418669
 20
19.357612798
 30
0.0
 11
29.209133264
 21
19.388827006
 31
0.0
  0
LINE
  5
144
330
1D
100
AcDbEntity
  8
1
100
AcDbLine
 10
29.209133264
 20
19.388827006
 30
0.0
 11
29.261073124
 21
19.415531749
 31
0.0
  0
LINE
  5
145
330
1D
100
AcDbEntity
  8
1
100
AcDbLine
 10
29.261073124
 20
19.415531749
 30
0.0
 11
29.357189339
 21
19.437628308
 31
0.0
  0
LINE
  5
146
330
1D
100
AcDbEntity
  8
1
100
AcDbLine
 10
29.357189339
 20
19.437628308
 30
0.0
 11
29.494106796
 21
19.454863364
 31
0.0
  0
LINE
  5
147
330
1D
100
AcDbEntity
  8
1
100
AcDbLine
 10
29.494106796
 20
19.454863364
 30
0.0
 11
29.668085304
 21
19.467857177
 31
0.0
  0
LINE
  5
148
330
1D
100
AcDbEntity
  8
1
100
AcDbLine
 10
29.668085304
 20
19.467857177
 30
0.0
 11
29.873725053
 21
19.477060506
 31
0.0
  0
LINE
  5
149
330
1D
100
AcDbEntity
  8
1
100
AcDbLine
 10
29.873725053
 20
19.477060506
 30
0.0
 11
30.105462324
 21
19.483227724
 31
0.0
  0
LINE
  5
14A
330
1D
100
AcDbEntity
  8
1
100
AcDbLine
 10
30.105462324
 20
19.483227724
 30
0.0
 11
30.35696226
 21
19.486980954
 31
0.0
  0
LINE
  5
14B
330
1D
100
AcDbEntity
  8
1
100
AcDbLine
 10
30.35696226
 20
19.486980954
 30
0.0
 11
30.620930743
 21
19.488826836
 31
0.0
  0
LINE
  5
14C
330
1D
100
AcDbEntity
  8
1
100
AcDbLine
 10
30.620930743
 20
19.488826836
 30
0.0
 11
30.89018355
 21
19.489085743
 31
0.0
  0
LINE
  5
14D
330
1D
100
AcDbEntity
  8
1
100
AcDbLine
 10
30.89018355
 20
19.489085743
 30
0.0
 11
31.156895709
 21
19.487778166
 31
0.0
  0
LINE
  5
14E
330
1D
100
AcDbEntity
  8
1
100
AcDbLine
 10
31.156895709
 20
19.487778166
 30
0.0
 11
31.413458314
 21
19.484702939
 31
0.0
  0
LINE
  5
14F
330
1D
100
AcDbEntity
  8
1
100
AcDbLine
 10
31.413458314
 20
19.484702939
 30
0.0
 11
31.652718809
 21
19.479396263
 31
0.0
  0
LINE
  5
150
330
1D
100
AcDbEntity
  8
1
100
AcDbLine
 10
31.652718809
 20
19.479396263
 30
0.0
 11
31.867519047
 21
19.471250916
 31
0.0
  0
LINE
  5
151
330
1D
100
AcDbEntity
  8
1
100
AcDbLine
 10
31.867519047
 20
19.471250916
 30
0.0
 11
32.052233842
 21
19.459633598
 31
0.0
  0
LINE
  5
152
330
1D
100
AcDbEntity
  8
1
100
AcDbLine
 10
32.052233842
 20
19.459633598
 30
0.0
 11
32.201096442
 21
19.443911011
 31
0.0
  0
LINE
  5
153
330
1D
100
AcDbEntity
  8
1
100
AcDbLine
 10
32.201096442
 20
19.443911011
 30
0.0
 11
32.310627427
 21
19.423753465
 31
0.0
  0
LINE
  5
154
330
1D
100
AcDbEntity
  8
1
100
AcDbLine
 10
32.310627427
 20
19.423753465
 30
0.0
 11
32.377336201
 21
19.39892813
 31
0.0
  0
LINE
  5
155
330
1D
100
AcDbEntity
  8
1
100
AcDbLine
 10
32.377336201
 20
19.39892813
 30
0.0
 11
32.400000867
 21
19.369816849
 31
0.0
  0
LINE
  5
156
330
1D
100
AcDbEntity
  8
1
100
AcDbLine
 10
32.400000867
 20
19.369816849
 30
0.0
 11
32.37732875
 21
19.336788425
 31
0.0
  0
LINE
  5
157
330
1D
100
AcDbEntity
  8
1
100
AcDbLine
 10
32.37732875
 20
19.336788425
 30
0.0
 11
32.310493317
 21
19.301157886
 31
0.0
  0
LINE
  5
158
330
1D
100
AcDbEntity
  8
1
100
AcDbLine
 10
32.310493317
 20
19.301157886
 30
0.0
 11
32.199699458
 21
19.263951549
 31
0.0
  0
LINE
  5
159
330
1D
100
AcDbEntity
  8
1
100
AcDbLine
 10
32.199699458
 20
19.263951549
 30
0.0
 11
32.049015191
 21
19.227263028
 31
0.0
  0
LINE
  5
15A
330
1D
100
AcDbEntity
  8
1
100
AcDbLine
 10
32.049015191
 20
19.227263028
 30
0.0
 11
31.861163702
 21
19.192871148
 31
0.0
  0
LINE
  5
15B
330
1D
100
AcDbEntity
  8
1
100
AcDbLine
 10
31.861163702
 20
19.192871148
 30
0.0
 11
31.64234015
 21
19.162871385
 31
0.0
  0
LINE
  5
15C
330
1D
100
AcDbEntity
  8
1
100
AcDbLine
 10
31.64234015
 20
19.162871385
 30
0.0
 11
31.400408622
 21
19.139379705
 31
0.0
  0
LINE
  5
15D
330
1D
100
AcDbEntity
  8
1
100
AcDbLine
 10
31.400408622
 20
19.139379705
 30
0.0
 11
31.140832257
 21
19.123517418
 31
0.0
  0
LINE
  5
15E
330
1D
100
AcDbEntity
  8
1
100
AcDbLine
 10
31.140832257
 20
19.123517418
 30
0.0
 11
30.79999986
 21
19.116158107
 31
0.0
  0
LINE
  5
15F
330
1D
100
AcDbEntity
  8
1
100
AcDbLine
 10
34.899998483
 20
5.356071958
 30
0.0
 11
34.899998483
 21
-5.356071075
 31
0.0
  0
LINE
  5
160
330
1D
100
AcDbEntity
  8
1
100
AcDbLine
 10
26.799999204
 20
-5.356071075
 30
0.0
 11
26.602907133
 21
-5.328401016
 31
0.0
  0
LINE
  5
161
330
1D
100
AcDbEntity
  8
1
100
AcDbLine
 10
26.699999374
 20
6.10709188
 30
0.0
 11
26.64259265
 21
5.76499009
 31
0.0
  0
LINE
  5
162
330
1D
100
AcDbEntity
  8
1
100
AcDbLine
 10
26.64259265
 20
5.76499009
 30
0.0
 11
26.602907133
 21
5.328401899
 31
0.0
  0
LINE
  5
163
330
1D
100
AcDbEntity
  8
1
100
AcDbLine
 10
26.799999204
 20
6.580993043
 30
0.0
 11
26.699999374
 21
6.10709188
 31
0.0
  0
LINE
  5
164
330
1D
100
AcDbEntity
  8
1
100
AcDbLine
 10
26.699999374
 20
-6.107090996
 30
0.0
 11
26.799999204
 21
-6.58099216
 31
0.0
  0
LINE
  5
165
330
1D
100
AcDbEntity
  8
1
100
AcDbLine
 10
26.602907133
 20
-5.328401016
 30
0.0
 11
26.617363122
 21
-5.54181405
 31
0.0
  0
LINE
  5
166
330
1D
100
AcDbEntity
  8
1
100
AcDbLine
 10
26.617363122
 20
-5.54181405
 30
0.0
 11
26.699999374
 21
-6.107090996
 31
0.0
  0
ARC
  5
167
330
1D
100
AcDbEntity
  8
1
100
AcDbCircle
 10
52.200000026
 20
-1.999999558
 30
0.0
 40
8.0
100
AcDbArc
 50
223.199204506
 51
226.567463442
  0
LINE
  5
168
330
1D
100
AcDbEntity
  8
1
100
AcDbLine
 10
46.700000789
 20
-7.809474623
 30
0.0
 11
46.700000789
 21
-10.909518717
 31
0.0
  0
LINE
  5
169
330
1D
100
AcDbEntity
  8
1
100
AcDbLine
 10
46.700000789
 20
-10.909518717
 30
0.0
 11
46.563364592
 21
-11.035727827
 31
0.0
  0
LINE
  5
16A
330
1D
100
AcDbEntity
  8
1
100
AcDbLine
 10
46.332135823
 20
-10.994747771
 30
0.0
 11
46.563364592
 21
-11.035727827
 31
0.0
  0
LINE
  5
16B
330
1D
100
AcDbEntity
  8
1
100
AcDbLine
 10
46.332135823
 20
-18.727115845
 30
0.0
 11
46.332135823
 21
-10.994747771
 31
0.0
  0
LINE
  5
16C
330
1D
100
AcDbEntity
  8
CUT
100
AcDbLine
 10
46.332135823
 20
-18.727115845
 30
0.0
 11
46.331968185
 21
-18.743456831
 31
0.0
  0
ARC
  5
16D
330
1D
100
AcDbEntity
  8
1
100
AcDbCircle
 10
104.407778462
 20
-4.249999558
 30
0.0
 40
59.535246936
100
AcDbArc
 50
180.942165545
 51
185.344722231
  0
ARC
  5
16E
330
1D
100
AcDbEntity
  8
1
100
AcDbCircle
 10
54.839749714
 20
-8.887261085
 30
0.0
 40
9.749492362
100
AcDbArc
 50
185.345024151
 51
192.606993773
  0
ARC
  5
16F
330
1D
100
AcDbEntity
  8
1
100
AcDbCircle
 10
48.00760563
 20
-10.415301876
 30
0.0
 40
2.748556607
100
AcDbArc
 50
192.606993773
 51
207.00288411
  0
ARC
  5
170
330
1D
100
AcDbEntity
  8
1
100
AcDbCircle
 10
45.659468097
 20
-11.611887173
 30
0.0
 40
0.113112385
100
AcDbArc
 50
207.002623801
 51
332.997376199
  0
ARC
  5
172
330
1D
100
AcDbEntity
  8
1
100
AcDbCircle
 10
43.311330564
 20
-10.415301876
 30
0.0
 40
2.748556607
100
AcDbArc
 50
332.9971158899999
 51
347.393006227
  0
ARC
  5
173
330
1D
100
AcDbEntity
  8
1
100
AcDbCircle
 10
36.479186481
 20
-8.887261085
 30
0.0
 40
9.749492362
100
AcDbArc
 50
347.393006227
 51
354.654975849
  0
ARC
  5
174
330
1D
100
AcDbEntity
  8
1
100
AcDbCircle
 10
-13.088842267
 20
-4.249999558
 30
0.0
 40
59.533964523
100
AcDbArc
 50
354.655277769
 51
356.894024687
  0
ARC
  5
175
330
1D
100
AcDbEntity
  8
1
100
AcDbCircle
 10
52.200000026
 20
-1.999999558
 30
0.0
 40
8.0
100
AcDbArc
 50
202.292171449
 51
203.804576214
  0
LINE
  5
176
330
1D
100
AcDbEntity
  8
1
100
AcDbLine
 10
44.712845263
 20
-4.815611081
 30
0.0
 11
44.842902597
 21
-5.130257016
 31
0.0
  0
ARC
  5
177
330
1D
100
AcDbEntity
  8
1
100
AcDbCircle
 10
51.813008172
 20
-2.264480707
 30
0.0
 40
7.537189672
100
AcDbArc
 50
203.370648496
 51
223.747364981
  0
LINE
  5
178
330
1D
100
AcDbEntity
  8
1
100
AcDbLine
 10
26.699999374
 20
-11.095717108
 30
0.0
 11
26.799999204
 21
-11.350733718
 31
0.0
  0
LINE
  5
179
330
1D
100
AcDbEntity
  8
1
100
AcDbLine
 10
26.599999544
 20
-10.663127085
 30
0.0
 11
26.612244573
 21
-10.788289389
 31
0.0
  0
LINE
  5
17A
330
1D
100
AcDbEntity
  8
1
100
AcDbLine
 10
26.612244573
 20
-10.788289389
 30
0.0
 11
26.699999374
 21
-11.095717108
 31
0.0
  0
LINE
  5
17B
330
1D
100
AcDbEntity
  8
1
100
AcDbLine
 10
26.699999374
 20
11.095717991
 30
0.0
 11
26.606453609
 21
10.750361229
 31
0.0
  0
LINE
  5
17C
330
1D
100
AcDbEntity
  8
1
100
AcDbLine
 10
26.606453609
 20
10.750361229
 30
0.0
 11
26.599999544
 21
10.663127968
 31
0.0
  0
LINE
  5
17D
330
1D
100
AcDbEntity
  8
1
100
AcDbLine
 10
26.799999204
 20
11.350734601
 30
0.0
 11
26.699999374
 21
11.095717991
 31
0.0
  0
LINE
  5
17E
330
1D
100
AcDbEntity
  8
1
100
AcDbLine
 10
28.074620318
 20
12.511110375
 30
0.0
 11
28.078569126
 21
12.491876701
 31
0.0
  0
LINE
  5
17F
330
1D
100
AcDbEntity
  8
1
100
AcDbLine
 10
28.078569126
 20
12.491876701
 30
0.0
 11
28.078461092
 21
12.395726027
 31
0.0
  0
LINE
  5
180
330
1D
100
AcDbEntity
  8
1
100
AcDbLine
 10
26.799999204
 20
-13.423693856
 30
0.0
 11
26.699999374
 21
-13.339244319
 31
0.0
  0
ARC
  5
181
330
1D
100
AcDbEntity
  8
1
100
AcDbCircle
 10
27.252258796
 20
13.665967888
 30
0.0
 40
0.653559746
100
AcDbArc
 50
147.672171422
 51
176.384893098
  0
LINE
  5
182
330
1D
100
AcDbEntity
  8
1
100
AcDbLine
 10
26.799999204
 20
14.208056474
 30
0.0
 11
26.699999374
 21
14.015467348
 31
0.0
  0
LINE
  5
183
330
1D
100
AcDbEntity
  8
1
100
AcDbLine
 10
26.699999374
 20
-14.015466465
 30
0.0
 11
26.799999204
 21
-14.208055591
 31
0.0
  0
ARC
  5
184
330
1D
100
AcDbEntity
  8
1
100
AcDbCircle
 10
27.372916844
 20
-13.626829247
 30
0.0
 40
0.77708224
100
AcDbArc
 50
185.934753576
 51
210.008181904
  0
LINE
  5
185
330
1D
100
AcDbEntity
  8
1
100
AcDbLine
 10
26.699999374
 20
-13.339244319
 30
0.0
 11
26.679562431
 21
-13.323813235
 31
0.0
  0
LINE
  5
186
330
1D
100
AcDbEntity
  8
1
100
AcDbLine
 10
26.679562431
 20
-13.323813235
 30
0.0
 11
26.649139848
 21
-13.309520228
 31
0.0
  0
LINE
  5
187
330
1D
100
AcDbEntity
  8
1
100
AcDbLine
 10
26.649139848
 20
-13.309520228
 30
0.0
 11
26.626376462
 21
-13.310210338
 31
0.0
  0
LINE
  5
188
330
1D
100
AcDbEntity
  8
1
100
AcDbLine
 10
26.626376462
 20
-13.310210338
 30
0.0
 11
26.612950515
 21
-13.32066164
 31
0.0
  0
LINE
  5
189
330
1D
100
AcDbEntity
  8
1
100
AcDbLine
 10
26.612950515
 20
-13.32066164
 30
0.0
 11
26.601960909
 21
-13.349623909
 31
0.0
  0
LINE
  5
18A
330
1D
100
AcDbEntity
  8
1
100
AcDbLine
 10
26.601960909
 20
-13.349623909
 30
0.0
 11
26.599999544
 21
-13.375914214
 31
0.0
  0
LINE
  5
18B
330
1D
100
AcDbEntity
  8
1
100
AcDbLine
 10
26.699999374
 20
15.560112404
 30
0.0
 11
26.799999204
 21
15.641799638
 31
0.0
  0
LINE
  5
18C
330
1D
100
AcDbEntity
  8
1
100
AcDbLine
 10
26.799999204
 20
-15.641798755
 30
0.0
 11
26.699999374
 21
-15.560111521
 31
0.0
  0
ARC
  5
18D
330
1D
100
AcDbEntity
  8
1
100
AcDbCircle
 10
27.092327018
 20
15.735094885
 30
0.0
 40
0.496307194
100
AcDbArc
 50
142.231660169
 51
172.739288421
  0
LINE
  5
18E
330
1D
100
AcDbEntity
  8
1
100
AcDbLine
 10
26.799999204
 20
16.198721225
 30
0.0
 11
26.699999374
 21
16.039068321
 31
0.0
  0
LINE
  5
18F
330
1D
100
AcDbEntity
  8
1
100
AcDbLine
 10
26.599999544
 20
15.563763188
 30
0.0
 11
26.602296185
 21
15.54440658
 31
0.0
  0
LINE
  5
190
330
1D
100
AcDbEntity
  8
1
100
AcDbLine
 10
26.602296185
 20
15.54440658
 30
0.0
 11
26.613315594
 21
15.527453715
 31
0.0
  0
LINE
  5
191
330
1D
100
AcDbEntity
  8
1
100
AcDbLine
 10
26.613315594
 20
15.527453715
 30
0.0
 11
26.630757403
 21
15.523368003
 31
0.0
  0
LINE
  5
192
330
1D
100
AcDbEntity
  8
1
100
AcDbLine
 10
26.630757403
 20
15.523368003
 30
0.0
 11
26.654368293
 21
15.530113572
 31
0.0
  0
LINE
  5
193
330
1D
100
AcDbEntity
  8
1
100
AcDbLine
 10
26.654368293
 20
15.530113572
 30
0.0
 11
26.68882164
 21
15.551354246
 31
0.0
  0
LINE
  5
194
330
1D
100
AcDbEntity
  8
1
100
AcDbLine
 10
26.68882164
 20
15.551354246
 30
0.0
 11
26.699999374
 21
15.560112404
 31
0.0
  0
LINE
  5
195
330
1D
100
AcDbEntity
  8
1
100
AcDbLine
 10
26.699999374
 20
-16.039067438
 30
0.0
 11
26.799999204
 21
-16.198720341
 31
0.0
  0
ARC
  5
196
330
1D
100
AcDbEntity
  8
1
100
AcDbCircle
 10
27.138984306
 20
-15.715754061
 30
0.0
 40
0.54519658
100
AcDbArc
 50
188.657323039
 51
216.371728371
  0
LINE
  5
197
330
1D
100
AcDbEntity
  8
1
100
AcDbLine
 10
26.699999374
 20
-15.560111521
 30
0.0
 11
26.673108366
 21
-15.540442919
 31
0.0
  0
LINE
  5
198
330
1D
100
AcDbEntity
  8
1
100
AcDbLine
 10
26.673108366
 20
-15.540442919
 30
0.0
 11
26.643645045
 21
-15.525946883
 31
0.0
  0
LINE
  5
199
330
1D
100
AcDbEntity
  8
1
100
AcDbLine
 10
26.643645045
 20
-15.525946883
 30
0.0
 11
26.619872105
 21
-15.524389712
 31
0.0
  0
LINE
  5
19A
330
1D
100
AcDbEntity
  8
1
100
AcDbLine
 10
26.619872105
 20
-15.524389712
 30
0.0
 11
26.606816825
 21
-15.534138797
 31
0.0
  0
LINE
  5
19B
330
1D
100
AcDbEntity
  8
1
100
AcDbLine
 10
26.606816825
 20
-15.534138797
 30
0.0
 11
26.600040522
 21
-15.560837021
 31
0.0
  0
LINE
  5
19C
330
1D
100
AcDbEntity
  8
1
100
AcDbLine
 10
26.600040522
 20
-15.560837021
 30
0.0
 11
26.599999544
 21
-15.563762305
 31
0.0
  0
LINE
  5
19D
330
1D
100
AcDbEntity
  8
1
100
AcDbLine
 10
26.599999544
 20
19.269371847
 30
0.0
 11
26.599999544
 21
-19.269370964
 31
0.0
  0
LINE
  5
19E
330
1D
100
AcDbEntity
  8
1
100
AcDbLine
 10
26.799999204
 20
-17.223128607
 30
0.0
 11
26.699999374
 21
-17.140557548
 31
0.0
  0
LINE
  5
19F
330
1D
100
AcDbEntity
  8
1
100
AcDbLine
 10
26.699999374
 20
-17.480562931
 30
0.0
 11
26.799999204
 21
-17.618974229
 31
0.0
  0
ARC
  5
1A0
330
1D
100
AcDbEntity
  8
1
100
AcDbCircle
 10
27.010714834
 20
-17.198533208
 30
0.0
 40
0.419624668
100
AcDbArc
 50
191.827752276
 51
222.229348461
  0
LINE
  5
1A1
330
1D
100
AcDbEntity
  8
1
100
AcDbLine
 10
26.699999374
 20
-17.140557548
 30
0.0
 11
26.667475727
 21
-17.116155034
 31
0.0
  0
LINE
  5
1A2
330
1D
100
AcDbEntity
  8
1
100
AcDbLine
 10
26.667475727
 20
-17.116155034
 30
0.0
 11
26.636566993
 21
-17.099437794
 31
0.0
  0
LINE
  5
1A3
330
1D
100
AcDbEntity
  8
1
100
AcDbLine
 10
26.636566993
 20
-17.099437794
 30
0.0
 11
26.613274616
 21
-17.096096208
 31
0.0
  0
LINE
  5
1A4
330
1D
100
AcDbEntity
  8
1
100
AcDbLine
 10
26.613274616
 20
-17.096096208
 30
0.0
 11
26.602437746
 21
-17.105100235
 31
0.0
  0
LINE
  5
1A5
330
1D
100
AcDbEntity
  8
1
100
AcDbLine
 10
26.602437746
 20
-17.105100235
 30
0.0
 11
26.599999544
 21
-17.118595099
 31
0.0
  0
LINE
  5
1A6
330
1D
100
AcDbEntity
  8
1
100
AcDbLine
 10
26.699999374
 20
18.247748235
 30
0.0
 11
26.799999204
 21
18.333206395
 31
0.0
  0
LINE
  5
1A7
330
1D
100
AcDbEntity
  8
1
100
AcDbLine
 10
26.799999204
 20
-18.333205512
 30
0.0
 11
26.699999374
 21
-18.247747352
 31
0.0
  0
LINE
  5
1A8
330
1D
100
AcDbEntity
  8
1
100
AcDbLine
 10
26.599999544
 20
18.203348363
 30
0.0
 11
26.602068942
 21
18.195409769
 31
0.0
  0
LINE
  5
1A9
330
1D
100
AcDbEntity
  8
1
100
AcDbLine
 10
26.602068942
 20
18.195409769
 30
0.0
 11
26.614872765
 21
18.192299152
 31
0.0
  0
LINE
  5
1AA
330
1D
100
AcDbEntity
  8
1
100
AcDbLine
 10
26.614872765
 20
18.192299152
 30
0.0
 11
26.636345338
 21
18.201053584
 31
0.0
  0
LINE
  5
1AB
330
1D
100
AcDbEntity
  8
1
100
AcDbLine
 10
26.636345338
 20
18.201053584
 30
0.0
 11
26.665166047
 21
18.219909141
 31
0.0
  0
LINE
  5
1AC
330
1D
100
AcDbEntity
  8
1
100
AcDbLine
 10
26.665166047
 20
18.219909141
 30
0.0
 11
26.699999374
 21
18.247748235
 31
0.0
  0
ARC
  5
1AD
330
1D
100
AcDbEntity
  8
1
100
AcDbCircle
 10
26.929782205
 20
18.222815743
 30
0.0
 40
0.34242926
100
AcDbArc
 50
132.147180316
 51
164.379863532
  0
LINE
  5
1AE
330
1D
100
AcDbEntity
  8
1
100
AcDbLine
 10
26.799999204
 20
18.599946493
 30
0.0
 11
26.699999374
 21
18.476700852
 31
0.0
  0
LINE
  5
1AF
330
1D
100
AcDbEntity
  8
1
100
AcDbLine
 10
26.699999374
 20
-18.247747352
 30
0.0
 11
26.662344139
 21
-18.217855623
 31
0.0
  0
LINE
  5
1B0
330
1D
100
AcDbEntity
  8
1
100
AcDbLine
 10
26.662344139
 20
-18.217855623
 30
0.0
 11
26.630675447
 21
-18.19808737
 31
0.0
  0
LINE
  5
1B1
330
1D
100
AcDbEntity
  8
1
100
AcDbLine
 10
26.630675447
 20
-18.19808737
 30
0.0
 11
26.608441051
 21
-18.191951817
 31
0.0
  0
LINE
  5
1B2
330
1D
100
AcDbEntity
  8
1
100
AcDbLine
 10
26.608441051
 20
-18.191951817
 30
0.0
 11
26.600392562
 21
-18.199344655
 31
0.0
  0
LINE
  5
1B3
330
1D
100
AcDbEntity
  8
1
100
AcDbLine
 10
26.600392562
 20
-18.199344655
 30
0.0
 11
26.599999544
 21
-18.20334748
 31
0.0
  0
LINE
  5
1B4
330
1D
100
AcDbEntity
  8
1
100
AcDbLine
 10
26.699999374
 20
-18.476699969
 30
0.0
 11
26.799999204
 21
-18.59994561
 31
0.0
  0
ARC
  5
1B5
330
1D
100
AcDbEntity
  8
1
100
AcDbCircle
 10
27.036886435
 20
-18.156571702
 30
0.0
 40
0.464731104
100
AcDbArc
 50
199.93410932
 51
223.538846832
  0
LINE
  5
1B6
330
1D
100
AcDbEntity
  8
1
100
AcDbLine
 10
26.699999374
 20
18.964756722
 30
0.0
 11
26.799999204
 21
19.054573471
 31
0.0
  0
LINE
  5
1B7
330
1D
100
AcDbEntity
  8
1
100
AcDbLine
 10
26.799999204
 20
-19.054572588
 30
0.0
 11
26.699999374
 21
-18.964755839
 31
0.0
  0
ARC
  5
1B8
330
1D
100
AcDbEntity
  8
1
100
AcDbCircle
 10
26.990727332
 20
18.775374261
 30
0.0
 40
0.433772027
100
AcDbArc
 50
132.084984826
 51
154.259149294
  0
LINE
  5
1B9
330
1D
100
AcDbEntity
  8
1
100
AcDbLine
 10
26.799999204
 20
19.209051946
 30
0.0
 11
26.699999374
 21
19.097298825
 31
0.0
  0
ARC
  5
1BA
330
1D
100
AcDbEntity
  8
1
100
AcDbCircle
 10
26.561651039
 20
19.066594651
 30
0.0
 40
0.171788316
100
AcDbArc
 50
282.898885571
 51
323.643290595
  0
LINE
  5
1BB
330
1D
100
AcDbEntity
  8
1
100
AcDbLine
 10
26.699999374
 20
-19.097297942
 30
0.0
 11
26.799999204
 21
-19.209051063
 31
0.0
  0
ARC
  5
1BC
330
1D
100
AcDbEntity
  8
1
100
AcDbCircle
 10
27.018819723
 20
-18.754336216
 30
0.0
 40
0.46826185
100
AcDbArc
 50
206.566679717
 51
227.089186163
  0
LINE
  5
1BD
330
1D
100
AcDbEntity
  8
1
100
AcDbLine
 10
26.699999374
 20
-18.964755839
 30
0.0
 11
26.657518026
 21
-18.928359752
 31
0.0
  0
LINE
  5
1BE
330
1D
100
AcDbEntity
  8
1
100
AcDbLine
 10
26.657518026
 20
-18.928359752
 30
0.0
 11
26.62562209
 21
-18.904789841
 31
0.0
  0
LINE
  5
1BF
330
1D
100
AcDbEntity
  8
1
100
AcDbLine
 10
26.62562209
 20
-18.904789841
 30
0.0
 11
26.607243371
 21
-18.895418873
 31
0.0
  0
LINE
  5
1C0
330
1D
100
AcDbEntity
  8
1
100
AcDbLine
 10
26.607243371
 20
-18.895418873
 30
0.0
 11
26.600055423
 21
-18.898225879
 31
0.0
  0
LINE
  5
1C1
330
1D
100
AcDbEntity
  8
1
100
AcDbLine
 10
26.600055423
 20
-18.898225879
 30
0.0
 11
26.599999544
 21
-18.899140438
 31
0.0
  0
ARC
  5
1C2
330
1D
100
AcDbEntity
  8
1
100
AcDbCircle
 10
45.55430935
 20
-18.791427588
 30
0.0
 40
0.754764176
100
AcDbArc
 50
257.676358888
 51
344.787695406
  0
LINE
  5
1C3
330
1D
100
AcDbEntity
  8
1
100
AcDbLine
 10
26.699999374
 20
19.335035676
 30
0.0
 11
26.799999204
 21
19.430570746
 31
0.0
  0
LINE
  5
1C4
330
1D
100
AcDbEntity
  8
1
100
AcDbLine
 10
26.799999204
 20
-19.430569863
 30
0.0
 11
26.699999374
 21
-19.335034793
 31
0.0
  0
LINE
  5
1C5
330
1D
100
AcDbEntity
  8
1
100
AcDbLine
 10
26.799999204
 20
19.481206754
 30
0.0
 11
26.699999374
 21
19.378472561
 31
0.0
  0
ARC
  5
1C6
330
1D
100
AcDbEntity
  8
1
100
AcDbCircle
 10
26.200428477
 20
19.809325615
 30
0.0
 40
0.688855592
100
AcDbArc
 50
305.454098273
 51
316.487036836
  0
ARC
  5
1C7
330
1D
100
AcDbEntity
  8
1
100
AcDbCircle
 10
27.330830345
 20
18.699884374
 30
0.0
 40
0.926514782
100
AcDbArc
 50
132.911230669
 51
142.073102273
  0
ARC
  5
1C8
330
1D
100
AcDbEntity
  8
1
100
AcDbCircle
 10
26.376191502
 20
-19.606922606
 30
0.0
 40
0.42281736
100
AcDbArc
 50
40.018762684
 51
58.04010220699999
  0
LINE
  5
1C9
330
1D
100
AcDbEntity
  8
1
100
AcDbLine
 10
26.699999374
 20
-19.378471678
 30
0.0
 11
26.799999204
 21
-19.481205871
 31
0.0
  0
ARC
  5
1CA
330
1D
100
AcDbEntity
  8
1
100
AcDbCircle
 10
27.353450521
 20
-18.679150229
 30
0.0
 40
0.95710443
100
AcDbArc
 50
218.073605142
 51
226.942061916
  0
LINE
  5
1CB
330
1D
100
AcDbEntity
  8
1
100
AcDbLine
 10
37.747342166
 20
9.322867239
 30
0.0
 11
37.384081658
 21
9.258487703
 31
0.0
  0
ARC
  5
1CC
330
1D
100
AcDbEntity
  8
1
100
AcDbCircle
 10
37.175000026
 20
10.438219878
 30
0.0
 40
1.198116291
100
AcDbArc
 50
260.689730901
 51
280.0500000000001
  0
ARC
  5
1CD
330
1D
100
AcDbEntity
  8
1
100
AcDbCircle
 10
37.517156202
 20
19.157586211
 30
0.0
 40
0.332808729
100
AcDbArc
 50
61.361359897
 51
88.092804577
  0
LINE
  5
1CE
330
1D
100
AcDbEntity
  8
1
100
AcDbLine
 10
37.676665958
 20
19.449679623
 30
0.0
 11
37.676665958
 21
18.90891462
 31
0.0
  0
LINE
  5
1D1
330
1D
100
AcDbEntity
  8
1
100
AcDbLine
 10
36.658287075
 20
12.530148471
 30
0.0
 11
37.475001093
 21
12.674891831
 31
0.0
  0
LINE
  5
1D2
330
1D
100
AcDbEntity
  8
1
100
AcDbLine
 10
46.700000789
 20
7.809475506
 30
0.0
 11
46.700000789
 21
10.853104735
 31
0.0
  0
ARC
  5
1D3
330
1D
100
AcDbEntity
  8
1
100
AcDbCircle
 10
52.200000026
 20
2.000000442
 30
0.0
 40
8.0
100
AcDbArc
 50
133.432536558
 51
180.0
  0
LINE
  5
1D4
330
1D
100
AcDbEntity
  8
1
100
AcDbLine
 10
36.600001183
 20
12.518698791
 30
0.0
 11
36.658287075
 21
12.530148471
 31
0.0
  0
LINE
  5
1D5
330
1D
100
AcDbEntity
  8
1
100
AcDbLine
 10
37.676665958
 20
19.164812261
 30
0.0
 11
38.992773768
 21
19.164812261
 31
0.0
  0
ARC
  5
1D7
330
1D
100
AcDbEntity
  8
1
100
AcDbCircle
 10
37.875000026
 20
18.561547533
 30
0.0
 40
0.4
100
AcDbArc
 50
100.0
 51
180.0
  0
ARC
  5
1D9
330
1D
100
AcDbEntity
  8
1
100
AcDbCircle
 10
46.600000026
 20
20.100000439
 30
0.0
 40
0.4
100
AcDbArc
 50
0.0
 51
100.0
  0
LINE
  5
1DA
330
1D
100
AcDbEntity
  8
1
100
AcDbLine
 10
46.999998417
 20
11.240403609
 30
0.0
 11
46.999998417
 21
20.099999825
 31
0.0
  0
ARC
  5
1DB
330
1D
100
AcDbEntity
  8
1
100
AcDbCircle
 10
46.600000026
 20
11.240403251
 30
0.0
 40
0.4
100
AcDbArc
 50
280.0
 51
0.0
  0
LINE
  5
1DC
330
1D
100
AcDbEntity
  8
1
100
AcDbLine
 10
37.944458451
 20
9.308027545
 30
0.0
 11
46.66946086
 21
10.846480237
 31
0.0
  0
ARC
  5
1DD
330
1D
100
AcDbEntity
  8
1
100
AcDbCircle
 10
37.875000026
 20
9.701950344
 30
0.0
 40
0.4
100
AcDbArc
 50
180.0
 51
280.0
  0
LINE
  5
1DE
330
1D
100
AcDbEntity
  8
CUT
100
AcDbLine
 10
46.512544182
 20
-11.313785357
 30
0.0
 11
46.332135823
 21
-11.281974172
 31
0.0
  0
LINE
  5
1DF
330
1D
100
AcDbEntity
  8
CUT
100
AcDbLine
 10
46.512544182
 20
-19.995774632
 30
0.0
 11
46.512544182
 21
-11.313785357
 31
0.0
  0
LINE
  5
1E0
330
1D
100
AcDbEntity
  8
CUT
100
AcDbLine
 10
41.799914118
 20
-19.164811378
 30
0.0
 11
46.512544182
 21
-19.995774632
 31
0.0
  0
LINE
  5
1E1
330
1D
100
AcDbEntity
  8
CUT
100
AcDbLine
 10
46.512544182
 20
-11.313785357
 30
0.0
 11
46.599999097
 21
-11.240402726
 31
0.0
  0
LINE
  5
1E2
330
1D
100
AcDbEntity
  8
CUT
100
AcDbLine
 10
46.599999097
 20
-11.240402726
 30
0.0
 11
46.999998417
 21
-11.240402726
 31
0.0
  0
LINE
  5
1E3
330
1D
100
AcDbEntity
  8
CUT
100
AcDbLine
 10
46.999998417
 20
-11.240402726
 30
0.0
 11
46.999998417
 21
-20.099998942
 31
0.0
  0
LINE
  5
1E4
330
1D
100
AcDbEntity
  8
CUT
100
AcDbLine
 10
46.599999097
 20
-20.099998942
 30
0.0
 11
46.999998417
 21
-20.099998942
 31
0.0
  0
LINE
  5
1E5
330
1D
100
AcDbEntity
  8
CUT
100
AcDbLine
 10
46.512544182
 20
-19.995774632
 30
0.0
 11
46.599999097
 21
-20.099998942
 31
0.0
  0
LINE
  5
1E6
330
1D
100
AcDbEntity
  8
CUT
100
AcDbLine
 10
46.599999097
 20
-11.240402726
 30
0.0
 11
46.650238362
 21
-10.95548228
 31
0.0
  0
LINE
  5
1E7
330
1D
100
AcDbEntity
  8
CUT
100
AcDbLine
 10
46.599999097
 20
-20.099998942
 30
0.0
 11
46.530541059
 21
-20.493922314
 31
0.0
  0
LINE
  5
1E8
330
1D
100
AcDbEntity
  8
CUT
100
AcDbLine
 10
46.530541059
 20
-20.493922314
 30
0.0
 11
38.992773768
 21
-19.164811378
 31
0.0
  0
ARC
  5
1E9
330
1D
100
AcDbEntity
  8
CUT
100
AcDbCircle
 10
46.600000026
 20
-20.099999556
 30
0.0
 40
0.4
100
AcDbArc
 50
260.0
 51
0.0
  0
ARC
  5
1EA
330
1D
100
AcDbEntity
  8
CUT
100
AcDbCircle
 10
46.600000026
 20
-11.240402367
 30
0.0
 40
0.4
100
AcDbArc
 50
0.0
 51
75.52248781400002
  0
ARC
  5
1EC
330
1D
100
AcDbEntity
  8
1
100
AcDbCircle
 10
42.913495531
 20
13.221739992
 30
0.0
 40
0.6
100
AcDbArc
 50
59.81364678599999
 51
180.186353214
  0
ARC
  5
1ED
330
1D
100
AcDbEntity
  8
1
100
AcDbCircle
 10
43.340887497
 20
13.956475392
 30
0.0
 40
0.25
100
AcDbArc
 50
239.813646786
 51
60.186353213
  0
ARC
  5
1F0
330
1D
100
AcDbEntity
  8
1
100
AcDbCircle
 10
41.213504522
 20
13.221739992
 30
0.0
 40
0.6
100
AcDbArc
 50
359.813646786
 51
120.186353214
  0
ARC
  5
1F1
330
1D
100
AcDbEntity
  8
1
100
AcDbCircle
 10
42.063500026
 20
13.218975392
 30
0.0
 40
0.25
100
AcDbArc
 50
179.813646787
 51
0.1863532130000117
  0
ARC
  5
1F3
330
1D
100
AcDbEntity
  8
1
100
AcDbCircle
 10
40.363509018
 20
14.693975392
 30
0.0
 40
0.6
100
AcDbArc
 50
299.813646786
 51
60.18635321399999
  0
ARC
  5
1F4
330
1D
100
AcDbEntity
  8
1
100
AcDbCircle
 10
40.786112556
 20
13.956475392
 30
0.0
 40
0.25
100
AcDbArc
 50
119.813646787
 51
300.186353214
  0
ARC
  5
1F5
330
1D
100
AcDbEntity
  8
1
100
AcDbCircle
 10
43.763491035
 20
14.693975392
 30
0.0
 40
0.6
100
AcDbArc
 50
119.813646787
 51
240.186353213
  0
ARC
  5
1F6
330
1D
100
AcDbEntity
  8
1
100
AcDbCircle
 10
43.340887497
 20
15.431475392
 30
0.0
 40
0.25
100
AcDbArc
 50
299.813646786
 51
120.1863532139999
  0
ARC
  5
1F9
330
1D
100
AcDbEntity
  8
1
100
AcDbCircle
 10
41.213504522
 20
16.166210791
 30
0.0
 40
0.6
100
AcDbArc
 50
239.813646786
 51
0.186353214
  0
ARC
  5
1FA
330
1D
100
AcDbEntity
  8
1
100
AcDbCircle
 10
40.786112556
 20
15.431475392
 30
0.0
 40
0.25
100
AcDbArc
 50
59.81364678599999
 51
240.186353214
  0
ARC
  5
1FB
330
1D
100
AcDbEntity
  8
1
100
AcDbCircle
 10
42.063500026
 20
16.168975392
 30
0.0
 40
0.25
100
AcDbArc
 50
359.813646787
 51
180.186353213
  0
ARC
  5
1FC
330
1D
100
AcDbEntity
  8
1
100
AcDbCircle
 10
42.913495531
 20
16.166210791
 30
0.0
 40
0.6
100
AcDbArc
 50
179.813646786
 51
300.186353214
  0
ARC
  5
1FE
330
1D
100
AcDbEntity
  8
1
100
AcDbCircle
 10
197.134306066
 20
0.000000442
 30
0.0
 40
152.419571853
100
AcDbArc
 50
181.892906421
 51
185.345567256
  0
ARC
  5
1FF
330
1D
100
AcDbEntity
  8
1
100
AcDbCircle
 10
70.242354613
 20
-11.873008715
 30
0.0
 40
24.961050063
100
AcDbArc
 50
185.346011244
 51
192.608482125
  0
ARC
  5
200
330
1D
100
AcDbEntity
  8
1
100
AcDbCircle
 10
52.751185591
 20
-15.785467086
 30
0.0
 40
7.037648481
100
AcDbArc
 50
192.608482125
 51
204.740350667
  0
LINE
  5
201
330
1D
100
AcDbEntity
  8
1
100
AcDbLine
 10
45.393217381
 20
-19.509138098
 30
0.0
 11
45.247595784
 21
-19.152346557
 31
0.0
  0
LINE
  5
202
330
1D
100
AcDbEntity
  8
1
100
AcDbLine
 10
45.247595784
 20
-19.152346557
 30
0.0
 11
45.092687037
 21
-18.642089819
 31
0.0
  0
LINE
  5
203
330
1D
100
AcDbEntity
  8
1
100
AcDbLine
 10
45.092687037
 20
-18.642089819
 30
0.0
 11
44.941943165
 21
-18.006726658
 31
0.0
  0
LINE
  5
204
330
1D
100
AcDbEntity
  8
1
100
AcDbLine
 10
44.941943165
 20
-18.006726658
 30
0.0
 11
44.796820756
 21
-17.252945831
 31
0.0
  0
LINE
  5
205
330
1D
100
AcDbEntity
  8
1
100
AcDbLine
 10
44.796820756
 20
-17.252945831
 30
0.0
 11
44.658772674
 21
-16.38743796
 31
0.0
  0
LINE
  5
206
330
1D
100
AcDbEntity
  8
1
100
AcDbLine
 10
44.658772674
 20
-16.38743796
 30
0.0
 11
44.528327909
 21
-15.411559982
 31
0.0
  0
LINE
  5
207
330
1D
100
AcDbEntity
  8
1
100
AcDbLine
 10
44.528327909
 20
-15.411559982
 30
0.0
 11
44.405866441
 21
-14.329799941
 31
0.0
  0
LINE
  5
208
330
1D
100
AcDbEntity
  8
1
100
AcDbLine
 10
44.405866441
 20
-14.329799941
 30
0.0
 11
44.292565462
 21
-13.153207047
 31
0.0
  0
LINE
  5
209
330
1D
100
AcDbEntity
  8
1
100
AcDbLine
 10
44.292565462
 20
-13.153207047
 30
0.0
 11
44.189594712
 21
-11.892831443
 31
0.0
  0
LINE
  5
20A
330
1D
100
AcDbEntity
  8
1
100
AcDbLine
 10
44.189594712
 20
-11.892831443
 30
0.0
 11
44.094428447
 21
-10.503571039
 31
0.0
  0
LINE
  5
20B
330
1D
100
AcDbEntity
  8
1
100
AcDbLine
 10
44.094428447
 20
-10.503571039
 30
0.0
 11
44.011071351
 21
-9.03389745
 31
0.0
  0
LINE
  5
20C
330
1D
100
AcDbEntity
  8
1
100
AcDbLine
 10
44.011071351
 20
-9.03389745
 30
0.0
 11
43.940361616
 21
-7.499806607
 31
0.0
  0
LINE
  5
20D
330
1D
100
AcDbEntity
  8
1
100
AcDbLine
 10
43.940361616
 20
-7.499806607
 30
0.0
 11
43.883133706
 21
-5.917291647
 31
0.0
  0
LINE
  5
20E
330
1D
100
AcDbEntity
  8
1
100
AcDbLine
 10
43.883133706
 20
-5.917291647
 30
0.0
 11
43.845478472
 21
-4.544414138
 31
0.0
  0
LINE
  5
20F
330
1D
100
AcDbEntity
  8
1
100
AcDbLine
 10
43.845478472
 20
-4.544414138
 30
0.0
 11
43.81773996
 21
-3.146387894
 31
0.0
  0
LINE
  5
210
330
1D
100
AcDbEntity
  8
1
100
AcDbLine
 10
43.81773996
 20
-3.146387894
 30
0.0
 11
43.800134238
 21
-1.733978187
 31
0.0
  0
LINE
  5
211
330
1D
100
AcDbEntity
  8
1
100
AcDbLine
 10
45.393217381
 20
-19.509138098
 30
0.0
 11
45.393217381
 21
-19.52880018
 31
0.0
  0
LINE
  5
212
330
1D
100
AcDbEntity
  8
1
100
AcDbLine
 10
44.199999448
 20
0.000000442
 30
0.0
 11
43.363768634
 21
0.000000442
 31
0.0
  0
LINE
  5
213
330
1D
100
AcDbEntity
  8
SK2
100
AcDbLine
 10
58.981145504
 20
-20.499999556
 30
0.0
 11
46.600000026
 21
-20.499999556
 31
0.0
  0
LINE
  5
214
330
1D
100
AcDbEntity
  8
SK2
100
AcDbLine
 10
56.981145504
 20
-20.499999556
 30
0.0
 11
56.531145504
 21
-16.999999556
 31
0.0
  0
LINE
  5
215
330
1D
100
AcDbEntity
  8
SK2
100
AcDbLine
 10
56.531145504
 20
-16.999999556
 30
0.0
 11
57.431145504
 21
-16.999999556
 31
0.0
  0
LINE
  5
216
330
1D
100
AcDbEntity
  8
SK2
100
AcDbLine
 10
57.431145504
 20
-16.999999556
 30
0.0
 11
56.981145504
 21
-20.499999556
 31
0.0
  0
LINE
  5
217
330
1D
100
AcDbEntity
  8
SK2
100
AcDbLine
 10
58.981145504
 20
20.500000439
 30
0.0
 11
46.600000026
 21
20.500000439
 31
0.0
  0
LINE
  5
218
330
1D
100
AcDbEntity
  8
SK2
100
AcDbLine
 10
56.981145504
 20
20.500000439
 30
0.0
 11
57.431145504
 21
17.000000439
 31
0.0
  0
LINE
  5
219
330
1D
100
AcDbEntity
  8
SK2
100
AcDbLine
 10
57.431145504
 20
17.000000439
 30
0.0
 11
56.531145504
 21
17.000000439
 31
0.0
  0
LINE
  5
21A
330
1D
100
AcDbEntity
  8
SK2
100
AcDbLine
 10
56.531145504
 20
17.000000439
 30
0.0
 11
56.981145504
 21
20.500000439
 31
0.0
  0
LINE
  5
21B
330
1D
100
AcDbEntity
  8
SK2
100
AcDbLine
 10
56.981145504
 20
-16.999999556
 30
0.0
 11
56.981145504
 21
17.000000439
 31
0.0
  0
TEXT
  5
21C
330
1D
100
AcDbEntity
  8
SK2
100
AcDbText
 10
55.481145504
 20
-2.848906267
 30
0.0
 40
3.5
  1
41
 50
90.0
  7
BMG_Text
100
AcDbText
  0
CIRCLE
  5
21D
330
1D
100
AcDbEntity
  8
SK2
100
AcDbCircle
 10
54.231145504
 20
-5.098906267
 30
0.0
 40
1.25
  0
LINE
  5
21E
330
1D
100
AcDbEntity
  8
SK2
100
AcDbLine
 10
55.481145504
 20
-6.348906267
 30
0.0
 11
52.981145504
 21
-3.848906267
 31
0.0
  0
TEXT
  5
21F
330
1D
100
AcDbEntity
  8
SK2
100
AcDbText
 10
55.35611329332956
 20
3.256276993501343
 30
0.0
 40
3.5
  1
-54
 50
90.0
  7
BMG_Text
100
AcDbText
  0
LINE
  5
2CB
330
1D
100
AcDbEntity
  8
1
100
AcDbLine
 10
37.475001093
 20
12.674891831
 30
0.0
 11
37.475001093
 21
18.55579938133734
 31
0.0
  0
LINE
  5
2CC
330
1D
100
AcDbEntity
  8
1
100
AcDbLine
 10
37.94445929706677
 20
9.308027242795117
 30
0.0
 11
37.83872280261607
 21
9.295815580632866
 31
0.0
  0
LINE
  5
2CD
330
1D
100
AcDbEntity
  8
1
100
AcDbLine
 10
37.83872280261607
 20
9.295815580632866
 30
0.0
 11
37.76277164314112
 21
9.318017029372472
 31
0.0
  0
LINE
  5
2CE
330
1D
100
AcDbEntity
  8
1
100
AcDbLine
 10
37.76277164314112
 20
9.318017029372472
 30
0.0
 11
37.747342166
 21
9.322867239
 31
0.0
  0
LINE
  5
2CF
330
1D
100
AcDbEntity
  8
1
100
AcDbLine
 10
37.80554075493323
 20
18.95547063420488
 30
0.0
 11
38.992773768
 21
19.164812261
 31
0.0
  0
LINE
  5
2D0
330
1D
100
AcDbEntity
  8
3
100
AcDbLine
 10
38.992773768
 20
19.164812261
 30
0.0
 11
46.600000026
 21
20.100000439
 31
0.0
  0
LINE
  5
2D1
330
1D
100
AcDbEntity
  8
3
100
AcDbLine
 10
46.600000026
 20
20.100000439
 30
0.0
 11
46.600000026
 21
11.240403251
 31
0.0
  0
LINE
  5
2D2
330
1D
100
AcDbEntity
  8
3
100
AcDbLine
 10
46.600000026
 20
11.240403251
 30
0.0
 11
46.66945929706677
 21
10.84648014979512
 31
0.0
  0
LINE
  5
2D3
330
1D
100
AcDbEntity
  8
1
100
AcDbLine
 10
46.66945929706677
 20
10.84648014979512
 30
0.0
 11
46.700000789
 21
10.846480237
 31
0.0
  0
LINE
  5
2D5
330
1D
100
AcDbEntity
  8
1
100
AcDbLine
 10
46.53054075493323
 20
20.49392354020488
 30
0.0
 11
37.80554075493323
 21
18.95547063420488
 31
0.0
  0
ARC
  5
2D6
330
1D
100
AcDbEntity
  8
1
100
AcDbCircle
 10
37.87504451956813
 20
18.56147046787939
 30
0.0
 40
0.4000836217129325
100
AcDbArc
 50
100.0043586377422
 51
180.8121807253742
  0
LINE
  5
2D7
330
1D
100
AcDbEntity
  8
1
100
AcDbLine
 10
37.475000026
 20
18.561547533
 30
0.0
 11
37.475000026
 21
9.701950344
 31
0.0
  0
LINE
  5
2D8
330
1D
100
AcDbEntity
  8
1
100
AcDbLine
 10
37.944458451
 20
9.308027545
 30
0.0
 11
46.66945929706677
 21
10.84648014979512
 31
0.0
  0
LINE
  5
2DB
330
1D
100
AcDbEntity
  8
NOCUT
100
AcDbLine
 10
0.0
 20
0.0
 30
0.0
 11
44.20114758528914
 21
0.0
 31
0.0
  0
LINE
  5
2DC
330
1D
100
AcDbEntity
  8
NOCUT
100
AcDbLine
 10
44.20114758528914
 20
0.0
 30
0.0
 11
44.20114758528914
 21
1.509033227126261
 31
0.0
  0
ARC
  5
2DD
330
1D
100
AcDbEntity
  8
NOCUT
100
AcDbCircle
 10
52.25858446745433
 20
1.959092446638899
 30
0.0
 40
8.069996431916458
100
AcDbArc
 50
133.5349083783202
 51
183.1970125094587
  0
LINE
  5
2DF
330
1D
100
AcDbEntity
  8
NOCUT
100
AcDbLine
 10
46.700000789
 20
10.853104735
 30
0.0
 11
46.700000789
 21
7.809475506
 31
0.0
  0
LINE
  5
2E3
330
1D
100
AcDbEntity
  8
NOCUT
100
AcDbLine
 10
38.992773768
 20
19.164812261
 30
0.0
 11
37.676665958
 21
19.164812261
 31
0.0
  0
LINE
  5
2E4
330
1D
100
AcDbEntity
  8
NOCUT
100
AcDbLine
 10
37.676665958
 20
19.164812261
 30
0.0
 11
37.676665958
 21
19.449679623
 31
0.0
  0
LINE
  5
2E5
330
1D
100
AcDbEntity
  8
NOCUT
100
AcDbLine
 10
37.676665958
 20
19.449679623
 30
0.0
 11
37.60482371194653
 21
19.4786408135186
 31
0.0
  0
LINE
  5
2E6
330
1D
100
AcDbEntity
  8
NOCUT
100
AcDbLine
 10
37.60482371194653
 20
19.4786408135186
 30
0.0
 11
37.52823230710602
 21
19.4902105787097
 31
0.0
  0
LINE
  5
2E7
330
1D
100
AcDbEntity
  8
NOCUT
100
AcDbLine
 10
37.52823230710602
 20
19.4902105787097
 30
0.0
 11
37.52823230710602
 21
19.499743799
 31
0.0
  0
LINE
  5
2E8
330
1D
100
AcDbEntity
  8
NOCUT
100
AcDbLine
 10
37.52823230710602
 20
19.499743799
 30
0.0
 11
0.7502815287593947
 21
19.499743799
 31
0.0
  0
LINE
  5
2E9
330
1D
100
AcDbEntity
  8
NOCUT
100
AcDbLine
 10
0.7502815287593947
 20
19.499743799
 30
0.0
 11
0.0
 21
18.750000745
 31
0.0
  0
LINE
  5
2EA
330
1D
100
AcDbEntity
  8
NOCUT
100
AcDbLine
 10
0.0
 20
18.750000745
 30
0.0
 11
0.0
 21
0.0
 31
0.0
  0
LWPOLYLINE
  5
2F2
330
1D
100
AcDbEntity
  8
INFTOTAL
100
AcDbPolyline
 90
        4
 70
     1
 43
0.0
 10
78.0040103783812
 20
40.74712297075223
 10
78.0040103783812
 20
-41.06303459360284
 10
-58.46456048276639
 20
-41.06303459360284
 10
-58.46456048276639
 20
40.74712297075223
  0
LINE
  5
2F8
330
1D
100
AcDbEntity
  8
SK4
100
AcDbLine
 10
-25.182806304
 20
0.0
 30
0.0
 11
50.07317599000001
 21
0.0
 31
0.0
  0
LINE
  5
2FE
330
1D
100
AcDbEntity
  8
NOCUT
100
AcDbLine
 10
38.992773768
 20
19.164812261
 30
0.0
 11
46.600000026
 21
20.100000439
 31
0.0
  0
LINE
  5
2FF
330
1D
100
AcDbEntity
  8
NOCUT
100
AcDbLine
 10
46.600000026
 20
20.100000439
 30
0.0
 11
46.600000026
 21
11.240403251
 31
0.0
  0
LINE
  5
300
330
1D
100
AcDbEntity
  8
NOCUT
100
AcDbLine
 10
46.600000026
 20
11.240403251
 30
0.0
 11
46.66946086
 21
10.846480237
 31
0.0
  0
LINE
  5
301
330
1D
100
AcDbEntity
  8
NOCUT
100
AcDbLine
 10
46.66946086
 20
10.846480237
 30
0.0
 11
46.700000789
 21
10.846480237
 31
0.0
  0
LINE
  5
305
330
1D
100
AcDbEntity
  8
3
100
AcDbLine
 10
0.0
 20
5.249999941692177
 30
0.0
 11
3.000018699534323
 21
5.249999941692177
 31
0.0
  0
LINE
  5
306
330
1D
100
AcDbEntity
  8
3
100
AcDbLine
 10
3.00001822
 20
-5.250000234
 30
0.0
 11
0.0
 21
-5.250000234
 31
0.0
  0
LINE
  5
352
330
1D
100
AcDbEntity
  8
SK1
100
AcDbLine
 10
0.0000150455072315
 20
10.89998206914499
 30
0.0
 11
0.0000147459053548
 21
-10.90003906444056
 31
0.0
  0
LINE
  5
355
330
1D
100
AcDbEntity
  8
SK4
100
AcDbLine
 10
1.775675608
 20
-4.233640674000002
 30
0.0
 11
28.66846917300001
 21
-16.391793573
 31
0.0
  0
LINE
  5
356
330
1D
100
AcDbEntity
  8
SK4
100
AcDbLine
 10
1.775675608
 20
4.233640673999998
 30
0.0
 11
28.66846917300001
 21
16.391793573
 31
0.0
  0
ARC
  5
35A
330
1D
100
AcDbEntity
  8
CUT
100
AcDbCircle
 10
46.600000026
 20
20.100000439
 30
0.0
 40
0.4
100
AcDbArc
 50
0.0
 51
99.99999999999858
  0
LINE
  5
35B
330
1D
100
AcDbEntity
  8
CUT
100
AcDbLine
 10
46.999998417
 20
11.240403609
 30
0.0
 11
46.999998417
 21
20.099999825
 31
0.0
  0
ARC
  5
35C
330
1D
100
AcDbEntity
  8
CUT
100
AcDbCircle
 10
46.600000026
 20
11.240403251
 30
0.0
 40
0.4
100
AcDbArc
 50
279.9999999999986
 51
0.0
  0
ARC
  5
35D
330
1D
100
AcDbEntity
  8
CUT
100
AcDbCircle
 10
37.87500002600001
 20
9.701950344
 30
0.0
 40
0.4
100
AcDbArc
 50
180.0
 51
279.9999999999986
  0
LINE
  5
35E
330
1D
100
AcDbEntity
  8
CUT
100
AcDbLine
 10
46.53054075493324
 20
20.49392354020488
 30
0.0
 11
37.80554075493322
 21
18.95547063420488
 31
0.0
  0
ARC
  5
35F
330
1D
100
AcDbEntity
  8
CUT
100
AcDbCircle
 10
37.87504451956812
 20
18.56147046787939
 30
0.0
 40
0.4000836217129325
100
AcDbArc
 50
100.0043586377432
 51
180.8121807253742
  0
LINE
  5
360
330
1D
100
AcDbEntity
  8
CUT
100
AcDbLine
 10
37.475000026
 20
18.561547533
 30
0.0
 11
37.475000026
 21
9.701950344
 31
0.0
  0
LINE
  5
361
330
1D
100
AcDbEntity
  8
CUT
100
AcDbLine
 10
37.944458451
 20
9.308027544999998
 30
0.0
 11
46.66945929706677
 21
10.84648014979512
 31
0.0
  0
CIRCLE
  5
368
330
1D
100
AcDbEntity
  8
1
100
AcDbCircle
 10
42.06396633425467
 20
14.693976006
 30
0.0
 40
2.65
  0
HATCH
  5
36C
330
1D
100
AcDbEntity
  8
7
100
AcDbHatch
 10
0.0
 20
0.0
 30
0.0
210
0.0
220
0.0
230
1.0
  2
ANSI37
 70
     0
 71
     0
 91
        2
 92
        7
 72
     1
 73
     1
 93
        9
 10
46.99999962375003
 20
11.2404033405
 42
0.0
 10
46.99999962375
 20
20.10000028550001
 42
0.4663084313134688
 10
46.53054075495308
 20
20.49392354020837
 42
0.0
 10
37.80554075493632
 20
18.95547063420543
 42
0.3679133474593645
 10
37.475000026
 20
18.55587515477135
 42
0.0
 10
37.475001093
 20
18.55579938133734
 42
0.0
 10
37.475000026
 20
9.701950344000004
 42
0.466307690981321
 10
37.94445908555008
 20
9.308027318346337
 42
0.0
 10
46.66945929706677
 20
10.84648014979512
 42
0.3639710798516196
 97
        0
 92
       22
 72
     1
 73
     1
 93
        2
 10
39.41396633425467
 20
14.693976006
 42
-1.000000000000005
 10
44.71396633425465
 20
14.693976006
 42
-1.000000000000005
 97
        0
 75
     0
 76
     1
 52
90.0
 41
5.0
 77
     0
 78
     2
 53
135.0
 43
-190.7545178272097
 44
-15.69731897951032
 45
-0.4419417382415922
 46
-0.4419417382415922
 79
     0
 53
225.0
 43
-190.7545178272097
 44
-15.69731897951032
 45
0.4419417382415922
 46
-0.4419417382415923
 79
     0
 47
0.0
 98
        2
 10
37.52844369874987
 20
13.56213401534902
 10
37.52844369874987
 20
13.56213401534902
1001
ACAD
1010
0.0
1020
0.0
1030
0.0
1001
PE_URL
1000

  0
ENDSEC
  0
SECTION
  2
OBJECTS
  0
DICTIONARY
  5
C
330
0
100
AcDbDictionary
281
     1
  3
ACAD_COLOR
350
340
  3
ACAD_DETAILVIEWSTYLE
350
2C8
  3
ACAD_GROUP
350
D
  3
ACAD_LAYOUT
350
1A
  3
ACAD_MATERIAL
350
25E
  3
ACAD_MLEADERSTYLE
350
26C
  3
ACAD_MLINESTYLE
350
17
  3
ACAD_PLOTSETTINGS
350
19
  3
ACAD_PLOTSTYLENAME
350
E
  3
ACAD_SCALELIST
350
227
  3
ACAD_SECTIONVIEWSTYLE
350
2C9
  3
ACAD_TABLESTYLE
350
2B5
  3
ACAD_VISUALSTYLE
350
24D
  3
ACDB_RECOMPOSE_DATA
350
379
  3
AcDbVariableDictionary
350
26A
  3
APPDATA
350
2B8
  0
SUN
  5
2F6
330
220
100
AcDbSun
 90
        1
290
     0
 63
     7
421
 16777215
 40
1.0
291
     1
 91
  2455826
 92
 54000000
292
     0
 70
     2
 71
   256
280
     1
  0
DICTIONARY
  5
2B9
330
2
100
AcDbDictionary
280
     1
281
     1
  3
ACAD_LAYERSTATES
360
2BA
  0
DICTIONARY
  5
364
330
1D
100
AcDbDictionary
280
     1
281
     1
  3
ACAD_SORTENTS
360
365
  0
DICTIONARY
  5
340
102
{ACAD_REACTORS
330
C
102
}
330
C
100
AcDbDictionary
281
     1
  0
DICTIONARY
  5
2C8
102
{ACAD_REACTORS
330
C
102
}
330
C
100
AcDbDictionary
281
     1
  0
DICTIONARY
  5
D
102
{ACAD_REACTORS
330
C
102
}
330
C
100
AcDbDictionary
281
     1
  0
DICTIONARY
  5
1A
102
{ACAD_REACTORS
330
C
102
}
330
C
100
AcDbDictionary
281
     1
  3
Layout1
350
1C
  3
Model
350
1E
  0
DICTIONARY
  5
25E
102
{ACAD_REACTORS
330
C
102
}
330
C
100
AcDbDictionary
281
     1
  3
ByBlock
350
260
  3
ByLayer
350
25F
  3
Global
350
261
  0
DICTIONARY
  5
26C
102
{ACAD_REACTORS
330
C
102
}
330
C
100
AcDbDictionary
281
     1
  3
Standard
350
2B7
  0
DICTIONARY
  5
17
102
{ACAD_REACTORS
330
C
102
}
330
C
100
AcDbDictionary
281
     1
  3
Standard
350
18
  0
DICTIONARY
  5
19
102
{ACAD_REACTORS
330
C
102
}
330
C
100
AcDbDictionary
281
     1
  0
ACDBDICTIONARYWDFLT
  5
E
102
{ACAD_REACTORS
330
C
102
}
330
C
100
AcDbDictionary
281
     1
  3
Normal
350
F
100
AcDbDictionaryWithDefault
340
F
  0
DICTIONARY
  5
227
102
{ACAD_REACTORS
330
C
102
}
330
C
100
AcDbDictionary
281
     1
  3
A0
350
228
  3
A1
350
229
  3
A2
350
22A
  3
A3
350
22B
  3
A4
350
22C
  3
A5
350
22D
  3
A6
350
22E
  3
A7
350
22F
  3
A8
350
230
  3
A9
350
231
  3
B0
350
232
  3
B1
350
233
  3
B2
350
234
  3
B3
350
235
  3
B4
350
236
  3
B5
350
237
  3
B6
350
238
  3
B7
350
239
  3
B8
350
23A
  3
B9
350
23B
  3
C0
350
23C
  3
C1
350
23D
  3
C2
350
23E
  3
C3
350
23F
  3
C4
350
240
  3
C5
350
241
  3
C6
350
242
  3
C7
350
243
  3
C8
350
244
  3
C9
350
245
  3
D0
350
246
  3
D1
350
247
  3
D2
350
248
  0
DICTIONARY
  5
2C9
102
{ACAD_REACTORS
330
C
102
}
330
C
100
AcDbDictionary
281
     1
  0
DICTIONARY
  5
2B5
102
{ACAD_REACTORS
330
C
102
}
330
C
100
AcDbDictionary
281
     1
  3
Standard
350
2B6
  0
DICTIONARY
  5
24D
102
{ACAD_REACTORS
330
C
102
}
330
C
100
AcDbDictionary
281
     1
  3
2dWireframe
350
252
  3
3D Hidden
350
254
  3
3dWireframe
350
253
  3
Basic
350
255
  3
Brighten
350
259
  3
ColorChange
350
25D
  3
Conceptual
350
257
  3
Dim
350
258
  3
EdgeColorOff
350
2AF
  3
Facepattern
350
25C
  3
Flat
350
24E
  3
FlatWithEdges
350
24F
  3
Gouraud
350
250
  3
GouraudWithEdges
350
251
  3
Hidden
350
2AC
  3
JitterOff
350
2AD
  3
Linepattern
350
25B
  3
OverhangOff
350
2AE
  3
Realistic
350
256
  3
Shaded
350
2B4
  3
Shaded with edges
350
2B3
  3
Shades of Gray
350
2B0
  3
Sketchy
350
2B1
  3
Thicken
350
25A
  3
Wireframe
350
2AB
  3
X-Ray
350
2B2
  0
XRECORD
  5
379
102
{ACAD_REACTORS
330
C
102
}
330
C
100
AcDbXrecord
280
     1
 90
        1
330
2B6
  0
DICTIONARY
  5
26A
102
{ACAD_REACTORS
330
C
102
}
330
C
100
AcDbDictionary
281
     1
  3
CANNOSCALE
350
2C5
  3
CMLEADERSTYLE
350
2C7
  3
CTABLESTYLE
350
2C6
  3
DIMASSOC
350
26E
  3
HIDETEXT
350
26F
  3
MSLTSCALE
350
26D
  0
DICTIONARY
  5
2B8
102
{ACAD_REACTORS
330
C
102
}
330
C
100
AcDbDictionary
281
     1
  0
DICTIONARY
  5
2BA
102
{ACAD_REACTORS
330
2B9
102
}
330
2B9
100
AcDbDictionary
281
     1
  0
SORTENTSTABLE
  5
365
102
{ACAD_REACTORS
330
364
102
}
330
364
100
AcDbSortentsTable
330
1D
331
62
  5
63
331
63
  5
64
331
64
  5
65
331
65
  5
66
331
66
  5
67
331
67
  5
68
331
68
  5
69
331
69
  5
6A
331
6A
  5
6B
331
6B
  5
6C
331
6C
  5
6D
331
6D
  5
6E
331
6E
  5
6F
331
6F
  5
70
331
70
  5
71
331
71
  5
72
331
72
  5
73
331
73
  5
74
331
74
  5
75
331
75
  5
76
331
76
  5
77
331
77
  5
78
331
78
  5
79
331
79
  5
7A
331
7A
  5
7B
331
7B
  5
7C
331
7C
  5
7D
331
7D
  5
7E
331
7E
  5
7F
331
7F
  5
80
331
80
  5
81
331
81
  5
82
331
82
  5
83
331
83
  5
84
331
84
  5
85
331
85
  5
86
331
86
  5
87
331
87
  5
88
331
88
  5
89
331
89
  5
8A
331
8A
  5
8B
331
8B
  5
8C
331
8C
  5
8D
331
8D
  5
8E
331
8E
  5
8F
331
8F
  5
90
331
90
  5
91
331
91
  5
92
331
92
  5
93
331
93
  5
94
331
94
  5
95
331
95
  5
96
331
96
  5
97
331
97
  5
98
331
98
  5
99
331
99
  5
9A
331
9A
  5
9B
331
9B
  5
9C
331
9C
  5
9D
331
9D
  5
9E
331
9E
  5
9F
331
9F
  5
A0
331
A0
  5
A1
331
A1
  5
A2
331
A2
  5
A3
331
A3
  5
A4
331
A4
  5
A5
331
A5
  5
A6
331
A6
  5
A7
331
A7
  5
A8
331
A8
  5
A9
331
A9
  5
AA
331
AA
  5
AB
331
AB
  5
AC
331
AC
  5
AD
331
AD
  5
AE
331
AE
  5
AF
331
AF
  5
B0
331
B0
  5
B1
331
0
  5
B2
331
B2
  5
B3
331
B3
  5
B4
331
B4
  5
B5
331
B5
  5
B6
331
B6
  5
B7
331
B7
  5
B8
331
B8
  5
B9
331
B9
  5
BA
331
BA
  5
BB
331
BB
  5
BC
331
BC
  5
BD
331
BD
  5
BE
331
BE
  5
BF
331
BF
  5
C0
331
C0
  5
C1
331
C1
  5
C2
331
C2
  5
C3
331
C3
  5
C4
331
C4
  5
C5
331
C5
  5
C6
331
C6
  5
C7
331
C7
  5
C8
331
C8
  5
C9
331
C9
  5
CA
331
CA
  5
CB
331
CB
  5
CC
331
CC
  5
CD
331
CD
  5
CE
331
CE
  5
CF
331
CF
  5
D0
331
D0
  5
D1
331
D1
  5
D2
331
D2
  5
D3
331
D3
  5
D4
331
D4
  5
D5
331
D5
  5
D6
331
D6
  5
D7
331
D7
  5
D8
331
D8
  5
D9
331
D9
  5
DA
331
DA
  5
DB
331
DB
  5
DC
331
DC
  5
DD
331
DD
  5
DE
331
DE
  5
DF
331
DF
  5
E0
331
E0
  5
E1
331
E1
  5
E2
331
E2
  5
E3
331
E3
  5
E4
331
E4
  5
E5
331
E5
  5
E6
331
E6
  5
E7
331
E7
  5
E8
331
E8
  5
E9
331
E9
  5
EA
331
EA
  5
EB
331
EB
  5
EC
331
EC
  5
ED
331
ED
  5
EE
331
EE
  5
EF
331
EF
  5
F0
331
F0
  5
F1
331
F1
  5
F2
331
F2
  5
F3
331
F3
  5
F4
331
F4
  5
F5
331
F5
  5
F6
331
F6
  5
F7
331
F7
  5
F8
331
F8
  5
F9
331
0
  5
FA
331
FA
  5
FB
331
0
  5
FC
331
FC
  5
FD
331
FD
  5
FE
331
FE
  5
FF
331
FF
  5
100
331
100
  5
101
331
101
  5
102
331
102
  5
103
331
103
  5
104
331
104
  5
105
331
105
  5
106
331
106
  5
107
331
107
  5
108
331
108
  5
109
331
109
  5
10A
331
10A
  5
10B
331
10B
  5
10C
331
10C
  5
10D
331
10D
  5
10E
331
10E
  5
10F
331
10F
  5
110
331
110
  5
111
331
111
  5
112
331
112
  5
113
331
113
  5
114
331
114
  5
115
331
115
  5
116
331
116
  5
117
331
117
  5
118
331
118
  5
119
331
119
  5
11A
331
11A
  5
11B
331
11B
  5
11C
331
11C
  5
11D
331
11D
  5
11E
331
11E
  5
11F
331
11F
  5
120
331
120
  5
121
331
121
  5
122
331
122
  5
123
331
123
  5
124
331
124
  5
125
331
125
  5
126
331
126
  5
127
331
127
  5
128
331
128
  5
129
331
129
  5
12A
331
12A
  5
12B
331
12B
  5
12C
331
12C
  5
12D
331
12D
  5
12E
331
12E
  5
12F
331
12F
  5
130
331
130
  5
131
331
131
  5
132
331
132
  5
133
331
133
  5
134
331
134
  5
135
331
135
  5
136
331
136
  5
137
331
137
  5
138
331
138
  5
139
331
139
  5
13A
331
13A
  5
13B
331
13B
  5
13C
331
13C
  5
13D
331
13D
  5
13E
331
13E
  5
13F
331
13F
  5
140
331
140
  5
141
331
141
  5
142
331
142
  5
143
331
143
  5
144
331
144
  5
145
331
145
  5
146
331
146
  5
147
331
147
  5
148
331
148
  5
149
331
149
  5
14A
331
14A
  5
14B
331
14B
  5
14C
331
14C
  5
14D
331
14D
  5
14E
331
14E
  5
14F
331
14F
  5
150
331
150
  5
151
331
151
  5
152
331
152
  5
153
331
153
  5
154
331
154
  5
155
331
155
  5
156
331
156
  5
157
331
157
  5
158
331
158
  5
159
331
159
  5
15A
331
15A
  5
15B
331
15B
  5
15C
331
15C
  5
15D
331
15D
  5
15E
331
15E
  5
15F
331
15F
  5
160
331
160
  5
161
331
161
  5
162
331
162
  5
163
331
163
  5
164
331
164
  5
165
331
165
  5
166
331
166
  5
167
331
167
  5
168
331
168
  5
169
331
169
  5
16A
331
16A
  5
16B
331
16B
  5
16C
331
16C
  5
16D
331
16D
  5
16E
331
16E
  5
16F
331
16F
  5
170
331
170
  5
171
331
0
  5
172
331
172
  5
173
331
173
  5
174
331
174
  5
175
331
175
  5
176
331
176
  5
177
331
177
  5
178
331
178
  5
179
331
179
  5
17A
331
17A
  5
17B
331
17B
  5
17C
331
17C
  5
17D
331
17D
  5
17E
331
17E
  5
17F
331
17F
  5
180
331
180
  5
181
331
181
  5
182
331
182
  5
183
331
183
  5
184
331
184
  5
185
331
185
  5
186
331
186
  5
187
331
187
  5
188
331
188
  5
189
331
189
  5
18A
331
18A
  5
18B
331
18B
  5
18C
331
18C
  5
18D
331
18D
  5
18E
331
18E
  5
18F
331
18F
  5
190
331
190
  5
191
331
191
  5
192
331
192
  5
193
331
193
  5
194
331
194
  5
195
331
195
  5
196
331
196
  5
197
331
197
  5
198
331
198
  5
199
331
199
  5
19A
331
19A
  5
19B
331
19B
  5
19C
331
19C
  5
19D
331
19D
  5
19E
331
19E
  5
19F
331
19F
  5
1A0
331
1A0
  5
1A1
331
1A1
  5
1A2
331
1A2
  5
1A3
331
1A3
  5
1A4
331
1A4
  5
1A5
331
1A5
  5
1A6
331
1A6
  5
1A7
331
1A7
  5
1A8
331
1A8
  5
1A9
331
1A9
  5
1AA
331
1AA
  5
1AB
331
1AB
  5
1AC
331
1AC
  5
1AD
331
1AD
  5
1AE
331
1AE
  5
1AF
331
1AF
  5
1B0
331
1B0
  5
1B1
331
1B1
  5
1B2
331
1B2
  5
1B3
331
1B3
  5
1B4
331
1B4
  5
1B5
331
1B5
  5
1B6
331
1B6
  5
1B7
331
1B7
  5
1B8
331
1B8
  5
1B9
331
1B9
  5
1BA
331
1BA
  5
1BB
331
1BB
  5
1BC
331
1BC
  5
1BD
331
1BD
  5
1BE
331
1BE
  5
1BF
331
1BF
  5
1C0
331
1C0
  5
1C1
331
1C1
  5
1C2
331
1C2
  5
1C3
331
1C3
  5
1C4
331
1C4
  5
1C5
331
1C5
  5
1C6
331
1C6
  5
1C7
331
1C7
  5
1C8
331
1C8
  5
1C9
331
1C9
  5
1CA
331
1CA
  5
1CB
331
1CB
  5
1CC
331
1CC
  5
1CD
331
1CD
  5
1CE
331
1CE
  5
1CF
331
0
  5
1D0
331
0
  5
1D1
331
1D1
  5
1D2
331
1D2
  5
1D3
331
1D3
  5
1D4
331
1D4
  5
1D5
331
1D5
  5
1D7
331
1D7
  5
1DB
331
1D9
  5
1DC
331
1DA
  5
1DD
331
1DB
  5
1DE
331
1DC
  5
1DF
331
1DD
  5
1E0
331
1DE
  5
1E1
331
1DF
  5
1E2
331
1E0
  5
1E3
331
1E1
  5
1E4
331
1E2
  5
1E5
331
1E3
  5
1E6
331
1E4
  5
1E7
331
1E5
  5
1E8
331
1E6
  5
1E9
331
1E7
  5
1EA
331
1E8
  5
1EB
331
1E9
  5
1EC
331
1EA
  5
1ED
331
0
  5
1EE
331
1EC
  5
1EF
331
1ED
  5
1F0
331
0
  5
1F1
331
0
  5
1F2
331
1F0
  5
1F3
331
1F1
  5
1F4
331
0
  5
1F5
331
1F3
  5
1F6
331
1F4
  5
1F7
331
1F5
  5
1F8
331
1F6
  5
1F9
331
0
  5
1FA
331
0
  5
1FB
331
1F9
  5
1FC
331
1FA
  5
1FD
331
1FB
  5
1FE
331
1FC
  5
1FF
331
0
  5
200
331
1FE
  5
201
331
1FF
  5
202
331
200
  5
203
331
201
  5
204
331
202
  5
205
331
203
  5
206
331
204
  5
207
331
205
  5
208
331
206
  5
209
331
207
  5
20A
331
208
  5
20B
331
209
  5
20C
331
20A
  5
20D
331
20B
  5
20E
331
20C
  5
20F
331
20D
  5
210
331
20E
  5
211
331
20F
  5
212
331
210
  5
213
331
211
  5
214
331
212
  5
215
331
213
  5
216
331
214
  5
217
331
215
  5
218
331
216
  5
219
331
217
  5
21A
331
218
  5
21B
331
219
  5
21C
331
21A
  5
21D
331
21B
  5
21E
331
21C
  5
21F
331
21D
  5
2CB
331
21E
  5
2CC
331
21F
  5
2CD
331
2CB
  5
2CE
331
2CC
  5
2CF
331
2CD
  5
2D0
331
2CE
  5
2D1
331
2CF
  5
2D2
331
2D0
  5
2D3
331
2D1
  5
2D5
331
2D2
  5
2D6
331
2D3
  5
2D7
331
2D5
  5
2D8
331
2D6
  5
2D9
331
2D7
  5
2DB
331
2D8
  5
2DC
331
0
  5
2DD
331
2DB
  5
2DF
331
2DC
  5
2E3
331
2DD
  5
2E4
331
2DF
  5
2E5
331
2E3
  5
2E6
331
2E4
  5
2E7
331
2E5
  5
2E8
331
2E6
  5
2E9
331
2E7
  5
2EA
331
2E8
  5
2F2
331
2E9
  5
2F8
331
2EA
  5
2FE
331
2F2
  5
2FF
331
2F8
  5
300
331
2FE
  5
301
331
2FF
  5
305
331
300
  5
306
331
301
  5
34C
331
305
  5
34D
331
306
  5
34E
331
0
  5
352
331
0
  5
355
331
0
  5
356
331
352
  5
35A
331
355
  5
35B
331
356
  5
35C
331
35A
  5
360
331
35B
  5
361
331
35C
  5
363
331
35D
  5
366
331
35E
  5
367
331
35F
  5
368
331
360
  5
369
331
361
  5
36A
331
0
  5
1D9
331
0
  5
62
331
0
  5
1DA
331
368
  5
36C
331
0
  5
36B
331
0
  5
35D
331
0
  5
35E
331
36C
  5
35F
  0
LAYOUT
  5
1C
102
{ACAD_REACTORS
330
1A
102
}
330
1A
100
AcDbPlotSettings
  1

  2
none_device
  4

  6

 40
0.0
 41
0.0
 42
0.0
 43
0.0
 44
0.0
 45
0.0
 46
0.0
 47
0.0
 48
0.0
 49
0.0
140
0.0
141
0.0
142
1.0
143
1.0
 70
   688
 72
     0
 73
     0
 74
     5
  7

 75
    16
 76
     0
 77
     2
 78
   300
147
1.0
148
0.0
149
0.0
100
AcDbLayout
  1
Layout1
 70
     1
 71
     1
 10
0.0
 20
0.0
 11
12.0
 21
9.0
 12
0.0
 22
0.0
 32
0.0
 14
1.000000000000000E+20
 24
1.000000000000000E+20
 34
1.000000000000000E+20
 15
-1.000000000000000E+20
 25
-1.000000000000000E+20
 35
-1.000000000000000E+20
146
0.0
 13
0.0
 23
0.0
 33
0.0
 16
1.0
 26
0.0
 36
0.0
 17
0.0
 27
1.0
 37
0.0
 76
     0
330
1B
  0
LAYOUT
  5
1E
102
{ACAD_REACTORS
330
1A
102
}
330
1A
100
AcDbPlotSettings
  1

  2
none_device
  4

  6

 40
0.0
 41
0.0
 42
0.0
 43
0.0
 44
0.0
 45
0.0
 46
0.0
 47
0.0
 48
0.0
 49
0.0
140
0.0
141
0.0
142
1.0
143
1.0
 70
  1712
 72
     0
 73
     0
 74
     0
  7

 75
     0
 76
     0
 77
     2
 78
   300
147
1.0
148
0.0
149
0.0
100
AcDbLayout
  1
Model
 70
     1
 71
     0
 10
0.0
 20
0.0
 11
12.0
 21
9.0
 12
0.0
 22
0.0
 32
0.0
 14
-58.46456048276639
 24
-41.06303459360284
 34
0.0
 15
78.0040103783812
 25
40.74712297075223
 35
0.0
146
0.0
 13
0.0
 23
0.0
 33
0.0
 16
1.0
 26
0.0
 36
0.0
 17
0.0
 27
1.0
 37
0.0
 76
     0
330
1D
331
220
  0
MATERIAL
  5
260
102
{ACAD_REACTORS
330
25E
102
}
330
25E
100
AcDbMaterial
  1
ByBlock
 72
     1
 94
      127
  0
MATERIAL
  5
25F
102
{ACAD_REACTORS
330
25E
102
}
330
25E
100
AcDbMaterial
  1
ByLayer
 72
     1
 94
      127
  0
MATERIAL
  5
261
102
{ACAD_REACTORS
330
25E
102
}
330
25E
100
AcDbMaterial
  1
Global
 72
     1
 94
      127
  0
MLEADERSTYLE
  5
2B7
102
{ACAD_REACTORS
330
26C
102
}
330
26C
100
AcDbMLeaderStyle
179
     2
170
     2
171
     1
172
     0
 90
        2
 40
0.0
 41
0.0
173
     1
 91
-1056964608
340
14
 92
       -2
290
     1
 42
0.09
291
     1
 43
0.36
  3
Standard
341
0
 44
0.18
300

342
11
174
     1
178
     1
175
     1
176
     0
 93
-1056964608
 45
0.18
292
     0
297
     0
 46
0.18
343
0
 94
-1056964608
 47
1.0
 49
1.0
140
1.0
293
     1
141
0.0
294
     1
177
     0
142
1.0
295
     0
296
     0
143
0.125
271
     0
272
     9
273
     9
298
     0
  0
MLINESTYLE
  5
18
102
{ACAD_REACTORS
330
17
102
}
330
17
100
AcDbMlineStyle
  2
Standard
 70
     0
  3

 62
   256
 51
90.0
 52
90.0
 71
     2
 49
0.5
 62
   256
  6
BYLAYER
 49
-0.5
 62
   256
  6
BYLAYER
  0
ACDBPLACEHOLDER
  5
F
102
{ACAD_REACTORS
330
E
102
}
330
E
  0
SCALE
  5
228
102
{ACAD_REACTORS
330
227
102
}
330
227
100
AcDbScale
 70
     0
300
1:1
140
1.0
141
1.0
290
     1
  0
SCALE
  5
229
102
{ACAD_REACTORS
330
227
102
}
330
227
100
AcDbScale
 70
     0
300
1:2
140
1.0
141
2.0
290
     0
  0
SCALE
  5
22A
102
{ACAD_REACTORS
330
227
102
}
330
227
100
AcDbScale
 70
     0
300
1:4
140
1.0
141
4.0
290
     0
  0
SCALE
  5
22B
102
{ACAD_REACTORS
330
227
102
}
330
227
100
AcDbScale
 70
     0
300
1:5
140
1.0
141
5.0
290
     0
  0
SCALE
  5
22C
102
{ACAD_REACTORS
330
227
102
}
330
227
100
AcDbScale
 70
     0
300
1:8
140
1.0
141
8.0
290
     0
  0
SCALE
  5
22D
102
{ACAD_REACTORS
330
227
102
}
330
227
100
AcDbScale
 70
     0
300
1:10
140
1.0
141
10.0
290
     0
  0
SCALE
  5
22E
102
{ACAD_REACTORS
330
227
102
}
330
227
100
AcDbScale
 70
     0
300
1:16
140
1.0
141
16.0
290
     0
  0
SCALE
  5
22F
102
{ACAD_REACTORS
330
227
102
}
330
227
100
AcDbScale
 70
     0
300
1:20
140
1.0
141
20.0
290
     0
  0
SCALE
  5
230
102
{ACAD_REACTORS
330
227
102
}
330
227
100
AcDbScale
 70
     0
300
1:30
140
1.0
141
30.0
290
     0
  0
SCALE
  5
231
102
{ACAD_REACTORS
330
227
102
}
330
227
100
AcDbScale
 70
     0
300
1:40
140
1.0
141
40.0
290
     0
  0
SCALE
  5
232
102
{ACAD_REACTORS
330
227
102
}
330
227
100
AcDbScale
 70
     0
300
1:50
140
1.0
141
50.0
290
     0
  0
SCALE
  5
233
102
{ACAD_REACTORS
330
227
102
}
330
227
100
AcDbScale
 70
     0
300
1:100
140
1.0
141
100.0
290
     0
  0
SCALE
  5
234
102
{ACAD_REACTORS
330
227
102
}
330
227
100
AcDbScale
 70
     0
300
2:1
140
2.0
141
1.0
290
     0
  0
SCALE
  5
235
102
{ACAD_REACTORS
330
227
102
}
330
227
100
AcDbScale
 70
     0
300
4:1
140
4.0
141
1.0
290
     0
  0
SCALE
  5
236
102
{ACAD_REACTORS
330
227
102
}
330
227
100
AcDbScale
 70
     0
300
8:1
140
8.0
141
1.0
290
     0
  0
SCALE
  5
237
102
{ACAD_REACTORS
330
227
102
}
330
227
100
AcDbScale
 70
     0
300
10:1
140
10.0
141
1.0
290
     0
  0
SCALE
  5
238
102
{ACAD_REACTORS
330
227
102
}
330
227
100
AcDbScale
 70
     0
300
100:1
140
100.0
141
1.0
290
     0
  0
SCALE
  5
239
102
{ACAD_REACTORS
330
227
102
}
330
227
100
AcDbScale
 70
     0
300
1/128" = 1'-0"
140
0.0078125
141
12.0
290
     0
  0
SCALE
  5
23A
102
{ACAD_REACTORS
330
227
102
}
330
227
100
AcDbScale
 70
     0
300
1/64" = 1'-0"
140
0.015625
141
12.0
290
     0
  0
SCALE
  5
23B
102
{ACAD_REACTORS
330
227
102
}
330
227
100
AcDbScale
 70
     0
300
1/32" = 1'-0"
140
0.03125
141
12.0
290
     0
  0
SCALE
  5
23C
102
{ACAD_REACTORS
330
227
102
}
330
227
100
AcDbScale
 70
     0
300
1/16" = 1'-0"
140
0.0625
141
12.0
290
     0
  0
SCALE
  5
23D
102
{ACAD_REACTORS
330
227
102
}
330
227
100
AcDbScale
 70
     0
300
3/32" = 1'-0"
140
0.09375
141
12.0
290
     0
  0
SCALE
  5
23E
102
{ACAD_REACTORS
330
227
102
}
330
227
100
AcDbScale
 70
     0
300
1/8" = 1'-0"
140
0.125
141
12.0
290
     0
  0
SCALE
  5
23F
102
{ACAD_REACTORS
330
227
102
}
330
227
100
AcDbScale
 70
     0
300
3/16" = 1'-0"
140
0.1875
141
12.0
290
     0
  0
SCALE
  5
240
102
{ACAD_REACTORS
330
227
102
}
330
227
100
AcDbScale
 70
     0
300
1/4" = 1'-0"
140
0.25
141
12.0
290
     0
  0
SCALE
  5
241
102
{ACAD_REACTORS
330
227
102
}
330
227
100
AcDbScale
 70
     0
300
3/8" = 1'-0"
140
0.375
141
12.0
290
     0
  0
SCALE
  5
242
102
{ACAD_REACTORS
330
227
102
}
330
227
100
AcDbScale
 70
     0
300
1/2" = 1'-0"
140
0.5
141
12.0
290
     0
  0
SCALE
  5
243
102
{ACAD_REACTORS
330
227
102
}
330
227
100
AcDbScale
 70
     0
300
3/4" = 1'-0"
140
0.75
141
12.0
290
     0
  0
SCALE
  5
244
102
{ACAD_REACTORS
330
227
102
}
330
227
100
AcDbScale
 70
     0
300
1" = 1'-0"
140
1.0
141
12.0
290
     0
  0
SCALE
  5
245
102
{ACAD_REACTORS
330
227
102
}
330
227
100
AcDbScale
 70
     0
300
1-1/2" = 1'-0"
140
1.5
141
12.0
290
     0
  0
SCALE
  5
246
102
{ACAD_REACTORS
330
227
102
}
330
227
100
AcDbScale
 70
     0
300
3" = 1'-0"
140
3.0
141
12.0
290
     0
  0
SCALE
  5
247
102
{ACAD_REACTORS
330
227
102
}
330
227
100
AcDbScale
 70
     0
300
6" = 1'-0"
140
6.0
141
12.0
290
     0
  0
SCALE
  5
248
102
{ACAD_REACTORS
330
227
102
}
330
227
100
AcDbScale
 70
     0
300
1'-0" = 1'-0"
140
12.0
141
12.0
290
     0
  0
TABLESTYLE
  5
2B6
102
{ACAD_REACTORS
330
2B5
102
}
102
{ACAD_XDICTIONARY
360
377
102
}
330
2B5
100
AcDbTableStyle
  3
Standard
 70
     0
 71
     0
 40
0.06
 41
0.06
280
     0
281
     0
  7
Standard
140
0.18
170
     2
 62
     0
 63
   257
283
     0
 90
        4
 91
        0
  1

274
    -2
284
     1
 64
     0
275
    -2
285
     1
 65
     0
276
    -2
286
     1
 66
     0
277
    -2
287
     1
 67
     0
278
    -2
288
     1
 68
     0
279
    -2
289
     1
 69
     0
  7
Standard
140
0.25
170
     5
 62
     0
 63
   257
283
     0
 90
        4
 91
        0
  1

274
    -2
284
     1
 64
     0
275
    -2
285
     1
 65
     0
276
    -2
286
     1
 66
     0
277
    -2
287
     1
 67
     0
278
    -2
288
     1
 68
     0
279
    -2
289
     1
 69
     0
  7
Standard
140
0.18
170
     5
 62
     0
 63
   257
283
     0
 90
        4
 91
        0
  1

274
    -2
284
     1
 64
     0
275
    -2
285
     1
 65
     0
276
    -2
286
     1
 66
     0
277
    -2
287
     1
 67
     0
278
    -2
288
     1
 68
     0
279
    -2
289
     1
 69
     0
  0
VISUALSTYLE
  5
252
102
{ACAD_REACTORS
330
24D
102
}
330
24D
100
AcDbVisualStyle
  2
2dWireframe
 70
     4
177
     3
291
     0
 70
    58
 90
        0
176
     1
 90
        2
176
     1
 90
        0
176
     1
 90
        0
176
     1
 40
-0.6
176
     1
 40
-30.0
176
     1
 62
     7
176
     1
 90
        1
176
     1
 90
        4
176
     1
 62
     7
176
     1
 62
   257
176
     1
 90
        1
176
     1
 90
        1
176
     1
 40
1.0
176
     1
 90
        0
176
     1
 62
   257
176
     1
 40
1.0
176
     1
 90
        1
176
     1
 90
        6
176
     1
 90
        2
176
     1
 62
     7
176
     1
 90
        5
176
     1
 90
        0
176
     1
 90
        0
176
     1
290
     0
176
     1
 90
        1
176
     1
 40
0.0
176
     1
 90
        0
176
     1
290
     1
176
     1
290
     1
176
     1
290
     0
176
     1
290
     0
176
     1
290
     0
176
     1
290
     0
176
     1
290
     0
176
     1
290
     0
176
     1
290
     0
176
     1
 90
       50
176
     1
 40
0.0
176
     1
 40
1.0
176
     1
 90
        0
176
     1
 62
    18
420
        0
176
     1
 90
       50
176
     1
 90
        3
176
     1
 62
     5
420
      255
176
     1
290
     0
176
     1
 90
       50
176
     1
 90
       50
176
     1
 90
       50
176
     1
290
     0
176
     1
 90
       50
176
     1
 62
   256
176
     0
 40
1.0
176
     0
 90
        2
176
     1
  1
strokes_ogs.tif
176
     1
290
     0
176
     1
 40
1.0
176
     1
 40
1.0
176
     1
  0
VISUALSTYLE
  5
254
102
{ACAD_REACTORS
330
24D
102
}
330
24D
100
AcDbVisualStyle
  2
3D Hidden
 70
     6
177
     3
291
     0
 70
    58
 90
        1
176
     1
 90
        2
176
     1
 90
        2
176
     1
 90
        0
176
     1
 40
-0.6
176
     1
 40
-30.0
176
     1
 62
     7
176
     1
 90
        2
176
     1
 90
        2
176
     1
 62
     7
176
     1
 62
   257
176
     1
 90
        2
176
     1
 90
        1
176
     1
 40
40.0
176
     1
 90
        0
176
     1
 62
   257
176
     1
 40
1.0
176
     1
 90
        1
176
     1
 90
        6
176
     1
 90
        2
176
     1
 62
     7
176
     1
 90
        3
176
     1
 90
        0
176
     1
 90
        0
176
     1
290
     0
176
     1
 90
        1
176
     1
 40
0.0
176
     1
 90
        0
176
     1
290
     0
176
     1
290
     1
176
     1
290
     1
176
     1
290
     0
176
     1
290
     0
176
     1
290
     0
176
     1
290
     0
176
     1
290
     0
176
     1
290
     0
176
     1
 90
       50
176
     1
 40
0.0
176
     1
 40
1.0
176
     1
 90
        0
176
     1
 62
    18
420
        0
176
     1
 90
       50
176
     1
 90
        3
176
     1
 62
     5
420
      255
176
     1
290
     0
176
     1
 90
       50
176
     1
 90
       50
176
     1
 90
       50
176
     1
290
     0
176
     1
 90
       50
176
     1
 62
   256
176
     0
 40
1.0
176
     0
 90
        2
176
     1
  1
strokes_ogs.tif
176
     1
290
     0
176
     1
 40
1.0
176
     1
 40
1.0
176
     1
  0
VISUALSTYLE
  5
253
102
{ACAD_REACTORS
330
24D
102
}
330
24D
100
AcDbVisualStyle
  2
3dWireframe
 70
     5
177
     3
291
     0
 70
    58
 90
        0
176
     1
 90
        2
176
     1
 90
        0
176
     1
 90
        0
176
     1
 40
-0.6
176
     1
 40
-30.0
176
     1
 62
     7
176
     1
 90
        1
176
     1
 90
        4
176
     1
 62
     7
176
     1
 62
   257
176
     1
 90
        1
176
     1
 90
        1
176
     1
 40
1.0
176
     1
 90
        0
176
     1
 62
   257
176
     1
 40
1.0
176
     1
 90
        1
176
     1
 90
        6
176
     1
 90
        2
176
     1
 62
     7
176
     1
 90
        5
176
     1
 90
        0
176
     1
 90
        0
176
     1
290
     0
176
     1
 90
        1
176
     1
 40
0.0
176
     1
 90
        0
176
     1
290
     0
176
     1
290
     1
176
     1
290
     1
176
     1
290
     0
176
     1
290
     0
176
     1
290
     0
176
     1
290
     0
176
     1
290
     0
176
     1
290
     0
176
     1
 90
       50
176
     1
 40
0.0
176
     1
 40
1.0
176
     1
 90
        0
176
     1
 62
    18
420
        0
176
     1
 90
       50
176
     1
 90
        3
176
     1
 62
     5
420
      255
176
     1
290
     0
176
     1
 90
       50
176
     1
 90
       50
176
     1
 90
       50
176
     1
290
     0
176
     1
 90
       50
176
     1
 62
   256
176
     0
 40
1.0
176
     0
 90
        2
176
     1
  1
strokes_ogs.tif
176
     1
290
     0
176
     1
 40
1.0
176
     1
 40
1.0
176
     1
  0
VISUALSTYLE
  5
255
102
{ACAD_REACTORS
330
24D
102
}
330
24D
100
AcDbVisualStyle
  2
Basic
 70
     7
177
     3
291
     1
 70
    58
 90
        1
176
     1
 90
        0
176
     1
 90
        1
176
     1
 90
        0
176
     1
 40
-0.6
176
     1
 40
-30.0
176
     1
 62
     7
176
     1
 90
        0
176
     1
 90
        4
176
     1
 62
     7
176
     1
 62
   257
176
     1
 90
        1
176
     1
 90
        1
176
     1
 40
1.0
176
     1
 90
        8
176
     1
 62
     7
176
     1
 40
1.0
176
     1
 90
        1
176
     1
 90
        6
176
     1
 90
        2
176
     1
 62
     7
176
     1
 90
        5
176
     1
 90
        0
176
     1
 90
        0
176
     1
290
     0
176
     1
 90
        1
176
     1
 40
0.0
176
     1
 90
        0
176
     1
290
     0
176
     1
290
     1
176
     1
290
     1
176
     1
290
     0
176
     1
290
     0
176
     1
290
     0
176
     1
290
     0
176
     1
290
     0
176
     1
290
     0
176
     1
 90
       50
176
     1
 40
0.0
176
     1
 40
1.0
176
     1
 90
        0
176
     1
 62
    18
420
        0
176
     1
 90
       50
176
     1
 90
        3
176
     1
 62
     5
420
      255
176
     1
290
     0
176
     1
 90
       50
176
     1
 90
       50
176
     1
 90
       50
176
     1
290
     0
176
     1
 90
       50
176
     1
 62
   256
176
     0
 40
1.0
176
     0
 90
        2
176
     1
  1
strokes_ogs.tif
176
     1
290
     0
176
     1
 40
1.0
176
     1
 40
1.0
176
     1
  0
VISUALSTYLE
  5
259
102
{ACAD_REACTORS
330
24D
102
}
330
24D
100
AcDbVisualStyle
  2
Brighten
 70
    12
177
     3
291
     1
 70
    58
 90
        2
176
     1
 90
        2
176
     1
 90
        0
176
     1
 90
        0
176
     1
 40
-0.6
176
     1
 40
-30.0
176
     1
 62
     7
176
     1
 90
        1
176
     1
 90
        4
176
     1
 62
     7
176
     1
 62
   257
176
     1
 90
        1
176
     1
 90
        1
176
     1
 40
1.0
176
     1
 90
        8
176
     1
 62
     7
176
     1
 40
1.0
176
     1
 90
        1
176
     1
 90
        6
176
     1
 90
        2
176
     1
 62
     7
176
     1
 90
        5
176
     1
 90
        0
176
     1
 90
        0
176
     1
290
     0
176
     1
 90
        1
176
     1
 40
50.0
176
     1
 90
        0
176
     1
290
     0
176
     1
290
     1
176
     1
290
     1
176
     1
290
     0
176
     1
290
     0
176
     1
290
     0
176
     1
290
     0
176
     1
290
     0
176
     1
290
     0
176
     1
 90
       50
176
     1
 40
0.0
176
     1
 40
1.0
176
     1
 90
        0
176
     1
 62
    18
420
        0
176
     1
 90
       50
176
     1
 90
        3
176
     1
 62
     5
420
      255
176
     1
290
     0
176
     1
 90
       50
176
     1
 90
       50
176
     1
 90
       50
176
     1
290
     0
176
     1
 90
       50
176
     1
 62
   256
176
     0
 40
1.0
176
     0
 90
        2
176
     1
  1
strokes_ogs.tif
176
     1
290
     0
176
     1
 40
1.0
176
     1
 40
1.0
176
     1
  0
VISUALSTYLE
  5
25D
102
{ACAD_REACTORS
330
24D
102
}
330
24D
100
AcDbVisualStyle
  2
ColorChange
 70
    16
177
     3
291
     1
 70
    58
 90
        2
176
     1
 90
        2
176
     1
 90
        3
176
     1
 90
        0
176
     1
 40
-0.6
176
     1
 40
-30.0
176
     1
 62
     8
176
     1
 90
        1
176
     1
 90
        4
176
     1
 62
     7
176
     1
 62
   257
176
     1
 90
        1
176
     1
 90
        1
176
     1
 40
1.0
176
     1
 90
        8
176
     1
 62
     8
176
     1
 40
1.0
176
     1
 90
        1
176
     1
 90
        6
176
     1
 90
        2
176
     1
 62
     7
176
     1
 90
        5
176
     1
 90
        0
176
     1
 90
        0
176
     1
290
     0
176
     1
 90
        1
176
     1
 40
0.0
176
     1
 90
        0
176
     1
290
     0
176
     1
290
     1
176
     1
290
     1
176
     1
290
     0
176
     1
290
     0
176
     1
290
     0
176
     1
290
     0
176
     1
290
     0
176
     1
290
     0
176
     1
 90
       50
176
     1
 40
0.0
176
     1
 40
1.0
176
     1
 90
        0
176
     1
 62
    18
420
        0
176
     1
 90
       50
176
     1
 90
        3
176
     1
 62
     5
420
      255
176
     1
290
     0
176
     1
 90
       50
176
     1
 90
       50
176
     1
 90
       50
176
     1
290
     0
176
     1
 90
       50
176
     1
 62
   256
176
     0
 40
1.0
176
     0
 90
        2
176
     1
  1
strokes_ogs.tif
176
     1
290
     0
176
     1
 40
1.0
176
     1
 40
1.0
176
     1
  0
VISUALSTYLE
  5
257
102
{ACAD_REACTORS
330
24D
102
}
330
24D
100
AcDbVisualStyle
  2
Conceptual
 70
     9
177
     3
291
     0
 70
    58
 90
        3
176
     1
 90
        2
176
     1
 90
        0
176
     1
 90
        0
176
     1
 40
-0.6
176
     1
 40
-30.0
176
     1
 62
     7
176
     1
 90
        2
176
     1
 90
        2
176
     1
 62
     7
176
     1
 62
   257
176
     1
 90
        1
176
     1
 90
        1
176
     1
 40
40.0
176
     1
 90
        8
176
     1
 62
     7
176
     1
 40
1.0
176
     1
 90
        1
176
     1
 90
        6
176
     1
 90
        2
176
     1
 62
     7
176
     1
 90
        3
176
     1
 90
        0
176
     1
 90
        0
176
     1
290
     0
176
     1
 90
        1
176
     1
 40
0.0
176
     1
 90
        0
176
     1
290
     0
176
     1
290
     1
176
     1
290
     1
176
     1
290
     0
176
     1
290
     0
176
     1
290
     0
176
     1
290
     0
176
     1
290
     0
176
     1
290
     0
176
     1
 90
       50
176
     1
 40
0.0
176
     1
 40
1.0
176
     1
 90
        0
176
     1
 62
    18
420
        0
176
     1
 90
       50
176
     1
 90
        3
176
     1
 62
     5
420
      255
176
     1
290
     0
176
     1
 90
       50
176
     1
 90
       50
176
     1
 90
       50
176
     1
290
     0
176
     1
 90
       50
176
     1
 62
   256
176
     0
 40
1.0
176
     0
 90
        2
176
     1
  1
strokes_ogs.tif
176
     1
290
     0
176
     1
 40
1.0
176
     1
 40
1.0
176
     1
  0
VISUALSTYLE
  5
258
102
{ACAD_REACTORS
330
24D
102
}
330
24D
100
AcDbVisualStyle
  2
Dim
 70
    11
177
     3
291
     1
 70
    58
 90
        2
176
     1
 90
        2
176
     1
 90
        0
176
     1
 90
        0
176
     1
 40
-0.6
176
     1
 40
-30.0
176
     1
 62
     7
176
     1
 90
        1
176
     1
 90
        4
176
     1
 62
     7
176
     1
 62
   257
176
     1
 90
        1
176
     1
 90
        1
176
     1
 40
1.0
176
     1
 90
        8
176
     1
 62
     7
176
     1
 40
1.0
176
     1
 90
        1
176
     1
 90
        6
176
     1
 90
        2
176
     1
 62
     7
176
     1
 90
        5
176
     1
 90
        0
176
     1
 90
        0
176
     1
290
     0
176
     1
 90
        1
176
     1
 40
-50.0
176
     1
 90
        0
176
     1
290
     0
176
     1
290
     1
176
     1
290
     1
176
     1
290
     0
176
     1
290
     0
176
     1
290
     0
176
     1
290
     0
176
     1
290
     0
176
     1
290
     0
176
     1
 90
       50
176
     1
 40
0.0
176
     1
 40
1.0
176
     1
 90
        0
176
     1
 62
    18
420
        0
176
     1
 90
       50
176
     1
 90
        3
176
     1
 62
     5
420
      255
176
     1
290
     0
176
     1
 90
       50
176
     1
 90
       50
176
     1
 90
       50
176
     1
290
     0
176
     1
 90
       50
176
     1
 62
   256
176
     0
 40
1.0
176
     0
 90
        2
176
     1
  1
strokes_ogs.tif
176
     1
290
     0
176
     1
 40
1.0
176
     1
 40
1.0
176
     1
  0
VISUALSTYLE
  5
2AF
102
{ACAD_REACTORS
330
24D
102
}
330
24D
100
AcDbVisualStyle
  2
EdgeColorOff
 70
    22
177
     3
291
     1
 70
    58
 90
        2
176
     0
 90
        2
176
     0
 90
        0
176
     0
 90
        0
176
     0
 40
0.6
176
     0
 40
30.0
176
     0
 62
     7
420
 16777215
176
     0
 90
        1
176
     0
 90
        4
176
     0
 62
     7
176
     0
 62
   257
176
     0
 90
        1
176
     0
 90
        1
176
     0
 40
1.0
176
     0
 90
        8
176
     2
 62
     7
176
     0
 40
1.0
176
     0
 90
        1
176
     0
 90
        6
176
     0
 90
        2
176
     0
 62
     7
176
     0
 90
        5
176
     0
 90
        0
176
     0
 90
        0
176
     0
290
     0
176
     0
 90
        1
176
     0
 40
0.0
176
     0
 90
        0
176
     0
290
     0
176
     0
290
     1
176
     0
290
     1
176
     0
290
     0
176
     0
290
     0
176
     0
290
     0
176
     0
290
     0
176
     0
290
     0
176
     0
290
     0
176
     0
 90
       50
176
     0
 40
0.0
176
     0
 40
1.0
176
     0
 90
        0
176
     0
 62
    18
420
        0
176
     0
 90
       50
176
     0
 90
        3
176
     0
 62
     5
420
      255
176
     0
290
     0
176
     0
 90
       50
176
     0
 90
       50
176
     0
 90
       50
176
     0
290
     0
176
     0
 90
       50
176
     0
 62
   256
176
     0
 40
1.0
176
     0
 90
        2
176
     0
  1
strokes_ogs.tif
176
     0
290
     0
176
     0
 40
1.0
176
     0
 40
1.0
176
     0
  0
VISUALSTYLE
  5
25C
102
{ACAD_REACTORS
330
24D
102
}
330
24D
100
AcDbVisualStyle
  2
Facepattern
 70
    15
177
     3
291
     1
 70
    58
 90
        2
176
     1
 90
        2
176
     1
 90
        0
176
     1
 90
        0
176
     1
 40
-0.6
176
     1
 40
-30.0
176
     1
 62
     7
176
     1
 90
        1
176
     1
 90
        4
176
     1
 62
     7
176
     1
 62
   257
176
     1
 90
        1
176
     1
 90
        1
176
     1
 40
1.0
176
     1
 90
        8
176
     1
 62
     7
176
     1
 40
1.0
176
     1
 90
        1
176
     1
 90
        6
176
     1
 90
        2
176
     1
 62
     7
176
     1
 90
        5
176
     1
 90
        0
176
     1
 90
        0
176
     1
290
     0
176
     1
 90
        1
176
     1
 40
0.0
176
     1
 90
        0
176
     1
290
     0
176
     1
290
     1
176
     1
290
     1
176
     1
290
     0
176
     1
290
     0
176
     1
290
     0
176
     1
290
     0
176
     1
290
     0
176
     1
290
     0
176
     1
 90
       50
176
     1
 40
0.0
176
     1
 40
1.0
176
     1
 90
        0
176
     1
 62
    18
420
        0
176
     1
 90
       50
176
     1
 90
        3
176
     1
 62
     5
420
      255
176
     1
290
     0
176
     1
 90
       50
176
     1
 90
       50
176
     1
 90
       50
176
     1
290
     0
176
     1
 90
       50
176
     1
 62
   256
176
     0
 40
1.0
176
     0
 90
        2
176
     1
  1
strokes_ogs.tif
176
     1
290
     0
176
     1
 40
1.0
176
     1
 40
1.0
176
     1
  0
VISUALSTYLE
  5
24E
102
{ACAD_REACTORS
330
24D
102
}
330
24D
100
AcDbVisualStyle
  2
Flat
 70
     0
177
     3
291
     1
 70
    58
 90
        2
176
     1
 90
        1
176
     1
 90
        1
176
     1
 90
        2
176
     1
 40
-0.6
176
     1
 40
30.0
176
     1
 62
     7
176
     1
 90
        0
176
     1
 90
        4
176
     1
 62
     7
176
     1
 62
   257
176
     1
 90
        1
176
     1
 90
        1
176
     1
 40
1.0
176
     1
 90
        8
176
     1
 62
     7
176
     1
 40
1.0
176
     1
 90
        1
176
     1
 90
        6
176
     1
 90
        2
176
     1
 62
     7
176
     1
 90
        5
176
     1
 90
        0
176
     1
 90
        0
176
     1
290
     0
176
     1
 90
       13
176
     1
 40
0.0
176
     1
 90
        0
176
     1
290
     0
176
     1
290
     1
176
     1
290
     1
176
     1
290
     0
176
     1
290
     0
176
     1
290
     0
176
     1
290
     0
176
     1
290
     0
176
     1
290
     0
176
     1
 90
       50
176
     1
 40
0.0
176
     1
 40
1.0
176
     1
 90
        0
176
     1
 62
    18
420
        0
176
     1
 90
       50
176
     1
 90
        3
176
     1
 62
     5
420
      255
176
     1
290
     0
176
     1
 90
       50
176
     1
 90
       50
176
     1
 90
       50
176
     1
290
     0
176
     1
 90
       50
176
     1
 62
   256
176
     0
 40
1.0
176
     0
 90
        2
176
     1
  1
strokes_ogs.tif
176
     1
290
     0
176
     1
 40
1.0
176
     1
 40
1.0
176
     1
  0
VISUALSTYLE
  5
24F
102
{ACAD_REACTORS
330
24D
102
}
330
24D
100
AcDbVisualStyle
  2
FlatWithEdges
 70
     1
177
     3
291
     1
 70
    58
 90
        2
176
     1
 90
        1
176
     1
 90
        1
176
     1
 90
        2
176
     1
 40
-0.6
176
     1
 40
30.0
176
     1
 62
     7
176
     1
 90
        1
176
     1
 90
        4
176
     1
 62
     7
176
     1
 62
   257
176
     1
 90
        1
176
     1
 90
        1
176
     1
 40
1.0
176
     1
 90
        0
176
     1
 62
   257
176
     1
 40
1.0
176
     1
 90
        1
176
     1
 90
        6
176
     1
 90
        2
176
     1
 62
     7
176
     1
 90
        5
176
     1
 90
        0
176
     1
 90
        0
176
     1
290
     0
176
     1
 90
       13
176
     1
 40
0.0
176
     1
 90
        0
176
     1
290
     0
176
     1
290
     1
176
     1
290
     1
176
     1
290
     0
176
     1
290
     0
176
     1
290
     0
176
     1
290
     0
176
     1
290
     0
176
     1
290
     0
176
     1
 90
       50
176
     1
 40
0.0
176
     1
 40
1.0
176
     1
 90
        0
176
     1
 62
    18
420
        0
176
     1
 90
       50
176
     1
 90
        3
176
     1
 62
     5
420
      255
176
     1
290
     0
176
     1
 90
       50
176
     1
 90
       50
176
     1
 90
       50
176
     1
290
     0
176
     1
 90
       50
176
     1
 62
   256
176
     0
 40
1.0
176
     0
 90
        2
176
     1
  1
strokes_ogs.tif
176
     1
290
     0
176
     1
 40
1.0
176
     1
 40
1.0
176
     1
  0
VISUALSTYLE
  5
250
102
{ACAD_REACTORS
330
24D
102
}
330
24D
100
AcDbVisualStyle
  2
Gouraud
 70
     2
177
     3
291
     1
 70
    58
 90
        2
176
     1
 90
        2
176
     1
 90
        1
176
     1
 90
        2
176
     1
 40
-0.6
176
     1
 40
30.0
176
     1
 62
     7
176
     1
 90
        0
176
     1
 90
        4
176
     1
 62
     7
176
     1
 62
   257
176
     1
 90
        1
176
     1
 90
        1
176
     1
 40
1.0
176
     1
 90
        0
176
     1
 62
     7
176
     1
 40
1.0
176
     1
 90
        1
176
     1
 90
        6
176
     1
 90
        2
176
     1
 62
     7
176
     1
 90
        5
176
     1
 90
        0
176
     1
 90
        0
176
     1
290
     0
176
     1
 90
       13
176
     1
 40
0.0
176
     1
 90
        0
176
     1
290
     0
176
     1
290
     1
176
     1
290
     1
176
     1
290
     0
176
     1
290
     0
176
     1
290
     0
176
     1
290
     0
176
     1
290
     0
176
     1
290
     0
176
     1
 90
       50
176
     1
 40
0.0
176
     1
 40
1.0
176
     1
 90
        0
176
     1
 62
    18
420
        0
176
     1
 90
       50
176
     1
 90
        3
176
     1
 62
     5
420
      255
176
     1
290
     0
176
     1
 90
       50
176
     1
 90
       50
176
     1
 90
       50
176
     1
290
     0
176
     1
 90
       50
176
     1
 62
   256
176
     0
 40
1.0
176
     0
 90
        2
176
     1
  1
strokes_ogs.tif
176
     1
290
     0
176
     1
 40
1.0
176
     1
 40
1.0
176
     1
  0
VISUALSTYLE
  5
251
102
{ACAD_REACTORS
330
24D
102
}
330
24D
100
AcDbVisualStyle
  2
GouraudWithEdges
 70
     3
177
     3
291
     1
 70
    58
 90
        2
176
     1
 90
        2
176
     1
 90
        1
176
     1
 90
        2
176
     1
 40
-0.6
176
     1
 40
30.0
176
     1
 62
     7
176
     1
 90
        1
176
     1
 90
        4
176
     1
 62
     7
176
     1
 62
   257
176
     1
 90
        1
176
     1
 90
        1
176
     1
 40
1.0
176
     1
 90
        0
176
     1
 62
   257
176
     1
 40
1.0
176
     1
 90
        1
176
     1
 90
        6
176
     1
 90
        2
176
     1
 62
     7
176
     1
 90
        5
176
     1
 90
        0
176
     1
 90
        0
176
     1
290
     0
176
     1
 90
       13
176
     1
 40
0.0
176
     1
 90
        0
176
     1
290
     0
176
     1
290
     1
176
     1
290
     1
176
     1
290
     0
176
     1
290
     0
176
     1
290
     0
176
     1
290
     0
176
     1
290
     0
176
     1
290
     0
176
     1
 90
       50
176
     1
 40
0.0
176
     1
 40
1.0
176
     1
 90
        0
176
     1
 62
    18
420
        0
176
     1
 90
       50
176
     1
 90
        3
176
     1
 62
     5
420
      255
176
     1
290
     0
176
     1
 90
       50
176
     1
 90
       50
176
     1
 90
       50
176
     1
290
     0
176
     1
 90
       50
176
     1
 62
   256
176
     0
 40
1.0
176
     0
 90
        2
176
     1
  1
strokes_ogs.tif
176
     1
290
     0
176
     1
 40
1.0
176
     1
 40
1.0
176
     1
  0
VISUALSTYLE
  5
2AC
102
{ACAD_REACTORS
330
24D
102
}
330
24D
100
AcDbVisualStyle
  2
Hidden
 70
     6
177
     3
291
     0
 70
    58
 90
        1
176
     1
 90
        2
176
     1
 90
        2
176
     1
 90
        0
176
     1
 40
0.6
176
     1
 40
30.0
176
     1
 62
     7
420
 16777215
176
     1
 90
        2
176
     1
 90
        2
176
     1
 62
     7
176
     1
 62
   257
176
     1
 90
        2
176
     1
 90
        1
176
     1
 40
40.0
176
     1
 90
        0
176
     1
 62
   257
176
     1
 40
1.0
176
     1
 90
        1
176
     1
 90
        6
176
     1
 90
        2
176
     1
 62
     7
176
     1
 90
        3
176
     1
 90
        0
176
     1
 90
        0
176
     1
290
     0
176
     1
 90
        1
176
     1
 40
0.0
176
     1
 90
        0
176
     1
290
     0
176
     1
290
     1
176
     1
290
     1
176
     1
290
     0
176
     1
290
     0
176
     1
290
     0
176
     1
290
     0
176
     1
290
     0
176
     1
290
     0
176
     1
 90
       50
176
     1
 40
0.0
176
     1
 40
1.0
176
     1
 90
        0
176
     1
 62
    18
420
        0
176
     1
 90
       50
176
     1
 90
        3
176
     1
 62
     5
420
      255
176
     1
290
     0
176
     1
 90
       50
176
     1
 90
       50
176
     1
 90
       50
176
     1
290
     0
176
     1
 90
       50
176
     1
 62
   256
176
     0
 40
1.0
176
     0
 90
        2
176
     1
  1
strokes_ogs.tif
176
     1
290
     0
176
     1
 40
1.0
176
     1
 40
1.0
176
     1
  0
VISUALSTYLE
  5
2AD
102
{ACAD_REACTORS
330
24D
102
}
330
24D
100
AcDbVisualStyle
  2
JitterOff
 70
    20
177
     3
291
     1
 70
    58
 90
        2
176
     0
 90
        2
176
     0
 90
        0
176
     0
 90
        0
176
     0
 40
0.6
176
     0
 40
30.0
176
     0
 62
     7
420
 16777215
176
     0
 90
        1
176
     0
 90
        4
176
     0
 62
     7
176
     0
 62
   257
176
     0
 90
        1
176
     0
 90
        1
176
     0
 40
1.0
176
     0
 90
       10
176
     2
 62
     7
176
     0
 40
1.0
176
     0
 90
        1
176
     0
 90
        6
176
     0
 90
        2
176
     0
 62
     7
176
     0
 90
        5
176
     0
 90
        0
176
     0
 90
        0
176
     0
290
     0
176
     0
 90
        1
176
     0
 40
0.0
176
     0
 90
        0
176
     0
290
     0
176
     0
290
     1
176
     0
290
     1
176
     0
290
     0
176
     0
290
     0
176
     0
290
     0
176
     0
290
     0
176
     0
290
     0
176
     0
290
     0
176
     0
 90
       50
176
     0
 40
0.0
176
     0
 40
1.0
176
     0
 90
        0
176
     0
 62
    18
420
        0
176
     0
 90
       50
176
     0
 90
        3
176
     0
 62
     5
420
      255
176
     0
290
     0
176
     0
 90
       50
176
     0
 90
       50
176
     0
 90
       50
176
     0
290
     0
176
     0
 90
       50
176
     0
 62
   256
176
     0
 40
1.0
176
     0
 90
        2
176
     0
  1
strokes_ogs.tif
176
     0
290
     0
176
     0
 40
1.0
176
     0
 40
1.0
176
     0
  0
VISUALSTYLE
  5
25B
102
{ACAD_REACTORS
330
24D
102
}
330
24D
100
AcDbVisualStyle
  2
Linepattern
 70
    14
177
     3
291
     1
 70
    58
 90
        2
176
     1
 90
        2
176
     1
 90
        0
176
     1
 90
        0
176
     1
 40
-0.6
176
     1
 40
-30.0
176
     1
 62
     7
176
     1
 90
        1
176
     1
 90
        4
176
     1
 62
     7
176
     1
 62
   257
176
     1
 90
        7
176
     1
 90
        7
176
     1
 40
1.0
176
     1
 90
        8
176
     1
 62
     7
176
     1
 40
1.0
176
     1
 90
        1
176
     1
 90
        6
176
     1
 90
        2
176
     1
 62
     7
176
     1
 90
        5
176
     1
 90
        0
176
     1
 90
        0
176
     1
290
     0
176
     1
 90
        1
176
     1
 40
0.0
176
     1
 90
        0
176
     1
290
     0
176
     1
290
     1
176
     1
290
     1
176
     1
290
     0
176
     1
290
     0
176
     1
290
     0
176
     1
290
     0
176
     1
290
     0
176
     1
290
     0
176
     1
 90
       50
176
     1
 40
0.0
176
     1
 40
1.0
176
     1
 90
        0
176
     1
 62
    18
420
        0
176
     1
 90
       50
176
     1
 90
        3
176
     1
 62
     5
420
      255
176
     1
290
     0
176
     1
 90
       50
176
     1
 90
       50
176
     1
 90
       50
176
     1
290
     0
176
     1
 90
       50
176
     1
 62
   256
176
     0
 40
1.0
176
     0
 90
        2
176
     1
  1
strokes_ogs.tif
176
     1
290
     0
176
     1
 40
1.0
176
     1
 40
1.0
176
     1
  0
VISUALSTYLE
  5
2AE
102
{ACAD_REACTORS
330
24D
102
}
330
24D
100
AcDbVisualStyle
  2
OverhangOff
 70
    21
177
     3
291
     1
 70
    58
 90
        2
176
     0
 90
        2
176
     0
 90
        0
176
     0
 90
        0
176
     0
 40
0.6
176
     0
 40
30.0
176
     0
 62
     7
420
 16777215
176
     0
 90
        1
176
     0
 90
        4
176
     0
 62
     7
176
     0
 62
   257
176
     0
 90
        1
176
     0
 90
        1
176
     0
 40
1.0
176
     0
 90
        9
176
     2
 62
     7
176
     0
 40
1.0
176
     0
 90
        1
176
     0
 90
        6
176
     0
 90
        2
176
     0
 62
     7
176
     0
 90
        5
176
     0
 90
        0
176
     0
 90
        0
176
     0
290
     0
176
     0
 90
        1
176
     0
 40
0.0
176
     0
 90
        0
176
     0
290
     0
176
     0
290
     1
176
     0
290
     1
176
     0
290
     0
176
     0
290
     0
176
     0
290
     0
176
     0
290
     0
176
     0
290
     0
176
     0
290
     0
176
     0
 90
       50
176
     0
 40
0.0
176
     0
 40
1.0
176
     0
 90
        0
176
     0
 62
    18
420
        0
176
     0
 90
       50
176
     0
 90
        3
176
     0
 62
     5
420
      255
176
     0
290
     0
176
     0
 90
       50
176
     0
 90
       50
176
     0
 90
       50
176
     0
290
     0
176
     0
 90
       50
176
     0
 62
   256
176
     0
 40
1.0
176
     0
 90
        2
176
     0
  1
strokes_ogs.tif
176
     0
290
     0
176
     0
 40
1.0
176
     0
 40
1.0
176
     0
  0
VISUALSTYLE
  5
256
102
{ACAD_REACTORS
330
24D
102
}
330
24D
100
AcDbVisualStyle
  2
Realistic
 70
     8
177
     3
291
     0
 70
    58
 90
        2
176
     1
 90
        2
176
     1
 90
        0
176
     1
 90
        0
176
     1
 40
-0.6
176
     1
 40
-30.0
176
     1
 62
     7
176
     1
 90
        1
176
     1
 90
        0
176
     1
 62
     7
176
     1
 62
   257
176
     1
 90
        1
176
     1
 90
        1
176
     1
 40
1.0
176
     1
 90
        8
176
     1
 62
     8
176
     1
 40
1.0
176
     1
 90
        1
176
     1
 90
        6
176
     1
 90
        2
176
     1
 62
     7
176
     1
 90
        5
176
     1
 90
        0
176
     1
 90
        0
176
     1
290
     0
176
     1
 90
       13
176
     1
 40
0.0
176
     1
 90
        0
176
     1
290
     0
176
     1
290
     1
176
     1
290
     1
176
     1
290
     0
176
     1
290
     0
176
     1
290
     0
176
     1
290
     0
176
     1
290
     0
176
     1
290
     0
176
     1
 90
       50
176
     1
 40
0.0
176
     1
 40
1.0
176
     1
 90
        0
176
     1
 62
    18
420
        0
176
     1
 90
       50
176
     1
 90
        3
176
     1
 62
     5
420
      255
176
     1
290
     0
176
     1
 90
       50
176
     1
 90
       50
176
     1
 90
       50
176
     1
290
     0
176
     1
 90
       50
176
     1
 62
   256
176
     0
 40
1.0
176
     0
 90
        2
176
     1
  1
strokes_ogs.tif
176
     1
290
     0
176
     1
 40
1.0
176
     1
 40
1.0
176
     1
  0
VISUALSTYLE
  5
2B4
102
{ACAD_REACTORS
330
24D
102
}
330
24D
100
AcDbVisualStyle
  2
Shaded
 70
    27
177
     3
291
     0
 70
    58
 90
        2
176
     1
 90
        2
176
     1
 90
        1
176
     1
 90
        2
176
     1
 40
0.6
176
     1
 40
30.0
176
     1
 62
     7
420
 16777215
176
     1
 90
        0
176
     1
 90
        4
176
     1
 62
     7
176
     1
 62
   257
176
     1
 90
        1
176
     1
 90
        1
176
     1
 40
1.0
176
     1
 90
        8
176
     1
 62
   257
176
     1
 40
1.0
176
     1
 90
        1
176
     1
 90
        6
176
     1
 90
        2
176
     1
 62
     8
420
  7895160
176
     1
 90
        3
176
     1
 90
        0
176
     1
 90
        0
176
     1
290
     0
176
     1
 90
        5
176
     1
 40
0.0
176
     1
 90
        0
176
     1
290
     0
176
     1
290
     1
176
     1
290
     1
176
     1
290
     0
176
     1
290
     0
176
     1
290
     0
176
     1
290
     0
176
     1
290
     0
176
     1
290
     0
176
     1
 90
       50
176
     1
 40
0.0
176
     1
 40
1.0
176
     1
 90
        0
176
     1
 62
    18
420
        0
176
     1
 90
       50
176
     1
 90
        3
176
     1
 62
     5
420
      255
176
     1
290
     0
176
     1
 90
       50
176
     1
 90
       50
176
     1
 90
       50
176
     1
290
     0
176
     1
 90
       50
176
     1
 62
   256
176
     0
 40
1.0
176
     0
 90
        2
176
     1
  1
strokes_ogs.tif
176
     1
290
     0
176
     1
 40
1.0
176
     1
 40
1.0
176
     1
  0
VISUALSTYLE
  5
2B3
102
{ACAD_REACTORS
330
24D
102
}
330
24D
100
AcDbVisualStyle
  2
Shaded with edges
 70
    26
177
     3
291
     0
 70
    58
 90
        2
176
     1
 90
        2
176
     1
 90
        1
176
     1
 90
        2
176
     1
 40
0.6
176
     1
 40
30.0
176
     1
 62
     7
420
 16777215
176
     1
 90
        1
176
     1
 90
       10
176
     1
 62
     7
176
     1
 62
   257
176
     1
 90
        2
176
     1
 90
        1
176
     1
 40
1.0
176
     1
 90
        8
176
     1
 62
   257
176
     1
 40
1.0
176
     1
 90
        1
176
     1
 90
        6
176
     1
 90
        2
176
     1
 62
     7
176
     1
 90
        3
176
     1
 90
        0
176
     1
 90
        0
176
     1
290
     0
176
     1
 90
        5
176
     1
 40
0.0
176
     1
 90
        0
176
     1
290
     0
176
     1
290
     1
176
     1
290
     1
176
     1
290
     0
176
     1
290
     0
176
     1
290
     0
176
     1
290
     0
176
     1
290
     0
176
     1
290
     0
176
     1
 90
       50
176
     1
 40
0.0
176
     1
 40
1.0
176
     1
 90
        0
176
     1
 62
    18
420
        0
176
     1
 90
       50
176
     1
 90
        3
176
     1
 62
     5
420
      255
176
     1
290
     0
176
     1
 90
       50
176
     1
 90
       50
176
     1
 90
       50
176
     1
290
     0
176
     1
 90
       50
176
     1
 62
   256
176
     0
 40
1.0
176
     0
 90
        2
176
     1
  1
strokes_ogs.tif
176
     1
290
     0
176
     1
 40
1.0
176
     1
 40
1.0
176
     1
  0
VISUALSTYLE
  5
2B0
102
{ACAD_REACTORS
330
24D
102
}
330
24D
100
AcDbVisualStyle
  2
Shades of Gray
 70
    23
177
     3
291
     0
 70
    58
 90
        2
176
     1
 90
        2
176
     1
 90
        3
176
     1
 90
        0
176
     1
 40
0.6
176
     1
 40
30.0
176
     1
 62
     7
420
 16777215
176
     1
 90
        2
176
     1
 90
        2
176
     1
 62
     7
176
     1
 62
     7
176
     1
 90
        1
176
     1
 90
        1
176
     1
 40
40.0
176
     1
 90
        8
176
     1
 62
     7
176
     1
 40
1.0
176
     1
 90
        1
176
     1
 90
        6
176
     1
 90
        2
176
     1
 62
     7
176
     1
 90
        3
176
     1
 90
        0
176
     1
 90
        0
176
     1
290
     0
176
     1
 90
        1
176
     1
 40
0.0
176
     1
 90
        0
176
     1
290
     0
176
     1
290
     1
176
     1
290
     1
176
     1
290
     0
176
     1
290
     0
176
     1
290
     0
176
     1
290
     0
176
     1
290
     0
176
     1
290
     0
176
     1
 90
       50
176
     1
 40
0.0
176
     1
 40
1.0
176
     1
 90
        0
176
     1
 62
    18
420
        0
176
     1
 90
       50
176
     1
 90
        3
176
     1
 62
     5
420
      255
176
     1
290
     0
176
     1
 90
       50
176
     1
 90
       50
176
     1
 90
       50
176
     1
290
     0
176
     1
 90
       50
176
     1
 62
   256
176
     0
 40
1.0
176
     0
 90
        2
176
     1
  1
strokes_ogs.tif
176
     1
290
     0
176
     1
 40
1.0
176
     1
 40
1.0
176
     1
  0
VISUALSTYLE
  5
2B1
102
{ACAD_REACTORS
330
24D
102
}
330
24D
100
AcDbVisualStyle
  2
Sketchy
 70
    24
177
     3
291
     0
 70
    58
 90
        1
176
     1
 90
        2
176
     1
 90
        2
176
     1
 90
        0
176
     1
 40
0.6
176
     1
 40
30.0
176
     1
 62
     7
420
 16777215
176
     1
 90
        2
176
     1
 90
        2
176
     1
 62
     7
176
     1
 62
     7
176
     1
 90
        1
176
     1
 90
        1
176
     1
 40
40.0
176
     1
 90
       11
176
     1
 62
     7
176
     1
 40
1.0
176
     1
 90
        1
176
     1
 90
        6
176
     1
 90
        2
176
     1
 62
     7
176
     1
 90
        6
176
     1
 90
        0
176
     1
 90
        0
176
     1
290
     0
176
     1
 90
        1
176
     1
 40
0.0
176
     1
 90
        0
176
     1
290
     0
176
     1
290
     1
176
     1
290
     1
176
     1
290
     0
176
     1
290
     0
176
     1
290
     0
176
     1
290
     0
176
     1
290
     0
176
     1
290
     0
176
     1
 90
       50
176
     1
 40
0.0
176
     1
 40
1.0
176
     1
 90
        0
176
     1
 62
    18
420
        0
176
     1
 90
       50
176
     1
 90
        3
176
     1
 62
     5
420
      255
176
     1
290
     0
176
     1
 90
       50
176
     1
 90
       50
176
     1
 90
       50
176
     1
290
     0
176
     1
 90
       50
176
     1
 62
   256
176
     0
 40
1.0
176
     0
 90
        2
176
     1
  1
strokes_ogs.tif
176
     1
290
     0
176
     1
 40
1.0
176
     1
 40
1.0
176
     1
  0
VISUALSTYLE
  5
25A
102
{ACAD_REACTORS
330
24D
102
}
330
24D
100
AcDbVisualStyle
  2
Thicken
 70
    13
177
     3
291
     1
 70
    58
 90
        2
176
     1
 90
        2
176
     1
 90
        0
176
     1
 90
        0
176
     1
 40
-0.6
176
     1
 40
-30.0
176
     1
 62
     7
176
     1
 90
        1
176
     1
 90
        4
176
     1
 62
     7
176
     1
 62
   257
176
     1
 90
        1
176
     1
 90
        1
176
     1
 40
1.0
176
     1
 90
       12
176
     1
 62
     7
176
     1
 40
1.0
176
     1
 90
        1
176
     1
 90
        6
176
     1
 90
        2
176
     1
 62
     7
176
     1
 90
        5
176
     1
 90
        0
176
     1
 90
        0
176
     1
290
     0
176
     1
 90
        1
176
     1
 40
0.0
176
     1
 90
        0
176
     1
290
     0
176
     1
290
     1
176
     1
290
     1
176
     1
290
     0
176
     1
290
     0
176
     1
290
     0
176
     1
290
     0
176
     1
290
     0
176
     1
290
     0
176
     1
 90
       50
176
     1
 40
0.0
176
     1
 40
1.0
176
     1
 90
        0
176
     1
 62
    18
420
        0
176
     1
 90
       50
176
     1
 90
        3
176
     1
 62
     5
420
      255
176
     1
290
     0
176
     1
 90
       50
176
     1
 90
       50
176
     1
 90
       50
176
     1
290
     0
176
     1
 90
       50
176
     1
 62
   256
176
     0
 40
1.0
176
     0
 90
        2
176
     1
  1
strokes_ogs.tif
176
     1
290
     0
176
     1
 40
1.0
176
     1
 40
1.0
176
     1
  0
VISUALSTYLE
  5
2AB
102
{ACAD_REACTORS
330
24D
102
}
330
24D
100
AcDbVisualStyle
  2
Wireframe
 70
     5
177
     3
291
     0
 70
    58
 90
        0
176
     1
 90
        2
176
     1
 90
        0
176
     1
 90
        0
176
     1
 40
0.6
176
     1
 40
30.0
176
     1
 62
     7
420
 16777215
176
     1
 90
        1
176
     1
 90
        4
176
     1
 62
     7
176
     1
 62
   257
176
     1
 90
        1
176
     1
 90
        1
176
     1
 40
1.0
176
     1
 90
        0
176
     1
 62
   257
176
     1
 40
1.0
176
     1
 90
        1
176
     1
 90
        6
176
     1
 90
        2
176
     1
 62
     7
176
     1
 90
        3
176
     1
 90
        0
176
     1
 90
        0
176
     1
290
     0
176
     1
 90
        1
176
     1
 40
0.0
176
     1
 90
        0
176
     1
290
     0
176
     1
290
     1
176
     1
290
     1
176
     1
290
     0
176
     1
290
     0
176
     1
290
     0
176
     1
290
     0
176
     1
290
     0
176
     1
290
     0
176
     1
 90
       50
176
     1
 40
0.0
176
     1
 40
1.0
176
     1
 90
        0
176
     1
 62
    18
420
        0
176
     1
 90
       50
176
     1
 90
        3
176
     1
 62
     5
420
      255
176
     1
290
     0
176
     1
 90
       50
176
     1
 90
       50
176
     1
 90
       50
176
     1
290
     0
176
     1
 90
       50
176
     1
 62
   256
176
     0
 40
1.0
176
     0
 90
        2
176
     1
  1
strokes_ogs.tif
176
     1
290
     0
176
     1
 40
1.0
176
     1
 40
1.0
176
     1
  0
VISUALSTYLE
  5
2B2
102
{ACAD_REACTORS
330
24D
102
}
330
24D
100
AcDbVisualStyle
  2
X-Ray
 70
    25
177
     3
291
     0
 70
    58
 90
        2
176
     1
 90
        2
176
     1
 90
        1
176
     1
 90
        1
176
     1
 40
0.5
176
     1
 40
30.0
176
     1
 62
     7
420
 16777215
176
     1
 90
        1
176
     1
 90
        0
176
     1
 62
     7
176
     1
 62
   257
176
     1
 90
        1
176
     1
 90
        1
176
     1
 40
1.0
176
     1
 90
        8
176
     1
 62
     7
176
     1
 40
1.0
176
     1
 90
        1
176
     1
 90
        6
176
     1
 90
        2
176
     1
 62
     7
176
     1
 90
        3
176
     1
 90
        0
176
     1
 90
        0
176
     1
290
     0
176
     1
 90
       13
176
     1
 40
0.0
176
     1
 90
        0
176
     1
290
     0
176
     1
290
     1
176
     1
290
     1
176
     1
290
     0
176
     1
290
     0
176
     1
290
     0
176
     1
290
     0
176
     1
290
     0
176
     1
290
     0
176
     1
 90
       50
176
     1
 40
0.0
176
     1
 40
1.0
176
     1
 90
        0
176
     1
 62
    18
420
        0
176
     1
 90
       50
176
     1
 90
        3
176
     1
 62
     5
420
      255
176
     1
290
     0
176
     1
 90
       50
176
     1
 90
       50
176
     1
 90
       50
176
     1
290
     0
176
     1
 90
       50
176
     1
 62
   256
176
     0
 40
1.0
176
     0
 90
        2
176
     1
  1
strokes_ogs.tif
176
     1
290
     0
176
     1
 40
1.0
176
     1
 40
1.0
176
     1
  0
DICTIONARYVAR
  5
2C5
102
{ACAD_REACTORS
330
26A
102
}
330
26A
100
DictionaryVariables
280
     0
  1
1:1
  0
DICTIONARYVAR
  5
2C7
102
{ACAD_REACTORS
330
26A
102
}
330
26A
100
DictionaryVariables
280
     0
  1
Standard
  0
DICTIONARYVAR
  5
2C6
102
{ACAD_REACTORS
330
26A
102
}
330
26A
100
DictionaryVariables
280
     0
  1
Standard
  0
DICTIONARYVAR
  5
26E
102
{ACAD_REACTORS
330
26A
102
}
330
26A
100
DictionaryVariables
280
     0
  1
2
  0
DICTIONARYVAR
  5
26F
102
{ACAD_REACTORS
330
26A
102
}
330
26A
100
DictionaryVariables
280
     0
  1
1
  0
DICTIONARYVAR
  5
26D
102
{ACAD_REACTORS
330
26A
102
}
330
26A
100
DictionaryVariables
280
     0
  1
0
  0
DICTIONARY
  5
377
330
2B6
100
AcDbDictionary
280
     1
281
     1
  3
ACAD_ROUNDTRIP_2008_TABLESTYLE_CELLSTYLEMAP
360
378
  0
CELLSTYLEMAP
  5
378
102
{ACAD_REACTORS
330
377
102
}
330
377
100
AcDbCellStyleMap
 90
        3
300
CELLSTYLE
  1
TABLEFORMAT_BEGIN
 90
        5
170
     1
 91
        0
 92
    32768
 62
   257
 93
        1
300
CONTENTFORMAT
  1
CONTENTFORMAT_BEGIN
 90
        0
 91
        0
 92
        4
 93
        0
300

 40
0.0
140
1.0
 94
        5
 62
     0
340
11
144
0.25
309
CONTENTFORMAT_END
171
     1
301
MARGIN
  1
CELLMARGIN_BEGIN
 40
0.06
 40
0.06
 40
0.06
 40
0.06
 40
0.06
 40
0.06
309
CELLMARGIN_END
 94
        6
 95
        1
302
GRIDFORMAT
  1
GRIDFORMAT_BEGIN
 90
        0
 91
        1
 62
     0
 92
       -2
340
14
 93
        0
 40
0.045
309
GRIDFORMAT_END
 95
        2
302
GRIDFORMAT
  1
GRIDFORMAT_BEGIN
 90
        0
 91
        1
 62
     0
 92
       -2
340
14
 93
        0
 40
0.045
309
GRIDFORMAT_END
 95
        4
302
GRIDFORMAT
  1
GRIDFORMAT_BEGIN
 90
        0
 91
        1
 62
     0
 92
       -2
340
14
 93
        0
 40
0.045
309
GRIDFORMAT_END
 95
        8
302
GRIDFORMAT
  1
GRIDFORMAT_BEGIN
 90
        0
 91
        1
 62
     0
 92
       -2
340
14
 93
        0
 40
0.045
309
GRIDFORMAT_END
 95
       16
302
GRIDFORMAT
  1
GRIDFORMAT_BEGIN
 90
        0
 91
        1
 62
     0
 92
       -2
340
14
 93
        0
 40
0.045
309
GRIDFORMAT_END
 95
       32
302
GRIDFORMAT
  1
GRIDFORMAT_BEGIN
 90
        0
 91
        1
 62
     0
 92
       -2
340
14
 93
        0
 40
0.045
309
GRIDFORMAT_END
309
TABLEFORMAT_END
  1
CELLSTYLE_BEGIN
 90
        1
 91
        1
300
_TITLE
309
CELLSTYLE_END
300
CELLSTYLE
  1
TABLEFORMAT_BEGIN
 90
        5
170
     1
 91
        0
 92
        0
 62
   257
 93
        1
300
CONTENTFORMAT
  1
CONTENTFORMAT_BEGIN
 90
        0
 91
        0
 92
        4
 93
        0
300

 40
0.0
140
1.0
 94
        5
 62
     0
340
11
144
0.18
309
CONTENTFORMAT_END
171
     1
301
MARGIN
  1
CELLMARGIN_BEGIN
 40
0.06
 40
0.06
 40
0.06
 40
0.06
 40
0.06
 40
0.06
309
CELLMARGIN_END
 94
        6
 95
        1
302
GRIDFORMAT
  1
GRIDFORMAT_BEGIN
 90
        0
 91
        1
 62
     0
 92
       -2
340
14
 93
        0
 40
0.045
309
GRIDFORMAT_END
 95
        2
302
GRIDFORMAT
  1
GRIDFORMAT_BEGIN
 90
        0
 91
        1
 62
     0
 92
       -2
340
14
 93
        0
 40
0.045
309
GRIDFORMAT_END
 95
        4
302
GRIDFORMAT
  1
GRIDFORMAT_BEGIN
 90
        0
 91
        1
 62
     0
 92
       -2
340
14
 93
        0
 40
0.045
309
GRIDFORMAT_END
 95
        8
302
GRIDFORMAT
  1
GRIDFORMAT_BEGIN
 90
        0
 91
        1
 62
     0
 92
       -2
340
14
 93
        0
 40
0.045
309
GRIDFORMAT_END
 95
       16
302
GRIDFORMAT
  1
GRIDFORMAT_BEGIN
 90
        0
 91
        1
 62
     0
 92
       -2
340
14
 93
        0
 40
0.045
309
GRIDFORMAT_END
 95
       32
302
GRIDFORMAT
  1
GRIDFORMAT_BEGIN
 90
        0
 91
        1
 62
     0
 92
       -2
340
14
 93
        0
 40
0.045
309
GRIDFORMAT_END
309
TABLEFORMAT_END
  1
CELLSTYLE_BEGIN
 90
        2
 91
        1
300
_HEADER
309
CELLSTYLE_END
300
CELLSTYLE
  1
TABLEFORMAT_BEGIN
 90
        5
170
     1
 91
        0
 92
        0
 62
   257
 93
        1
300
CONTENTFORMAT
  1
CONTENTFORMAT_BEGIN
 90
        0
 91
        0
 92
        4
 93
        0
300

 40
0.0
140
1.0
 94
        2
 62
     0
340
11
144
0.18
309
CONTENTFORMAT_END
171
     1
301
MARGIN
  1
CELLMARGIN_BEGIN
 40
0.06
 40
0.06
 40
0.06
 40
0.06
 40
0.06
 40
0.06
309
CELLMARGIN_END
 94
        6
 95
        1
302
GRIDFORMAT
  1
GRIDFORMAT_BEGIN
 90
        0
 91
        1
 62
     0
 92
       -2
340
14
 93
        0
 40
0.045
309
GRIDFORMAT_END
 95
        2
302
GRIDFORMAT
  1
GRIDFORMAT_BEGIN
 90
        0
 91
        1
 62
     0
 92
       -2
340
14
 93
        0
 40
0.045
309
GRIDFORMAT_END
 95
        4
302
GRIDFORMAT
  1
GRIDFORMAT_BEGIN
 90
        0
 91
        1
 62
     0
 92
       -2
340
14
 93
        0
 40
0.045
309
GRIDFORMAT_END
 95
        8
302
GRIDFORMAT
  1
GRIDFORMAT_BEGIN
 90
        0
 91
        1
 62
     0
 92
       -2
340
14
 93
        0
 40
0.045
309
GRIDFORMAT_END
 95
       16
302
GRIDFORMAT
  1
GRIDFORMAT_BEGIN
 90
        0
 91
        1
 62
     0
 92
       -2
340
14
 93
        0
 40
0.045
309
GRIDFORMAT_END
 95
       32
302
GRIDFORMAT
  1
GRIDFORMAT_BEGIN
 90
        0
 91
        1
 62
     0
 92
       -2
340
14
 93
        0
 40
0.045
309
GRIDFORMAT_END
309
TABLEFORMAT_END
  1
CELLSTYLE_BEGIN
 90
        3
 91
        2
300
_DATA
309
CELLSTYLE_END
  0
ENDSEC
  0
EOF
