  0
SECTION
  2
HEADER
  9
$ACADVER
  1
AC1027
  9
$ACADMAINTVER
 70
   105
  9
$DWGCODEPAGE
  3
ANSI_1252
  9
$REQUIREDVERSIONS
160
                 0
  9
$LASTSAVEDBY
  1
matthias.ochs
  9
$INSBASE
 10
0.0
 20
0.0
 30
0.0
  9
$EXTMIN
 10
-52.27970514767264
 20
-35.13886496344308
 30
0.0
  9
$EXTMAX
 10
69.24653324727353
 20
40.50270024313098
 30
0.0
  9
$LIMMIN
 10
-58.114707124
 20
-25.611152402
  9
$LIMMAX
 10
68.199308216
 20
29.540704546
  9
$ORTHOMODE
 70
     1
  9
$REGENMODE
 70
     1
  9
$FILLMODE
 70
     1
  9
$QTEXTMODE
 70
     0
  9
$MIRRTEXT
 70
     1
  9
$LTSCALE
 40
1.0
  9
$ATTMODE
 70
     1
  9
$TEXTSIZE
 40
0.2
  9
$TRACEWID
 40
0.05
  9
$TEXTSTYLE
  7
Standard
  9
$CLAYER
  8
SK2
  9
$CELTYPE
  6
ByLayer
  9
$CECOLOR
 62
   256
  9
$CELTSCALE
 40
1.0
  9
$DISPSILH
 70
     0
  9
$DIMSCALE
 40
1.0
  9
$DIMASZ
 40
0.18
  9
$DIMEXO
 40
0.0625
  9
$DIMDLI
 40
0.38
  9
$DIMRND
 40
0.0
  9
$DIMDLE
 40
0.0
  9
$DIMEXE
 40
0.18
  9
$DIMTP
 40
0.0
  9
$DIMTM
 40
0.0
  9
$DIMTXT
 40
0.18
  9
$DIMCEN
 40
0.09
  9
$DIMTSZ
 40
0.0
  9
$DIMTOL
 70
     0
  9
$DIMLIM
 70
     0
  9
$DIMTIH
 70
     1
  9
$DIMTOH
 70
     1
  9
$DIMSE1
 70
     0
  9
$DIMSE2
 70
     0
  9
$DIMTAD
 70
     0
  9
$DIMZIN
 70
     0
  9
$DIMBLK
  1

  9
$DIMASO
 70
     1
  9
$DIMSHO
 70
     1
  9
$DIMPOST
  1

  9
$DIMAPOST
  1

  9
$DIMALT
 70
     0
  9
$DIMALTD
 70
     2
  9
$DIMALTF
 40
25.4
  9
$DIMLFAC
 40
1.0
  9
$DIMTOFL
 70
     0
  9
$DIMTVP
 40
0.0
  9
$DIMTIX
 70
     0
  9
$DIMSOXD
 70
     0
  9
$DIMSAH
 70
     0
  9
$DIMBLK1
  1

  9
$DIMBLK2
  1

  9
$DIMSTYLE
  2
Standard
  9
$DIMCLRD
 70
     0
  9
$DIMCLRE
 70
     0
  9
$DIMCLRT
 70
     0
  9
$DIMTFAC
 40
1.0
  9
$DIMGAP
 40
0.09
  9
$DIMJUST
 70
     0
  9
$DIMSD1
 70
     0
  9
$DIMSD2
 70
     0
  9
$DIMTOLJ
 70
     1
  9
$DIMTZIN
 70
     0
  9
$DIMALTZ
 70
     0
  9
$DIMALTTZ
 70
     0
  9
$DIMUPT
 70
     0
  9
$DIMDEC
 70
     4
  9
$DIMTDEC
 70
     4
  9
$DIMALTU
 70
     2
  9
$DIMALTTD
 70
     2
  9
$DIMTXSTY
  7
Standard
  9
$DIMAUNIT
 70
     0
  9
$DIMADEC
 70
     0
  9
$DIMALTRND
 40
0.0
  9
$DIMAZIN
 70
     0
  9
$DIMDSEP
 70
    46
  9
$DIMATFIT
 70
     3
  9
$DIMFRAC
 70
     0
  9
$DIMLDRBLK
  1

  9
$DIMLUNIT
 70
     2
  9
$DIMLWD
 70
    -2
  9
$DIMLWE
 70
    -2
  9
$DIMTMOVE
 70
     2
  9
$DIMFXL
 40
1.0
  9
$DIMFXLON
 70
     0
  9
$DIMJOGANG
 40
0.7853981633974483
  9
$DIMTFILL
 70
     0
  9
$DIMTFILLCLR
 70
     0
  9
$DIMARCSYM
 70
     0
  9
$DIMLTYPE
  6

  9
$DIMLTEX1
  6

  9
$DIMLTEX2
  6

  9
$DIMTXTDIRECTION
 70
     0
  9
$LUNITS
 70
     2
  9
$LUPREC
 70
     4
  9
$SKETCHINC
 40
0.1
  9
$FILLETRAD
 40
0.5
  9
$AUNITS
 70
     2
  9
$AUPREC
 70
     0
  9
$MENU
  1
.
  9
$ELEVATION
 40
0.0
  9
$PELEVATION
 40
0.0
  9
$THICKNESS
 40
0.0
  9
$LIMCHECK
 70
     0
  9
$CHAMFERA
 40
0.5
  9
$CHAMFERB
 40
0.5
  9
$CHAMFERC
 40
1.0
  9
$CHAMFERD
 40
0.0
  9
$SKPOLY
 70
     0
  9
$TDCREATE
 40
2458327.544407245
  9
$TDUCREATE
 40
2458327.461073912
  9
$TDUPDATE
 40
2458677.441483056
  9
$TDUUPDATE
 40
2458677.358149722
  9
$TDINDWG
 40
0.0129881944
  9
$TDUSRTIMER
 40
0.0079481019
  9
$USRTIMER
 70
     1
  9
$ANGBASE
 50
0.0
  9
$ANGDIR
 70
     0
  9
$PDMODE
 70
     0
  9
$PDSIZE
 40
0.0
  9
$PLINEWID
 40
0.0
  9
$SPLFRAME
 70
     0
  9
$SPLINETYPE
 70
     6
  9
$SPLINESEGS
 70
     8
  9
$HANDSEED
  5
38E
  9
$SURFTAB1
 70
     6
  9
$SURFTAB2
 70
     6
  9
$SURFTYPE
 70
     6
  9
$SURFU
 70
     6
  9
$SURFV
 70
     6
  9
$UCSBASE
  2

  9
$UCSNAME
  2

  9
$UCSORG
 10
0.0
 20
0.0
 30
0.0
  9
$UCSXDIR
 10
1.0
 20
0.0
 30
0.0
  9
$UCSYDIR
 10
0.0
 20
1.0
 30
0.0
  9
$UCSORTHOREF
  2

  9
$UCSORTHOVIEW
 70
     0
  9
$UCSORGTOP
 10
0.0
 20
0.0
 30
0.0
  9
$UCSORGBOTTOM
 10
0.0
 20
0.0
 30
0.0
  9
$UCSORGLEFT
 10
0.0
 20
0.0
 30
0.0
  9
$UCSORGRIGHT
 10
0.0
 20
0.0
 30
0.0
  9
$UCSORGFRONT
 10
0.0
 20
0.0
 30
0.0
  9
$UCSORGBACK
 10
0.0
 20
0.0
 30
0.0
  9
$PUCSBASE
  2

  9
$PUCSNAME
  2

  9
$PUCSORG
 10
0.0
 20
0.0
 30
0.0
  9
$PUCSXDIR
 10
1.0
 20
0.0
 30
0.0
  9
$PUCSYDIR
 10
0.0
 20
1.0
 30
0.0
  9
$PUCSORTHOREF
  2

  9
$PUCSORTHOVIEW
 70
     0
  9
$PUCSORGTOP
 10
0.0
 20
0.0
 30
0.0
  9
$PUCSORGBOTTOM
 10
0.0
 20
0.0
 30
0.0
  9
$PUCSORGLEFT
 10
0.0
 20
0.0
 30
0.0
  9
$PUCSORGRIGHT
 10
0.0
 20
0.0
 30
0.0
  9
$PUCSORGFRONT
 10
0.0
 20
0.0
 30
0.0
  9
$PUCSORGBACK
 10
0.0
 20
0.0
 30
0.0
  9
$USERI1
 70
     0
  9
$USERI2
 70
     0
  9
$USERI3
 70
     0
  9
$USERI4
 70
     0
  9
$USERI5
 70
     0
  9
$USERR1
 40
0.0
  9
$USERR2
 40
0.0
  9
$USERR3
 40
0.0
  9
$USERR4
 40
0.0
  9
$USERR5
 40
0.0
  9
$WORLDVIEW
 70
     1
  9
$SHADEDGE
 70
     3
  9
$SHADEDIF
 70
    70
  9
$TILEMODE
 70
     1
  9
$MAXACTVP
 70
    64
  9
$PINSBASE
 10
0.0
 20
0.0
 30
0.0
  9
$PLIMCHECK
 70
     0
  9
$PEXTMIN
 10
1.000000000000000E+20
 20
1.000000000000000E+20
 30
1.000000000000000E+20
  9
$PEXTMAX
 10
-1.000000000000000E+20
 20
-1.000000000000000E+20
 30
-1.000000000000000E+20
  9
$PLIMMIN
 10
0.0
 20
0.0
  9
$PLIMMAX
 10
0.0
 20
0.0
  9
$UNITMODE
 70
     0
  9
$VISRETAIN
 70
     1
  9
$PLINEGEN
 70
     0
  9
$PSLTSCALE
 70
     1
  9
$TREEDEPTH
 70
  3020
  9
$CMLSTYLE
  2
Standard
  9
$CMLJUST
 70
     0
  9
$CMLSCALE
 40
1.0
  9
$PROXYGRAPHICS
 70
     1
  9
$MEASUREMENT
 70
     0
  9
$CELWEIGHT
370
    -1
  9
$ENDCAPS
280
     0
  9
$JOINSTYLE
280
     0
  9
$LWDISPLAY
290
     0
  9
$INSUNITS
 70
     0
  9
$HYPERLINKBASE
  1

  9
$STYLESHEET
  1

  9
$XEDIT
290
     1
  9
$CEPSNTYPE
380
     0
  9
$PSTYLEMODE
290
     1
  9
$FINGERPRINTGUID
  2
{0ED2F5F3-7317-46AF-A2EE-68CB6BA644BB}
  9
$VERSIONGUID
  2
{FAEB1C32-E019-11D5-929B-00C0DF256EC4}
  9
$EXTNAMES
290
     1
  9
$PSVPSCALE
 40
0.0
  9
$OLESTARTUP
290
     0
  9
$SORTENTS
280
   127
  9
$INDEXCTL
280
     0
  9
$HIDETEXT
280
     1
  9
$XCLIPFRAME
280
     2
  9
$HALOGAP
280
     0
  9
$OBSCOLOR
 70
   257
  9
$OBSLTYPE
280
     0
  9
$INTERSECTIONDISPLAY
280
     0
  9
$INTERSECTIONCOLOR
 70
   257
  9
$DIMASSOC
280
     2
  9
$PROJECTNAME
  1

  9
$CAMERADISPLAY
290
     0
  9
$LENSLENGTH
 40
50.0
  9
$CAMERAHEIGHT
 40
0.0
  9
$STEPSPERSEC
 40
2.0
  9
$STEPSIZE
 40
6.0
  9
$3DDWFPREC
 40
2.0
  9
$PSOLWIDTH
 40
0.25
  9
$PSOLHEIGHT
 40
4.0
  9
$LOFTANG1
 40
1.570796326794897
  9
$LOFTANG2
 40
1.570796326794897
  9
$LOFTMAG1
 40
0.0
  9
$LOFTMAG2
 40
0.0
  9
$LOFTPARAM
 70
     7
  9
$LOFTNORMALS
280
     1
  9
$LATITUDE
 40
37.795
  9
$LONGITUDE
 40
-122.394
  9
$NORTHDIRECTION
 40
0.0
  9
$TIMEZONE
 70
 -8000
  9
$LIGHTGLYPHDISPLAY
280
     1
  9
$TILEMODELIGHTSYNCH
280
     1
  9
$SOLIDHIST
280
     0
  9
$SHOWHIST
280
     1
  9
$DWFFRAME
280
     2
  9
$DGNFRAME
280
     2
  9
$REALWORLDSCALE
290
     1
  9
$INTERFERECOLOR
 62
   256
  9
$CSHADOW
280
     0
  9
$SHADOWPLANELOCATION
 40
0.0
  0
ENDSEC
  0
SECTION
  2
CLASSES
  0
CLASS
  1
ACDBDICTIONARYWDFLT
  2
AcDbDictionaryWithDefault
  3
ObjectDBX Classes
 90
        0
 91
       14
280
     0
281
     0
  0
CLASS
  1
SCALE
  2
AcDbScale
  3
ObjectDBX Classes
 90
     1153
 91
       14
280
     0
281
     0
  0
CLASS
  1
VISUALSTYLE
  2
AcDbVisualStyle
  3
ObjectDBX Classes
 90
     4095
 91
       14
280
     0
281
     0
  0
CLASS
  1
MATERIAL
  2
AcDbMaterial
  3
ObjectDBX Classes
 90
     1153
 91
       14
280
     0
281
     0
  0
CLASS
  1
DICTIONARYVAR
  2
AcDbDictionaryVar
  3
ObjectDBX Classes
 90
        0
 91
       12
280
     0
281
     0
  0
CLASS
  1
ACDBPLACEHOLDER
  2
AcDbPlaceHolder
  3
ObjectDBX Classes
 90
        0
 91
        1
280
     0
281
     0
  0
CLASS
  1
LAYOUT
  2
AcDbLayout
  3
ObjectDBX Classes
 90
        0
 91
        1
280
     0
281
     0
  0
CLASS
  1
TABLESTYLE
  2
AcDbTableStyle
  3
ObjectDBX Classes
 90
     4095
 91
       13
280
     0
281
     0
  0
CLASS
  1
MLEADERSTYLE
  2
AcDbMLeaderStyle
  3
ACDB_MLEADERSTYLE_CLASS
 90
     4095
 91
       13
280
     0
281
     0
  0
CLASS
  1
SUN
  2
AcDbSun
  3
SCENEOE
 90
     1153
 91
       14
280
     0
281
     0
  0
CLASS
  1
SORTENTSTABLE
  2
AcDbSortentsTable
  3
ObjectDBX Classes
 90
        0
 91
       10
280
     0
281
     0
  0
CLASS
  1
CENTERLINE
  2
CFxDbCenterline
  3
CFxDbCenterline|Description: FxCenterline entity
 90
     3071
 91
        5
280
     0
281
     1
  0
CLASS
  1
CELLSTYLEMAP
  2
AcDbCellStyleMap
  3
ObjectDBX Classes
 90
     1152
 91
        8
280
     0
281
     0
  0
ENDSEC
  0
SECTION
  2
TABLES
  0
TABLE
  2
VPORT
  5
8
330
0
100
AcDbSymbolTable
 70
     1
  0
VPORT
  5
1AC
330
8
100
AcDbSymbolTableRecord
100
AcDbViewportTableRecord
  2
*Active
 70
     0
 10
0.0
 20
0.0
 11
1.0
 21
1.0
 12
26.1609479704647
 22
-9.824401187850428
 13
0.0
 23
0.0
 14
0.5
 24
0.5
 15
0.5
 25
0.5
 16
0.0
 26
0.0
 36
1.0
 17
0.0
 27
0.0
 37
0.0
 40
150.2273840043213
 41
1.831002331002331
 42
50.0
 43
0.0
 44
0.0
 50
0.0
 51
0.0
 71
    16
 72
   100
 73
     1
 74
     3
 75
     0
 76
     0
 77
     0
 78
     0
281
     0
 65
     1
110
0.0
120
0.0
130
0.0
111
1.0
121
0.0
131
0.0
112
0.0
122
1.0
132
0.0
 79
     0
146
0.0
348
1DE
 60
     3
 61
     5
292
     1
282
     1
141
0.0
142
0.0
 63
   256
361
287
  0
ENDTAB
  0
TABLE
  2
LTYPE
  5
5
330
0
100
AcDbSymbolTable
 70
     9
  0
LTYPE
  5
14
330
5
100
AcDbSymbolTableRecord
100
AcDbLinetypeTableRecord
  2
ByBlock
 70
     0
  3

 72
    65
 73
     0
 40
0.0
  0
LTYPE
  5
15
330
5
100
AcDbSymbolTableRecord
100
AcDbLinetypeTableRecord
  2
ByLayer
 70
     0
  3

 72
    65
 73
     0
 40
0.0
  0
LTYPE
  5
16
330
5
100
AcDbSymbolTableRecord
100
AcDbLinetypeTableRecord
  2
Continuous
 70
     0
  3
Solid line
 72
    65
 73
     0
 40
0.0
  0
LTYPE
  5
20
330
5
100
AcDbSymbolTableRecord
100
AcDbLinetypeTableRecord
  2
PUNKT
 70
     0
  3
..............
 72
    65
 73
     2
 40
1.5
 49
0.7
 74
     0
 49
-0.8
 74
     0
  0
LTYPE
  5
21
330
5
100
AcDbSymbolTableRecord
100
AcDbLinetypeTableRecord
  2
GESTRICHELT
 70
     0
  3
-- -- -- -- --
 72
    65
 73
     7
 40
2.8
 49
0.9
 74
     0
 49
0.0
 74
     0
 49
0.9
 74
     0
 49
0.0
 74
     0
 49
0.2
 74
     0
 49
0.0
 74
     0
 49
-0.8
 74
     0
  0
LTYPE
  5
22
330
5
100
AcDbSymbolTableRecord
100
AcDbLinetypeTableRecord
  2
STRICHPUNKT
 70
     0
  3
--.--.--.--.--
 72
    65
 73
     4
 40
8.8
 49
5.5
 74
     0
 49
-1.3
 74
     0
 49
0.7
 74
     0
 49
-1.3
 74
     0
  0
LTYPE
  5
25
330
5
100
AcDbSymbolTableRecord
100
AcDbLinetypeTableRecord
  2
PHANTOM
 70
     0
  3
--..--..--..--
 72
    65
 73
     6
 40
14.2
 49
7.0
 74
     0
 49
-1.8
 74
     0
 49
0.9
 74
     0
 49
-1.8
 74
     0
 49
0.9
 74
     0
 49
-1.8
 74
     0
  0
LTYPE
  5
226
330
5
100
AcDbSymbolTableRecord
100
AcDbLinetypeTableRecord
  2
DASH
 70
     0
  3
DASH _ _ _ _ _
 72
    65
 73
     2
 40
0.75
 49
0.4
 74
     0
 49
-0.35
 74
     0
  0
LTYPE
  5
227
330
5
100
AcDbSymbolTableRecord
100
AcDbLinetypeTableRecord
  2
LONGDASH_DASH
 70
     0
  3
LONGDASH_DASH __ . __ . __
 72
    65
 73
     4
 40
0.85
 49
0.4
 74
     0
 49
-0.2
 74
     0
 49
0.05
 74
     0
 49
-0.2
 74
     0
  0
LTYPE
  5
228
330
5
100
AcDbSymbolTableRecord
100
AcDbLinetypeTableRecord
  2
LONGDASH_DASH_DASH
 70
     0
  3
LONGDASH_DASH_DASH __ . . __ . . __
 72
    65
 73
     6
 40
1.1
 49
0.4
 74
     0
 49
-0.2
 74
     0
 49
0.05
 74
     0
 49
-0.2
 74
     0
 49
0.05
 74
     0
 49
-0.2
 74
     0
  0
LTYPE
  5
355
330
5
100
AcDbSymbolTableRecord
100
AcDbLinetypeTableRecord
  2
CENTER
 70
     0
  3
 Center ____ _ ____ _ ____ _ ____ _ ____ _ ____
 72
    65
 73
     4
 40
2.0
 49
1.25
 74
     0
 49
-0.25
 74
     0
 49
0.25
 74
     0
 49
-0.25
 74
     0
  0
ENDTAB
  0
TABLE
  2
LAYER
  5
2
102
{ACAD_XDICTIONARY
360
245
102
}
330
0
100
AcDbSymbolTable
 70
    17
  0
LAYER
  5
1EF
330
2
100
AcDbSymbolTableRecord
100
AcDbLayerTableRecord
  2
200
 70
     0
 62
     2
  6
Continuous
370
    50
390
F
347
1ED
348
0
  0
LAYER
  5
229
330
2
100
AcDbSymbolTableRecord
100
AcDbLayerTableRecord
  2
0
 70
     0
 62
     1
  6
Continuous
370
    -3
390
F
347
1ED
348
0
  0
LAYER
  5
22A
330
2
100
AcDbSymbolTableRecord
100
AcDbLayerTableRecord
  2
1
 70
     0
 62
     4
  6
Continuous
370
    50
390
F
347
1ED
348
0
  0
LAYER
  5
22B
330
2
100
AcDbSymbolTableRecord
100
AcDbLayerTableRecord
  2
2
 70
     0
 62
     7
  6
Continuous
370
    25
390
F
347
1ED
348
0
  0
LAYER
  5
22C
330
2
100
AcDbSymbolTableRecord
100
AcDbLayerTableRecord
  2
3
 70
     0
 62
     1
  6
DASH
370
    35
390
F
347
1ED
348
0
  0
LAYER
  5
22D
330
2
100
AcDbSymbolTableRecord
100
AcDbLayerTableRecord
  2
4
 70
     0
 62
     2
  6
LONGDASH_DASH
370
    25
390
F
347
1ED
348
0
  0
LAYER
  5
22E
330
2
100
AcDbSymbolTableRecord
100
AcDbLayerTableRecord
  2
6
 70
     0
 62
     5
  6
Continuous
370
    -3
390
F
347
1ED
348
0
  0
LAYER
  5
22F
330
2
100
AcDbSymbolTableRecord
100
AcDbLayerTableRecord
  2
CUT
 70
     0
 62
     1
  6
Continuous
370
    25
390
F
347
1ED
348
0
  0
LAYER
  5
230
330
2
100
AcDbSymbolTableRecord
100
AcDbLayerTableRecord
  2
NOCUT
 70
     0
 62
     7
  6
Continuous
370
    25
390
F
347
1ED
348
0
  0
LAYER
  5
231
330
2
100
AcDbSymbolTableRecord
100
AcDbLayerTableRecord
  2
SK1
 70
     0
 62
     4
  6
Continuous
370
    50
390
F
347
1ED
348
0
  0
LAYER
  5
232
330
2
100
AcDbSymbolTableRecord
100
AcDbLayerTableRecord
  2
SK2
 70
     0
 62
     7
  6
Continuous
370
    25
390
F
347
1ED
348
0
  0
LAYER
  5
233
330
2
100
AcDbSymbolTableRecord
100
AcDbLayerTableRecord
  2
SK3
 70
     0
 62
     1
  6
DASH
370
    35
390
F
347
1ED
348
0
  0
LAYER
  5
234
330
2
100
AcDbSymbolTableRecord
100
AcDbLayerTableRecord
  2
SK4
 70
     0
 62
     2
  6
LONGDASH_DASH
370
    25
390
F
347
1ED
348
0
  0
LAYER
  5
235
330
2
100
AcDbSymbolTableRecord
100
AcDbLayerTableRecord
  2
SK6
 70
     0
 62
     5
  6
Continuous
370
    -3
390
F
347
1ED
348
0
  0
LAYER
  5
236
330
2
100
AcDbSymbolTableRecord
100
AcDbLayerTableRecord
  2
INFTOTAL
 70
     0
 62
     9
  6
Continuous
370
    18
390
F
347
1ED
348
0
  0
LAYER
  5
33A
330
2
100
AcDbSymbolTableRecord
100
AcDbLayerTableRecord
  2
7
 70
     0
 62
     5
  6
Continuous
370
    18
390
F
347
1ED
348
0
1001
AcAecLayerStandard
1000

1000

  0
LAYER
  5
33C
330
2
100
AcDbSymbolTableRecord
100
AcDbLayerTableRecord
  2
11
 70
     0
 62
     4
  6
Continuous
370
    50
390
F
347
1ED
348
0
1001
AcAecLayerStandard
1000

1000

  0
ENDTAB
  0
TABLE
  2
STYLE
  5
3
330
0
100
AcDbSymbolTable
 70
     3
  0
STYLE
  5
11
330
3
100
AcDbSymbolTableRecord
100
AcDbTextStyleTableRecord
  2
Standard
 70
     0
 40
0.0
 41
1.0
 50
0.0
 71
     0
 42
0.2
  3
txt
  4

  0
STYLE
  5
1EE
330
3
100
AcDbSymbolTableRecord
100
AcDbTextStyleTableRecord
  2
BMG_Text
 70
     0
 40
3.5
 41
1.0
 50
0.0
 71
     0
 42
0.2
  3
monos.ttf
  4

1001
ACAD
1000
Monospac821 BT
1071
       49
  0
STYLE
  5
341
330
3
100
AcDbSymbolTableRecord
100
AcDbTextStyleTableRecord
  2
SLDTEXTSTYLE0
 70
     0
 40
0.0
 41
0.605
 50
0.0
 71
     0
 42
0.2
  3
TXT
  4

  0
ENDTAB
  0
TABLE
  2
VIEW
  5
6
330
0
100
AcDbSymbolTable
 70
     0
  0
ENDTAB
  0
TABLE
  2
UCS
  5
7
330
0
100
AcDbSymbolTable
 70
     0
  0
ENDTAB
  0
TABLE
  2
APPID
  5
9
330
0
100
AcDbSymbolTable
 70
     3
  0
APPID
  5
12
330
9
100
AcDbSymbolTableRecord
100
AcDbRegAppTableRecord
  2
ACAD
 70
     0
  0
APPID
  5
33B
330
9
100
AcDbSymbolTableRecord
100
AcDbRegAppTableRecord
  2
AcAecLayerStandard
 70
     0
  0
APPID
  5
344
330
9
100
AcDbSymbolTableRecord
100
AcDbRegAppTableRecord
  2
PE_URL
 70
     0
  0
ENDTAB
  0
TABLE
  2
DIMSTYLE
  5
A
330
0
100
AcDbSymbolTable
 70
     6
100
AcDbDimStyleTable
  0
DIMSTYLE
105
28
330
A
100
AcDbSymbolTableRecord
100
AcDbDimStyleTableRecord
  2
Standard
 70
     0
178
     0
340
11
  0
DIMSTYLE
105
33D
330
A
100
AcDbSymbolTableRecord
100
AcDbDimStyleTableRecord
  2
Matthias
 70
     0
 41
3.0
 44
2.0
 73
     0
 77
     1
140
3.0
147
2.0
178
     0
340
11
  0
DIMSTYLE
105
33F
102
{ACAD_REACTORS
102
}
330
A
100
AcDbSymbolTableRecord
100
AcDbDimStyleTableRecord
  2
ISO-25
 70
     0
 41
2.5
 42
0.625
 43
3.75
 44
1.25
 73
     0
 74
     0
 77
     1
 78
     8
140
2.5
141
2.5
143
0.0393700787
147
0.625
171
     3
172
     1
178
     0
271
     2
272
     2
274
     3
278
    44
283
     0
284
     8
340
11
  0
DIMSTYLE
105
340
330
A
100
AcDbSymbolTableRecord
100
AcDbDimStyleTableRecord
  2
SLDDIMSTYLE0
 70
     0
 41
3.5
 44
0.0
 45
0.000000001
 73
     0
 74
     0
 77
     1
 78
    12
 79
     3
140
3.5
144
0.5
147
0.875
173
     1
178
     0
271
     2
272
     1
276
     2
284
    12
340
341
  0
DIMSTYLE
105
342
330
A
100
AcDbSymbolTableRecord
100
AcDbDimStyleTableRecord
  2
SLDDIMSTYLE1
 70
     0
 41
3.5
 44
0.0
 45
0.000000001
 73
     0
 74
     0
 77
     1
 78
    12
 79
     3
140
3.5
144
0.5
147
0.875
173
     1
178
     0
271
     2
272
     3
276
     2
284
    12
340
341
  0
DIMSTYLE
105
343
330
A
100
AcDbSymbolTableRecord
100
AcDbDimStyleTableRecord
  2
SLDDIMSTYLE2
 70
     0
 41
3.5
 44
0.0
 45
0.000000001
 73
     0
 74
     0
 77
     1
 78
    12
 79
     3
140
3.5
147
0.875
173
     1
178
     0
271
     2
272
     0
276
     2
284
    12
340
341
  0
ENDTAB
  0
TABLE
  2
BLOCK_RECORD
  5
1
330
0
100
AcDbSymbolTable
 70
     1
  0
BLOCK_RECORD
  5
1D
102
{ACAD_XDICTIONARY
360
37F
102
}
330
1
100
AcDbSymbolTableRecord
100
AcDbBlockTableRecord
  2
*Model_Space
340
1E
 70
     0
280
     1
281
     0
  0
BLOCK_RECORD
  5
1B
330
1
100
AcDbSymbolTableRecord
100
AcDbBlockTableRecord
  2
*Paper_Space
340
1C
 70
     0
280
     1
281
     0
  0
ENDTAB
  0
ENDSEC
  0
SECTION
  2
BLOCKS
  0
BLOCK
  5
1D7
330
1D
100
AcDbEntity
  8
0
100
AcDbBlockBegin
  2
*Model_Space
 70
     0
 10
0.0
 20
0.0
 30
0.0
  3
*Model_Space
  1

  0
ENDBLK
  5
1D8
330
1D
100
AcDbEntity
  8
0
100
AcDbBlockEnd
  0
BLOCK
  5
1D5
330
1B
100
AcDbEntity
 67
     1
  8
0
100
AcDbBlockBegin
  2
*Paper_Space
 70
     0
 10
0.0
 20
0.0
 30
0.0
  3
*Paper_Space
  1

  0
ENDBLK
  5
1D6
330
1B
100
AcDbEntity
 67
     1
  8
0
100
AcDbBlockEnd
  0
ENDSEC
  0
SECTION
  2
ENTITIES
  0
LINE
  5
2A
330
1D
100
AcDbEntity
  8
SK1
100
AcDbLine
 10
-15.75
 20
9.0
 30
0.0
 11
-17.603103638
 21
8.673248291
 31
0.0
  0
LINE
  5
2B
330
1D
100
AcDbEntity
  8
SK1
100
AcDbLine
 10
-17.603103638
 20
8.673248291
 30
0.0
 11
-19.413176979
 21
8.99240405
 31
0.0
  0
ARC
  5
2C
330
1D
100
AcDbEntity
  8
SK1
100
AcDbCircle
 10
-19.5
 20
8.5
 30
0.0
 40
0.499999985
100
AcDbArc
 50
80.000123978
 51
180.0
  0
LINE
  5
2D
330
1D
100
AcDbEntity
  8
SK1
100
AcDbLine
 10
-20.0
 20
8.5
 30
0.0
 11
-19.999999985
 21
-8.500000047
 31
0.0
  0
ARC
  5
2E
330
1D
100
AcDbEntity
  8
SK1
100
AcDbCircle
 10
-19.5
 20
-8.5
 30
0.0
 40
0.499999985
100
AcDbArc
 50
180.000005364
 51
279.99987659
  0
LINE
  5
2F
330
1D
100
AcDbEntity
  8
SK1
100
AcDbLine
 10
-19.41317749
 20
-8.992401123
 30
0.0
 11
-17.603118896
 21
-8.673217773
 31
0.0
  0
LINE
  5
30
330
1D
100
AcDbEntity
  8
SK1
100
AcDbLine
 10
-17.603118896
 20
-8.673217773
 30
0.0
 11
-15.75
 21
-8.999996185
 31
0.0
  0
LINE
  5
31
330
1D
100
AcDbEntity
  8
SK1
100
AcDbLine
 10
-15.75
 20
-8.999996185
 30
0.0
 11
-15.75
 21
9.0
 31
0.0
  0
LINE
  5
32
330
1D
100
AcDbEntity
  8
SK1
100
AcDbLine
 10
-15.75
 20
9.0
 30
0.0
 11
-1.112197876
 21
9.0
 31
0.0
  0
ARC
  5
33
330
1D
100
AcDbEntity
  8
SK1
100
AcDbCircle
 10
-0.300003052
 20
-9.300018311
 30
0.0
 40
0.499999985
100
AcDbArc
 50
53.12974870199999
 51
104.99978409
  0
LINE
  5
34
330
1D
100
AcDbEntity
  8
SK1
100
AcDbLine
 10
-0.429412842
 20
-8.817047119
 30
0.0
 11
-1.112213135
 21
-8.999996185
 31
0.0
  0
LINE
  5
35
330
1D
100
AcDbEntity
  8
SK1
100
AcDbLine
 10
-1.112213135
 20
-8.999996185
 30
0.0
 11
-1.112213135
 21
9.0
 31
0.0
  0
LINE
  5
36
330
1D
100
AcDbEntity
  8
SK1
100
AcDbLine
 10
-1.112213135
 20
9.0
 30
0.0
 11
-0.429418238
 21
8.817026413
 31
0.0
  0
ARC
  5
37
330
1D
100
AcDbEntity
  8
SK1
100
AcDbCircle
 10
-0.300003052
 20
9.299987793
 30
0.0
 40
0.499999985
100
AcDbArc
 50
254.99932766
 51
306.870245934
  0
LINE
  5
3A
330
1D
100
AcDbEntity
  8
SK1
100
AcDbLine
 10
-15.75
 20
-9.0
 30
0.0
 11
-1.112197876
 21
-9.0
 31
0.0
  0
CIRCLE
  5
3B
330
1D
100
AcDbEntity
  8
SK1
100
AcDbCircle
 10
-7.75
 20
0.0
 30
0.0
 40
2.25
  0
ARC
  5
3C
330
1D
100
AcDbEntity
  8
SK1
100
AcDbCircle
 10
-6.970001213
 20
10.200012207
 30
0.0
 40
0.799999246
100
AcDbArc
 50
90.0
 51
150.000329018
  0
ARC
  5
3D
330
1D
100
AcDbEntity
  8
SK1
100
AcDbCircle
 10
-3.029968254
 20
10.200012207
 30
0.0
 40
0.799999246
100
AcDbArc
 50
30.000191331
 51
90.0
  0
LINE
  5
3E
330
1D
100
AcDbEntity
  8
SK1
100
AcDbLine
 10
-8.392822258
 20
9.335647583
 30
0.0
 11
-7.662841789
 21
10.600006104
 31
0.0
  0
LINE
  5
3F
330
1D
100
AcDbEntity
  8
SK1
100
AcDbLine
 10
-1.607177727
 20
9.335662842
 30
0.0
 11
-2.337158196
 21
10.600006104
 31
0.0
  0
LINE
  5
40
330
1D
100
AcDbEntity
  8
SK1
100
AcDbLine
 10
-3.029968254
 20
11.0
 30
0.0
 11
-6.970001213
 21
11.0
 31
0.0
  0
LINE
  5
41
330
1D
100
AcDbEntity
  8
SK4
100
AcDbLine
 10
-4.999999993
 20
12.0
 30
0.0
 11
-4.999999993
 21
8.207382202
 31
0.0
  0
ARC
  5
42
330
1D
100
AcDbEntity
  8
SK1
100
AcDbCircle
 10
-7.699981682
 20
8.935638428
 30
0.0
 40
0.800006026
100
AcDbArc
 50
149.999996424
 51
175.385463238
  0
ARC
  5
43
330
1D
100
AcDbEntity
  8
SK1
100
AcDbCircle
 10
-2.299987786
 20
8.935653687
 30
0.0
 40
0.799999432
100
AcDbArc
 50
4.613442756
 51
30.000303984
  0
ARC
  5
44
330
1D
100
AcDbEntity
  8
SK1
100
AcDbCircle
 10
-6.970001213
 20
-10.200012207
 30
0.0
 40
0.799999246
100
AcDbArc
 50
209.999670982
 51
270.0
  0
ARC
  5
45
330
1D
100
AcDbEntity
  8
SK1
100
AcDbCircle
 10
-3.029968254
 20
-10.200012207
 30
0.0
 40
0.799999246
100
AcDbArc
 50
270.0
 51
329.999808669
  0
LINE
  5
46
330
1D
100
AcDbEntity
  8
SK1
100
AcDbLine
 10
-8.392822258
 20
-9.335647583
 30
0.0
 11
-7.662841789
 21
-10.600006104
 31
0.0
  0
LINE
  5
47
330
1D
100
AcDbEntity
  8
SK1
100
AcDbLine
 10
-1.607177727
 20
-9.335662842
 30
0.0
 11
-2.337158196
 21
-10.600006104
 31
0.0
  0
LINE
  5
48
330
1D
100
AcDbEntity
  8
SK1
100
AcDbLine
 10
-3.029968254
 20
-11.0
 30
0.0
 11
-6.970001213
 21
-11.0
 31
0.0
  0
LINE
  5
49
330
1D
100
AcDbEntity
  8
SK4
100
AcDbLine
 10
-4.999999993
 20
-12.0
 30
0.0
 11
-4.999999993
 21
-8.207382202
 31
0.0
  0
ARC
  5
4A
330
1D
100
AcDbEntity
  8
SK1
100
AcDbCircle
 10
-7.699981682
 20
-8.935638428
 30
0.0
 40
0.800006026
100
AcDbArc
 50
184.614536762
 51
210.000003576
  0
ARC
  5
4B
330
1D
100
AcDbEntity
  8
SK1
100
AcDbCircle
 10
-2.299987786
 20
-8.935653687
 30
0.0
 40
0.799999432
100
AcDbArc
 50
329.9996960160001
 51
355.386557244
  0
LINE
  5
4E
330
1D
100
AcDbEntity
  8
2
100
AcDbLine
 10
0.0
 20
26.0
 30
0.0
 11
0.0
 21
14.749992371
 31
0.0
  0
LINE
  5
4F
330
1D
100
AcDbEntity
  8
2
100
AcDbLine
 10
0.0
 20
24.0
 30
0.0
 11
3.499999999
 21
24.450000011
 31
0.0
  0
LINE
  5
50
330
1D
100
AcDbEntity
  8
2
100
AcDbLine
 10
3.499999999
 20
24.450000011
 30
0.0
 11
3.500000001
 21
23.550000011
 31
0.0
  0
LINE
  5
51
330
1D
100
AcDbEntity
  8
2
100
AcDbLine
 10
3.500000001
 20
23.550000011
 30
0.0
 11
0.0
 21
24.0
 31
0.0
  0
LINE
  5
52
330
1D
100
AcDbEntity
  8
2
100
AcDbLine
 10
39.999996124
 20
26.000000122
 30
0.0
 11
39.999996124
 21
15.600006226
 31
0.0
  0
LINE
  5
53
330
1D
100
AcDbEntity
  8
2
100
AcDbLine
 10
39.999996124
 20
24.000000122
 30
0.0
 11
36.499996125
 21
23.550000112
 31
0.0
  0
LINE
  5
54
330
1D
100
AcDbEntity
  8
2
100
AcDbLine
 10
36.499996125
 20
23.550000112
 30
0.0
 11
36.499996123
 21
24.450000112
 31
0.0
  0
LINE
  5
55
330
1D
100
AcDbEntity
  8
2
100
AcDbLine
 10
36.499996123
 20
24.450000112
 30
0.0
 11
39.999996124
 21
24.000000122
 31
0.0
  0
LINE
  5
56
330
1D
100
AcDbEntity
  8
2
100
AcDbLine
 10
3.5
 20
24.000000011
 30
0.0
 11
36.499996124
 21
24.000000112
 31
0.0
  0
TEXT
  5
57
330
1D
100
AcDbEntity
  8
2
100
AcDbText
 10
18.33531011
 20
25.500000056
 30
0.0
 40
3.5
  1
40
 50
0.000000175
  7
BMG_Text
100
AcDbText
  0
LINE
  5
58
330
1D
100
AcDbEntity
  8
SK2
100
AcDbLine
 10
-30.0
 20
-8.999996185
 30
0.0
 11
-15.75
 21
-8.999996185
 31
0.0
  0
LINE
  5
59
330
1D
100
AcDbEntity
  8
SK2
100
AcDbLine
 10
-28.0
 20
-8.999996185
 30
0.0
 11
-28.45
 21
-5.499996185
 31
0.0
  0
LINE
  5
5A
330
1D
100
AcDbEntity
  8
SK2
100
AcDbLine
 10
-28.45
 20
-5.499996185
 30
0.0
 11
-27.55
 21
-5.499996185
 31
0.0
  0
LINE
  5
5B
330
1D
100
AcDbEntity
  8
SK2
100
AcDbLine
 10
-27.55
 20
-5.499996185
 30
0.0
 11
-28.0
 21
-8.999996185
 31
0.0
  0
LINE
  5
5C
330
1D
100
AcDbEntity
  8
SK2
100
AcDbLine
 10
-30.0
 20
9.0
 30
0.0
 11
-15.75
 21
9.0
 31
0.0
  0
LINE
  5
5D
330
1D
100
AcDbEntity
  8
SK2
100
AcDbLine
 10
-28.0
 20
9.0
 30
0.0
 11
-27.55
 21
5.5
 31
0.0
  0
LINE
  5
5E
330
1D
100
AcDbEntity
  8
SK2
100
AcDbLine
 10
-27.55
 20
5.5
 30
0.0
 11
-28.45
 21
5.5
 31
0.0
  0
LINE
  5
5F
330
1D
100
AcDbEntity
  8
SK2
100
AcDbLine
 10
-28.45
 20
5.5
 30
0.0
 11
-28.0
 21
9.0
 31
0.0
  0
LINE
  5
60
330
1D
100
AcDbEntity
  8
SK2
100
AcDbLine
 10
-28.0
 20
-5.499996185
 30
0.0
 11
-28.0
 21
5.5
 31
0.0
  0
TEXT
  5
61
330
1D
100
AcDbEntity
  8
SK2
100
AcDbText
 10
-29.5
 20
0.468126706
 30
0.0
 40
3.5
  1
18
 50
90.0
  7
BMG_Text
100
AcDbText
  0
CIRCLE
  5
62
330
1D
100
AcDbEntity
  8
SK2
100
AcDbCircle
 10
-30.75
 20
-1.781873294
 30
0.0
 40
1.25
  0
LINE
  5
63
330
1D
100
AcDbEntity
  8
SK2
100
AcDbLine
 10
-29.5
 20
-3.031873294
 30
0.0
 11
-32.0
 21
-0.531873294
 31
0.0
  0
LINE
  5
64
330
1D
100
AcDbEntity
  8
2
100
AcDbLine
 10
0.0
 20
-27.070447922
 30
0.0
 11
0.0
 21
-14.75
 31
0.0
  0
LINE
  5
65
330
1D
100
AcDbEntity
  8
2
100
AcDbLine
 10
0.0
 20
-25.070447922
 30
0.0
 11
3.5
 21
-24.620447922
 31
0.0
  0
LINE
  5
66
330
1D
100
AcDbEntity
  8
2
100
AcDbLine
 10
3.5
 20
-24.620447922
 30
0.0
 11
3.5
 21
-25.520447922
 31
0.0
  0
LINE
  5
67
330
1D
100
AcDbEntity
  8
2
100
AcDbLine
 10
3.5
 20
-25.520447922
 30
0.0
 11
0.0
 21
-25.070447922
 31
0.0
  0
LINE
  5
68
330
1D
100
AcDbEntity
  8
2
100
AcDbLine
 10
22.5
 20
-27.070447922
 30
0.0
 11
22.5
 21
-15.0
 31
0.0
  0
LINE
  5
69
330
1D
100
AcDbEntity
  8
2
100
AcDbLine
 10
22.5
 20
-25.070447922
 30
0.0
 11
19.0
 21
-25.520447922
 31
0.0
  0
LINE
  5
6A
330
1D
100
AcDbEntity
  8
2
100
AcDbLine
 10
19.0
 20
-25.520447922
 30
0.0
 11
19.0
 21
-24.620447922
 31
0.0
  0
LINE
  5
6B
330
1D
100
AcDbEntity
  8
2
100
AcDbLine
 10
19.0
 20
-24.620447922
 30
0.0
 11
22.5
 21
-25.070447922
 31
0.0
  0
LINE
  5
6C
330
1D
100
AcDbEntity
  8
2
100
AcDbLine
 10
3.5
 20
-25.070447922
 30
0.0
 11
19.0
 21
-25.070447922
 31
0.0
  0
TEXT
  5
6D
330
1D
100
AcDbEntity
  8
2
100
AcDbText
 10
8.081405999
 20
-23.570447922
 30
0.0
 40
3.5
  1
22.5
  7
BMG_Text
100
AcDbText
  0
TEXT
  5
6E
330
1D
100
AcDbEntity
  8
SK6
100
AcDbText
 10
46.37603133823171
 20
-32.85353327044031
 30
0.0
 40
3.5
  1
319.301
  7
BMG_Text
100
AcDbText
  0
LINE
  5
70
330
1D
100
AcDbEntity
  8
1
100
AcDbLine
 10
22.500000894
 20
4.270831113
 30
0.0
 11
16.8
 21
4.270831301
 31
0.0
  0
ARC
  5
71
330
1D
100
AcDbEntity
  8
1
100
AcDbCircle
 10
42.615793981
 20
0.0
 30
0.0
 40
26.166681465
100
AcDbArc
 50
170.606363386
 51
180.0
  0
ARC
  5
72
330
1D
100
AcDbEntity
  8
1
100
AcDbCircle
 10
42.615793981
 20
0.0
 30
0.0
 40
26.162204143
100
AcDbArc
 50
180.0
 51
189.393636016
  0
LINE
  5
73
330
1D
100
AcDbEntity
  8
1
100
AcDbLine
 10
16.799999401
 20
-4.270831123
 30
0.0
 11
22.500000894
 21
-4.270831123
 31
0.0
  0
LINE
  5
74
330
1D
100
AcDbEntity
  8
1
100
AcDbLine
 10
22.500000894
 20
-15.199998394
 30
0.0
 11
22.199999541
 21
-15.499999747
 31
0.0
  0
LINE
  5
75
330
1D
100
AcDbEntity
  8
1
100
AcDbLine
 10
22.199999541
 20
-15.499999747
 30
0.0
 11
0.750000007
 21
-15.499999747
 31
0.0
  0
LINE
  5
76
330
1D
100
AcDbEntity
  8
1
100
AcDbLine
 10
0.750000007
 20
-15.499999747
 30
0.0
 11
0.0
 21
-14.750000089
 31
0.0
  0
LINE
  5
77
330
1D
100
AcDbEntity
  8
1
100
AcDbLine
 10
0.0
 20
-14.750000089
 30
0.0
 11
0.0
 21
14.750000089
 31
0.0
  0
LINE
  5
78
330
1D
100
AcDbEntity
  8
1
100
AcDbLine
 10
0.0
 20
14.750000089
 30
0.0
 11
0.750000007
 21
15.499999747
 31
0.0
  0
LINE
  5
79
330
1D
100
AcDbEntity
  8
1
100
AcDbLine
 10
0.750000007
 20
15.499999747
 30
0.0
 11
22.2
 21
15.494990055
 31
0.0
  0
LINE
  5
7A
330
1D
100
AcDbEntity
  8
1
100
AcDbLine
 10
22.500000894
 20
15.203291042
 30
0.0
 11
22.2
 21
15.493414129
 31
0.0
  0
LINE
  5
7B
330
1D
100
AcDbEntity
  8
1
100
AcDbLine
 10
22.500000894
 20
-15.199998394
 30
0.0
 11
22.500000894
 21
15.203291042
 31
0.0
  0
LINE
  5
7C
330
1D
100
AcDbEntity
  8
3
100
AcDbLine
 10
2.000000095
 20
-4.500050098
 30
0.0
 11
3.637883927
 21
0.0
 31
0.0
  0
LINE
  5
7D
330
1D
100
AcDbEntity
  8
3
100
AcDbLine
 10
3.637883927
 20
0.0
 30
0.0
 11
2.000000095
 21
4.500050098
 31
0.0
  0
LINE
  5
7E
330
1D
100
AcDbEntity
  8
3
100
AcDbLine
 10
2.000000095
 20
4.500050098
 30
0.0
 11
2.000000095
 21
-4.500050098
 31
0.0
  0
LINE
  5
80
330
1D
100
AcDbEntity
  8
1
100
AcDbLine
 10
0.750000007
 20
15.499999747
 30
0.0
 11
0.750000007
 21
-15.499999747
 31
0.0
  0
LINE
  5
81
330
1D
100
AcDbEntity
  8
1
100
AcDbLine
 10
16.799999401
 20
-4.270831123
 30
0.0
 11
16.799999401
 21
4.270831123
 31
0.0
  0
LINE
  5
83
330
1D
100
AcDbEntity
  8
3
100
AcDbLine
 10
2.533959843
 20
3.03300734
 30
0.0
 11
22.500000894
 21
11.638831545
 31
0.0
  0
LINE
  5
84
330
1D
100
AcDbEntity
  8
3
100
AcDbLine
 10
22.500000894
 20
-11.638831437
 30
0.0
 11
2.533959996
 21
-3.033006919
 31
0.0
  0
LINE
  5
86
330
1D
100
AcDbEntity
  8
SK2
100
AcDbLine
 10
-38.205425256
 20
-15.499999747
 30
0.0
 11
0.750000007
 21
-15.499999747
 31
0.0
  0
LINE
  5
87
330
1D
100
AcDbEntity
  8
SK2
100
AcDbLine
 10
-36.205425256
 20
-15.499999747
 30
0.0
 11
-36.655425256
 21
-11.999999747
 31
0.0
  0
LINE
  5
88
330
1D
100
AcDbEntity
  8
SK2
100
AcDbLine
 10
-36.655425256
 20
-11.999999747
 30
0.0
 11
-35.755425256
 21
-11.999999747
 31
0.0
  0
LINE
  5
89
330
1D
100
AcDbEntity
  8
SK2
100
AcDbLine
 10
-35.755425256
 20
-11.999999747
 30
0.0
 11
-36.205425256
 21
-15.499999747
 31
0.0
  0
LINE
  5
8A
330
1D
100
AcDbEntity
  8
SK2
100
AcDbLine
 10
-38.205425256
 20
15.499999747
 30
0.0
 11
0.750000007
 21
15.499999747
 31
0.0
  0
LINE
  5
8B
330
1D
100
AcDbEntity
  8
SK2
100
AcDbLine
 10
-36.205425256
 20
15.499999747
 30
0.0
 11
-35.755425256
 21
11.999999747
 31
0.0
  0
LINE
  5
8C
330
1D
100
AcDbEntity
  8
SK2
100
AcDbLine
 10
-35.755425256
 20
11.999999747
 30
0.0
 11
-36.655425256
 21
11.999999747
 31
0.0
  0
LINE
  5
8D
330
1D
100
AcDbEntity
  8
SK2
100
AcDbLine
 10
-36.655425256
 20
11.999999747
 30
0.0
 11
-36.205425256
 21
15.499999747
 31
0.0
  0
LINE
  5
8E
330
1D
100
AcDbEntity
  8
SK2
100
AcDbLine
 10
-36.205425256
 20
-11.999999747
 30
0.0
 11
-36.205425256
 21
11.999999747
 31
0.0
  0
TEXT
  5
8F
330
1D
100
AcDbEntity
  8
SK2
100
AcDbText
 10
-37.705425256
 20
0.659530904
 30
0.0
 40
3.5
  1
31
 50
90.0
  7
BMG_Text
100
AcDbText
  0
CIRCLE
  5
90
330
1D
100
AcDbEntity
  8
SK2
100
AcDbCircle
 10
-38.955425256
 20
-1.590469096
 30
0.0
 40
1.25
  0
LINE
  5
91
330
1D
100
AcDbEntity
  8
SK2
100
AcDbLine
 10
-37.705425256
 20
-2.840469096
 30
0.0
 11
-40.205425256
 21
-0.340469096
 31
0.0
  0
LINE
  5
92
330
1D
100
AcDbEntity
  8
1
100
AcDbLine
 10
26.550000598
 20
15.370425561
 30
0.0
 11
26.530304988
 21
15.338872352
 31
0.0
  0
LINE
  5
93
330
1D
100
AcDbEntity
  8
1
100
AcDbLine
 10
26.530304988
 20
15.338872352
 30
0.0
 11
26.472427016
 21
15.304980592
 31
0.0
  0
LINE
  5
94
330
1D
100
AcDbEntity
  8
1
100
AcDbLine
 10
26.472427016
 20
15.304980592
 30
0.0
 11
26.377629553
 21
15.270068103
 31
0.0
  0
LINE
  5
95
330
1D
100
AcDbEntity
  8
1
100
AcDbLine
 10
26.377629553
 20
15.270068103
 30
0.0
 11
26.249028807
 21
15.235781462
 31
0.0
  0
LINE
  5
96
330
1D
100
AcDbEntity
  8
1
100
AcDbLine
 10
26.249028807
 20
15.235781462
 30
0.0
 11
26.089165424
 21
15.203809158
 31
0.0
  0
LINE
  5
97
330
1D
100
AcDbEntity
  8
1
100
AcDbLine
 10
26.089165424
 20
15.203809158
 30
0.0
 11
25.903131877
 21
15.176038982
 31
0.0
  0
LINE
  5
98
330
1D
100
AcDbEntity
  8
1
100
AcDbLine
 10
25.903131877
 20
15.176038982
 30
0.0
 11
25.698112389
 21
15.154466757
 31
0.0
  0
LINE
  5
99
330
1D
100
AcDbEntity
  8
1
100
AcDbLine
 10
25.698112389
 20
15.154466757
 30
0.0
 11
25.478329574
 21
15.140045227
 31
0.0
  0
LINE
  5
9A
330
1D
100
AcDbEntity
  8
1
100
AcDbLine
 10
25.478329574
 20
15.140045227
 30
0.0
 11
25.254912739
 21
15.133945064
 31
0.0
  0
LINE
  5
9B
330
1D
100
AcDbEntity
  8
1
100
AcDbLine
 10
25.254912739
 20
15.133945064
 30
0.0
 11
25.029910793
 21
15.136031227
 31
0.0
  0
LINE
  5
9C
330
1D
100
AcDbEntity
  8
1
100
AcDbLine
 10
25.029910793
 20
15.136031227
 30
0.0
 11
24.812720781
 21
15.146141664
 31
0.0
  0
LINE
  5
9D
330
1D
100
AcDbEntity
  8
1
100
AcDbLine
 10
24.812720781
 20
15.146141664
 30
0.0
 11
24.606319209
 21
15.1634475
 31
0.0
  0
LINE
  5
9E
330
1D
100
AcDbEntity
  8
1
100
AcDbLine
 10
24.606319209
 20
15.1634475
 30
0.0
 11
24.41522858
 21
15.187178531
 31
0.0
  0
LINE
  5
9F
330
1D
100
AcDbEntity
  8
1
100
AcDbLine
 10
24.41522858
 20
15.187178531
 30
0.0
 11
24.245720421
 21
15.21573195
 31
0.0
  0
LINE
  5
A0
330
1D
100
AcDbEntity
  8
1
100
AcDbLine
 10
24.245720421
 20
15.21573195
 30
0.0
 11
24.099839916
 21
15.248248146
 31
0.0
  0
LINE
  5
A1
330
1D
100
AcDbEntity
  8
1
100
AcDbLine
 10
24.099839916
 20
15.248248146
 30
0.0
 11
23.984722858
 21
15.282436998
 31
0.0
  0
LINE
  5
A2
330
1D
100
AcDbEntity
  8
1
100
AcDbLine
 10
23.984722858
 20
15.282436998
 30
0.0
 11
23.90284284
 21
15.317169742
 31
0.0
  0
LINE
  5
A3
330
1D
100
AcDbEntity
  8
1
100
AcDbLine
 10
23.90284284
 20
15.317169742
 30
0.0
 11
23.85816357
 21
15.350408645
 31
0.0
  0
LINE
  5
A4
330
1D
100
AcDbEntity
  8
1
100
AcDbLine
 10
23.85816357
 20
15.350408645
 30
0.0
 11
23.852633377
 21
15.380845198
 31
0.0
  0
LINE
  5
A5
330
1D
100
AcDbEntity
  8
1
100
AcDbLine
 10
23.852633377
 20
15.380845198
 30
0.0
 11
23.88613305
 21
15.407618859
 31
0.0
  0
LINE
  5
A6
330
1D
100
AcDbEntity
  8
1
100
AcDbLine
 10
23.88613305
 20
15.407618859
 30
0.0
 11
23.957584118
 21
15.429901683
 31
0.0
  0
LINE
  5
A7
330
1D
100
AcDbEntity
  8
1
100
AcDbLine
 10
23.957584118
 20
15.429901683
 30
0.0
 11
24.064710428
 21
15.447923706
 31
0.0
  0
LINE
  5
A8
330
1D
100
AcDbEntity
  8
1
100
AcDbLine
 10
24.064710428
 20
15.447923706
 30
0.0
 11
24.203585525
 21
15.461664439
 31
0.0
  0
LINE
  5
A9
330
1D
100
AcDbEntity
  8
1
100
AcDbLine
 10
24.203585525
 20
15.461664439
 30
0.0
 11
24.370698323
 21
15.471788847
 31
0.0
  0
LINE
  5
AA
330
1D
100
AcDbEntity
  8
1
100
AcDbLine
 10
24.370698323
 20
15.471788847
 30
0.0
 11
24.560956349
 21
15.478772835
 31
0.0
  0
LINE
  5
AB
330
1D
100
AcDbEntity
  8
1
100
AcDbLine
 10
24.560956349
 20
15.478772835
 30
0.0
 11
24.769213115
 21
15.483241321
 31
0.0
  0
LINE
  5
AC
330
1D
100
AcDbEntity
  8
1
100
AcDbLine
 10
24.769213115
 20
15.483241321
 30
0.0
 11
24.989789416
 21
15.485669279
 31
0.0
  0
LINE
  5
AD
330
1D
100
AcDbEntity
  8
1
100
AcDbLine
 10
24.989789416
 20
15.485669279
 30
0.0
 11
25.216285204
 21
15.48636032
 31
0.0
  0
LINE
  5
AE
330
1D
100
AcDbEntity
  8
1
100
AcDbLine
 10
25.216285204
 20
15.48636032
 30
0.0
 11
25.442438265
 21
15.485432723
 31
0.0
  0
LINE
  5
AF
330
1D
100
AcDbEntity
  8
1
100
AcDbLine
 10
25.442438265
 20
15.485432723
 30
0.0
 11
25.66175728
 21
15.482732819
 31
0.0
  0
LINE
  5
B0
330
1D
100
AcDbEntity
  8
1
100
AcDbLine
 10
25.66175728
 20
15.482732819
 30
0.0
 11
25.867873867
 21
15.477928126
 31
0.0
  0
LINE
  5
B1
330
1D
100
AcDbEntity
  8
1
100
AcDbLine
 10
25.867873867
 20
15.477928126
 30
0.0
 11
26.055155387
 21
15.470527836
 31
0.0
  0
LINE
  5
B2
330
1D
100
AcDbEntity
  8
1
100
AcDbLine
 10
26.055155387
 20
15.470527836
 30
0.0
 11
26.217896556
 21
15.459948943
 31
0.0
  0
LINE
  5
B3
330
1D
100
AcDbEntity
  8
1
100
AcDbLine
 10
26.217896556
 20
15.459948943
 30
0.0
 11
26.351993968
 21
15.445711815
 31
0.0
  0
LINE
  5
B4
330
1D
100
AcDbEntity
  8
1
100
AcDbLine
 10
26.351993968
 20
15.445711815
 30
0.0
 11
26.453267848
 21
15.42737128
 31
0.0
  0
LINE
  5
B5
330
1D
100
AcDbEntity
  8
1
100
AcDbLine
 10
26.453267848
 20
15.42737128
 30
0.0
 11
26.51948302
 21
15.404876114
 31
0.0
  0
LINE
  5
B6
330
1D
100
AcDbEntity
  8
1
100
AcDbLine
 10
26.51948302
 20
15.404876114
 30
0.0
 11
26.550000598
 21
15.370425561
 31
0.0
  0
ARC
  5
B7
330
1D
100
AcDbEntity
  8
1
100
AcDbCircle
 10
38.583722725
 20
-14.380962431
 30
0.0
 40
0.785176351
100
AcDbArc
 50
269.3034745530001
 51
354.132151565
  0
LINE
  5
B8
330
1D
100
AcDbEntity
  8
1
100
AcDbLine
 10
38.574177836
 20
-15.166080764
 30
0.0
 11
30.876666372
 21
-15.166080764
 31
0.0
  0
ARC
  5
B9
330
1D
100
AcDbEntity
  8
1
100
AcDbCircle
 10
30.837607209
 20
-15.485035475
 30
0.0
 40
0.321337401
100
AcDbArc
 50
83.018325908
 51
120.055975366
  0
LINE
  5
BA
330
1D
100
AcDbEntity
  8
1
100
AcDbLine
 10
30.676666712
 20
-15.206906221
 30
0.0
 11
30.676666091
 21
-15.467708506
 31
0.0
  0
ARC
  5
BB
330
1D
100
AcDbEntity
  8
1
100
AcDbCircle
 10
30.562730483
 20
-15.227824793
 30
0.0
 40
0.265566411
100
AcDbArc
 50
272.399973623
 51
295.405933933
  0
LINE
  5
BC
330
1D
100
AcDbEntity
  8
1
100
AcDbLine
 10
30.574124371
 20
-15.499677717
 30
0.0
 11
22.65573672
 21
-15.499677717
 31
0.0
  0
ARC
  5
BD
330
1D
100
AcDbEntity
  8
1
100
AcDbCircle
 10
22.480234348
 20
-31.254129559
 30
0.0
 40
15.755429348
100
AcDbArc
 50
89.36175949899999
 51
89.62798509400001
  0
ARC
  5
BE
330
1D
100
AcDbEntity
  8
1
100
AcDbCircle
 10
22.882531819
 20
29.814266606
 30
0.0
 40
45.314292116
100
AcDbArc
 50
267.998654635
 51
269.620674657
  0
ARC
  5
BF
330
1D
100
AcDbEntity
  8
1
100
AcDbCircle
 10
18.5524048
 20
29.814266606
 30
0.0
 40
45.316250278
100
AcDbArc
 50
273.476064893
 51
275.102028797
  0
LINE
  5
C0
330
1D
100
AcDbEntity
  8
1
100
AcDbLine
 10
22.58253104
 20
-15.324360898
 30
0.0
 11
22.634247383
 21
-15.317787624
 31
0.0
  0
LINE
  5
C1
330
1D
100
AcDbEntity
  8
1
100
AcDbLine
 10
22.634247383
 20
-15.317787624
 30
0.0
 11
22.668730532
 21
-15.308811537
 31
0.0
  0
LINE
  5
C2
330
1D
100
AcDbEntity
  8
1
100
AcDbLine
 10
22.668730532
 20
-15.308811537
 30
0.0
 11
22.682402348
 21
-15.29822985
 31
0.0
  0
LINE
  5
C3
330
1D
100
AcDbEntity
  8
1
100
AcDbLine
 10
22.682402348
 20
-15.29822985
 30
0.0
 11
22.673310777
 21
-15.287127553
 31
0.0
  0
LINE
  5
C4
330
1D
100
AcDbEntity
  8
1
100
AcDbLine
 10
22.673310777
 20
-15.287127553
 30
0.0
 11
22.642070492
 21
-15.276857859
 31
0.0
  0
LINE
  5
C5
330
1D
100
AcDbEntity
  8
1
100
AcDbLine
 10
22.642070492
 20
-15.276857859
 30
0.0
 11
22.582531819
 21
-15.267743151
 31
0.0
  0
ARC
  5
C6
330
1D
100
AcDbEntity
  8
1
100
AcDbCircle
 10
27.212658838
 20
29.814266606
 30
0.0
 40
45.319153566
100
AcDbArc
 50
262.503725535
 51
264.136023888
  0
ARC
  5
C7
330
1D
100
AcDbEntity
  8
1
100
AcDbCircle
 10
14.222277782
 20
29.814266606
 30
0.0
 40
45.321979153
100
AcDbArc
 50
278.984388398
 51
280.630013195
  0
LINE
  5
C8
330
1D
100
AcDbEntity
  8
1
100
AcDbLine
 10
22.58253104
 20
-14.729292339
 30
0.0
 11
22.634375905
 21
-14.715119472
 31
0.0
  0
LINE
  5
C9
330
1D
100
AcDbEntity
  8
1
100
AcDbLine
 10
22.634375905
 20
-14.715119472
 30
0.0
 11
22.668516328
 21
-14.696261122
 31
0.0
  0
LINE
  5
CA
330
1D
100
AcDbEntity
  8
1
100
AcDbLine
 10
22.668516328
 20
-14.696261122
 30
0.0
 11
22.682402348
 21
-14.673854432
 31
0.0
  0
LINE
  5
CB
330
1D
100
AcDbEntity
  8
1
100
AcDbLine
 10
22.682402348
 20
-14.673854432
 30
0.0
 11
22.67258062
 21
-14.650020956
 31
0.0
  0
LINE
  5
CC
330
1D
100
AcDbEntity
  8
1
100
AcDbLine
 10
22.67258062
 20
-14.650020956
 30
0.0
 11
22.638509115
 21
-14.628140463
 31
0.0
  0
LINE
  5
CD
330
1D
100
AcDbEntity
  8
1
100
AcDbLine
 10
22.638509115
 20
-14.628140463
 30
0.0
 11
22.582531819
 21
-14.611227028
 31
0.0
  0
ARC
  5
CE
330
1D
100
AcDbEntity
  8
1
100
AcDbCircle
 10
31.542785857
 20
29.814266606
 30
0.0
 40
45.320090876
100
AcDbArc
 50
256.936124775
 51
258.596897748
  0
ARC
  5
CF
330
1D
100
AcDbEntity
  8
1
100
AcDbCircle
 10
12.367943532
 20
19.206134978
 30
0.0
 40
34.416449843
100
AcDbArc
 50
285.042098795
 51
287.265412661
  0
LINE
  5
D0
330
1D
100
AcDbEntity
  8
1
100
AcDbLine
 10
22.58253104
 20
-13.658993154
 30
0.0
 11
22.634644126
 21
-13.635649553
 31
0.0
  0
LINE
  5
D1
330
1D
100
AcDbEntity
  8
1
100
AcDbLine
 10
22.634644126
 20
-13.635649553
 30
0.0
 11
22.668171739
 21
-13.605540826
 31
0.0
  0
LINE
  5
D2
330
1D
100
AcDbEntity
  8
1
100
AcDbLine
 10
22.668171739
 20
-13.605540826
 30
0.0
 11
22.682419111
 21
-13.568366154
 31
0.0
  0
LINE
  5
D3
330
1D
100
AcDbEntity
  8
1
100
AcDbLine
 10
22.682419111
 20
-13.568366154
 30
0.0
 11
22.670818557
 21
-13.527153267
 31
0.0
  0
LINE
  5
D4
330
1D
100
AcDbEntity
  8
1
100
AcDbLine
 10
22.670818557
 20
-13.527153267
 30
0.0
 11
22.630406608
 21
-13.489328532
 31
0.0
  0
LINE
  5
D5
330
1D
100
AcDbEntity
  8
1
100
AcDbLine
 10
22.630406608
 20
-13.489328532
 30
0.0
 11
22.582531819
 21
-13.4674396
 31
0.0
  0
ARC
  5
D6
330
1D
100
AcDbEntity
  8
1
100
AcDbCircle
 10
33.397120106
 20
19.206134978
 30
0.0
 40
34.41682431
100
AcDbArc
 50
249.423398096
 51
251.686033119
  0
ARC
  5
D7
330
1D
100
AcDbEntity
  8
1
100
AcDbCircle
 10
8.037816514
 20
19.206134978
 30
0.0
 40
34.42105614
100
AcDbArc
 50
292.481701278
 51
292.538187133
  0
ARC
  5
D8
330
1D
100
AcDbEntity
  8
1
100
AcDbCircle
 10
10.576067599
 20
13.089788027
 30
0.0
 40
27.798941754
100
AcDbArc
 50
292.538187133
 51
295.584687813
  0
ARC
  5
D9
330
1D
100
AcDbEntity
  8
1
100
AcDbCircle
 10
22.519933892
 20
-11.840549039
 30
0.0
 40
0.159112107
100
AcDbArc
 50
293.167181261
 51
66.832508912
  0
ARC
  5
DA
330
1D
100
AcDbEntity
  8
1
100
AcDbCircle
 10
35.188996039
 20
13.089788027
 30
0.0
 40
27.805977263
100
AcDbArc
 50
240.040974177
 51
243.039735972
  0
ARC
  5
DB
330
1D
100
AcDbEntity
  8
1
100
AcDbCircle
 10
6.24594058
 20
13.089788027
 30
0.0
 40
27.81265318
100
AcDbArc
 50
302.525074066
 51
305.494703262
  0
ARC
  5
DC
330
1D
100
AcDbEntity
  8
1
100
AcDbCircle
 10
13.048271804
 20
3.551361197
 30
0.0
 40
16.083426551
100
AcDbArc
 50
305.4947965810001
 51
306.3656997829999
  0
ARC
  5
DD
330
1D
100
AcDbEntity
  8
1
100
AcDbCircle
 10
22.367212121
 20
-9.160466234
 30
0.0
 40
0.319723242
100
AcDbArc
 50
312.334214582
 51
47.66566060700001
  0
ARC
  5
DE
330
1D
100
AcDbEntity
  8
1
100
AcDbCircle
 10
32.716791835
 20
3.551361197
 30
0.0
 40
16.072983535
100
AcDbArc
 50
224.751457406
 51
230.911858603
  0
ARC
  5
DF
330
1D
100
AcDbEntity
  8
1
100
AcDbCircle
 10
8.718144785
 20
3.551361197
 30
0.0
 40
16.083394282
100
AcDbArc
 50
320.902198147
 51
321.212022181
  0
ARC
  5
E0
330
1D
100
AcDbEntity
  8
1
100
AcDbCircle
 10
11.306763766
 20
1.470952237
 30
0.0
 40
12.762425246
100
AcDbArc
 50
321.212022181
 51
332.023994139
  0
LINE
  5
E1
330
1D
100
AcDbEntity
  8
1
100
AcDbLine
 10
22.58253104
 20
-4.518423903
 30
0.0
 11
22.653274303
 21
-4.285281732
 31
0.0
  0
LINE
  5
E2
330
1D
100
AcDbEntity
  8
1
100
AcDbLine
 10
22.653274303
 20
-4.285281732
 30
0.0
 11
22.65573672
 21
-4.27083133
 31
0.0
  0
LINE
  5
E3
330
1D
100
AcDbEntity
  8
1
100
AcDbLine
 10
22.65573672
 20
-4.27083133
 30
0.0
 11
28.500000065
 21
-4.270831508
 31
0.0
  0
ARC
  5
E4
330
1D
100
AcDbEntity
  8
1
100
AcDbCircle
 10
2.684206083
 20
-0.000000207
 30
0.0
 40
26.166681465
100
AcDbArc
 50
350.606363386
 51
0.0
  0
ARC
  5
E5
330
1D
100
AcDbEntity
  8
1
100
AcDbCircle
 10
2.684206083
 20
-0.000000207
 30
0.0
 40
26.162204143
100
AcDbArc
 50
0.0
 51
9.393636225000002
  0
LINE
  5
E6
330
1D
100
AcDbEntity
  8
1
100
AcDbLine
 10
28.50000008
 20
4.270830916
 30
0.0
 11
22.65573672
 21
4.270830916
 31
0.0
  0
LINE
  5
E7
330
1D
100
AcDbEntity
  8
1
100
AcDbLine
 10
22.65573672
 20
4.270830916
 30
0.0
 11
22.643961077
 21
4.333380402
 31
0.0
  0
LINE
  5
E8
330
1D
100
AcDbEntity
  8
1
100
AcDbLine
 10
22.643961077
 20
4.333380402
 30
0.0
 11
22.582531819
 21
4.518423458
 31
0.0
  0
ARC
  5
E9
330
1D
100
AcDbEntity
  8
1
100
AcDbCircle
 10
11.306763766
 20
-1.470952652
 30
0.0
 40
12.767755142
100
AcDbArc
 50
27.976004104
 51
38.787977819
  0
ARC
  5
EA
330
1D
100
AcDbEntity
  8
1
100
AcDbCircle
 10
8.718144785
 20
-3.551361612
 30
0.0
 40
16.083426551
100
AcDbArc
 50
38.787977819
 51
39.097801853
  0
ARC
  5
EB
330
1D
100
AcDbEntity
  8
1
100
AcDbCircle
 10
32.716791835
 20
-3.551361612
 30
0.0
 40
16.076197055
100
AcDbArc
 50
129.088143955
 51
135.248540655
  0
LINE
  5
EC
330
1D
100
AcDbEntity
  8
1
100
AcDbLine
 10
22.58253104
 20
8.924117104
 30
0.0
 11
22.639241134
 21
8.99321472
 31
0.0
  0
LINE
  5
ED
330
1D
100
AcDbEntity
  8
1
100
AcDbLine
 10
22.639241134
 20
8.99321472
 30
0.0
 11
22.677574371
 21
9.104490073
 31
0.0
  0
ARC
  5
EE
330
1D
100
AcDbEntity
  8
1
100
AcDbCircle
 10
22.402771047
 20
9.185142694
 30
0.0
 40
0.2777024
100
AcDbArc
 50
8.347321386000003
 51
49.66066002400001
  0
ARC
  5
EF
330
1D
100
AcDbEntity
  8
1
100
AcDbCircle
 10
13.048271804
 20
-3.551361612
 30
0.0
 40
16.0797195
100
AcDbArc
 50
53.634297951
 51
54.50520341899999
  0
ARC
  5
F0
330
1D
100
AcDbEntity
  8
1
100
AcDbCircle
 10
6.24594058
 20
-13.089788442
 30
0.0
 40
27.798941754
100
AcDbArc
 50
54.505296738
 51
57.47492593400001
  0
ARC
  5
F1
330
1D
100
AcDbEntity
  8
1
100
AcDbCircle
 10
35.188996039
 20
-13.089788442
 30
0.0
 40
27.812449847
100
AcDbArc
 50
116.960265801
 51
119.959024721
  0
ARC
  5
F2
330
1D
100
AcDbEntity
  8
1
100
AcDbCircle
 10
22.52007767
 20
11.840548625
 30
0.0
 40
0.159055597
100
AcDbArc
 50
293.119565077
 51
66.88018647200002
  0
ARC
  5
F3
330
1D
100
AcDbEntity
  8
1
100
AcDbCircle
 10
10.576067599
 20
-13.089788442
 30
0.0
 40
27.802733359
100
AcDbArc
 50
64.4153108
 51
67.461812867
  0
ARC
  5
F4
330
1D
100
AcDbEntity
  8
1
100
AcDbCircle
 10
8.037816514
 20
-19.206135393
 30
0.0
 40
34.421057625
100
AcDbArc
 50
67.461812867
 51
67.518298722
  0
ARC
  5
F5
330
1D
100
AcDbEntity
  8
1
100
AcDbCircle
 10
-3.640718809
 20
-205.945023004
 30
0.0
 40
220.277739171
100
AcDbArc
 50
83.354179876
 51
83.524983034
  0
LINE
  5
F6
330
1D
100
AcDbEntity
  8
1
100
AcDbLine
 10
21.852152487
 20
12.850785421
 30
0.0
 11
22.733386671
 21
12.778105938
 31
0.0
  0
LINE
  5
F7
330
1D
100
AcDbEntity
  8
1
100
AcDbLine
 10
22.733386671
 20
12.778105938
 30
0.0
 11
23.627135967
 21
12.761316055
 31
0.0
  0
LINE
  5
F8
330
1D
100
AcDbEntity
  8
1
100
AcDbLine
 10
23.627135967
 20
12.761316055
 30
0.0
 11
24.518210505
 21
12.791955636
 31
0.0
  0
LINE
  5
F9
330
1D
100
AcDbEntity
  8
1
100
AcDbLine
 10
24.518210505
 20
12.791955636
 30
0.0
 11
25.179853727
 21
12.841740416
 31
0.0
  0
LINE
  5
FA
330
1D
100
AcDbEntity
  8
1
100
AcDbLine
 10
25.179853727
 20
12.841740416
 30
0.0
 11
25.83611763
 21
12.916236908
 31
0.0
  0
LINE
  5
FB
330
1D
100
AcDbEntity
  8
1
100
AcDbLine
 10
25.83611763
 20
12.916236908
 30
0.0
 11
26.477307146
 21
13.018691705
 31
0.0
  0
LINE
  5
FC
330
1D
100
AcDbEntity
  8
1
100
AcDbLine
 10
26.477307146
 20
13.018691705
 30
0.0
 11
27.093734657
 21
13.152349533
 31
0.0
  0
LINE
  5
FD
330
1D
100
AcDbEntity
  8
1
100
AcDbLine
 10
27.093734657
 20
13.152349533
 30
0.0
 11
27.421893617
 21
13.242792131
 31
0.0
  0
LINE
  5
FE
330
1D
100
AcDbEntity
  8
1
100
AcDbLine
 10
27.421893617
 20
13.242792131
 30
0.0
 11
27.729116445
 21
13.348928445
 31
0.0
  0
LINE
  5
FF
330
1D
100
AcDbEntity
  8
1
100
AcDbLine
 10
27.729116445
 20
13.348928445
 30
0.0
 11
27.900954773
 21
13.423421213
 31
0.0
  0
LINE
  5
100
330
1D
100
AcDbEntity
  8
1
100
AcDbLine
 10
27.900954773
 20
13.423421213
 30
0.0
 11
28.052093526
 21
13.506788553
 31
0.0
  0
LINE
  5
101
330
1D
100
AcDbEntity
  8
1
100
AcDbLine
 10
28.052093526
 20
13.506788553
 30
0.0
 11
28.20042341
 21
13.633618855
 31
0.0
  0
LINE
  5
102
330
1D
100
AcDbEntity
  8
1
100
AcDbLine
 10
28.20042341
 20
13.633618855
 30
0.0
 11
28.246119683
 21
13.743323067
 31
0.0
  0
LINE
  5
103
330
1D
100
AcDbEntity
  8
1
100
AcDbLine
 10
28.246119683
 20
13.743323067
 30
0.0
 11
28.209095885
 21
13.85090945
 31
0.0
  0
LINE
  5
104
330
1D
100
AcDbEntity
  8
1
100
AcDbLine
 10
28.209095885
 20
13.85090945
 30
0.0
 11
28.071215441
 21
13.9624642
 31
0.0
  0
LINE
  5
105
330
1D
100
AcDbEntity
  8
1
100
AcDbLine
 10
28.071215441
 20
13.9624642
 30
0.0
 11
27.914499929
 21
14.035672673
 31
0.0
  0
LINE
  5
106
330
1D
100
AcDbEntity
  8
1
100
AcDbLine
 10
27.914499929
 20
14.035672673
 30
0.0
 11
27.733611008
 21
14.096804687
 31
0.0
  0
LINE
  5
107
330
1D
100
AcDbEntity
  8
1
100
AcDbLine
 10
27.733611008
 20
14.096804687
 30
0.0
 11
27.323190187
 21
14.194631742
 31
0.0
  0
LINE
  5
108
330
1D
100
AcDbEntity
  8
1
100
AcDbLine
 10
27.323190187
 20
14.194631742
 30
0.0
 11
26.882158657
 21
14.265932867
 31
0.0
  0
LINE
  5
109
330
1D
100
AcDbEntity
  8
1
100
AcDbLine
 10
26.882158657
 20
14.265932867
 30
0.0
 11
26.425322582
 21
14.319530481
 31
0.0
  0
LINE
  5
10A
330
1D
100
AcDbEntity
  8
1
100
AcDbLine
 10
26.425322582
 20
14.319530481
 30
0.0
 11
25.959283549
 21
14.359090562
 31
0.0
  0
ARC
  5
10B
330
1D
100
AcDbEntity
  8
1
100
AcDbCircle
 10
-7.142017594
 20
-448.981950965
 30
0.0
 40
464.521922949
100
AcDbArc
 50
85.913705021
 51
86.502013471
  0
ARC
  5
10C
330
1D
100
AcDbEntity
  8
1
100
AcDbCircle
 10
27.212658838
 20
-29.81426702
 30
0.0
 40
45.321028544
100
AcDbArc
 50
95.863977111
 51
97.49627343700001
  0
LINE
  5
10D
330
1D
100
AcDbEntity
  8
1
100
AcDbLine
 10
22.58253104
 20
15.26774259
 30
0.0
 11
22.63430885
 21
15.275202484
 31
0.0
  0
LINE
  5
10E
330
1D
100
AcDbEntity
  8
1
100
AcDbLine
 10
22.63430885
 20
15.275202484
 30
0.0
 11
22.668790137
 21
15.284973921
 31
0.0
  0
LINE
  5
10F
330
1D
100
AcDbEntity
  8
1
100
AcDbLine
 10
22.668790137
 20
15.284973921
 30
0.0
 11
22.682417249
 21
15.295948626
 31
0.0
  0
LINE
  5
110
330
1D
100
AcDbEntity
  8
1
100
AcDbLine
 10
22.682417249
 20
15.295948626
 30
0.0
 11
22.673128237
 21
15.306839512
 31
0.0
  0
LINE
  5
111
330
1D
100
AcDbEntity
  8
1
100
AcDbLine
 10
22.673128237
 20
15.306839512
 30
0.0
 11
22.641705414
 21
15.316357629
 31
0.0
  0
LINE
  5
112
330
1D
100
AcDbEntity
  8
1
100
AcDbLine
 10
22.641705414
 20
15.316357629
 30
0.0
 11
22.582531819
 21
15.324360315
 31
0.0
  0
ARC
  5
113
330
1D
100
AcDbEntity
  8
1
100
AcDbCircle
 10
18.5524048
 20
-29.81426702
 30
0.0
 40
45.318181798
100
AcDbArc
 50
84.897970203
 51
86.523936122
  0
ARC
  5
114
330
1D
100
AcDbEntity
  8
1
100
AcDbCircle
 10
22.882531819
 20
-29.81426702
 30
0.0
 40
45.314956041
100
AcDbArc
 50
90.37932632999998
 51
92.001344355
  0
LINE
  5
115
330
1D
100
AcDbEntity
  8
1
100
AcDbLine
 10
22.58253104
 20
15.499031895
 30
0.0
 11
22.634226893
 21
15.499451922
 31
0.0
  0
LINE
  5
116
330
1D
100
AcDbEntity
  8
1
100
AcDbLine
 10
22.634226893
 20
15.499451922
 30
0.0
 11
22.65573672
 21
15.499677302
 31
0.0
  0
LINE
  5
117
330
1D
100
AcDbEntity
  8
1
100
AcDbLine
 10
22.65573672
 20
15.499677302
 30
0.0
 11
30.574124371
 21
15.499677302
 31
0.0
  0
LINE
  5
118
330
1D
100
AcDbEntity
  8
1
100
AcDbLine
 10
28.100000759
 20
15.499677302
 30
0.0
 11
28.111334955
 21
15.48004409
 31
0.0
  0
LINE
  5
119
330
1D
100
AcDbEntity
  8
1
100
AcDbLine
 10
28.111334955
 20
15.48004409
 30
0.0
 11
28.140205955
 21
15.430038587
 31
0.0
  0
LINE
  5
11A
330
1D
100
AcDbEntity
  8
1
100
AcDbLine
 10
28.140205955
 20
15.430038587
 30
0.0
 11
28.186554154
 21
15.349759513
 31
0.0
  0
LINE
  5
11B
330
1D
100
AcDbEntity
  8
1
100
AcDbLine
 10
28.186554154
 20
15.349759513
 30
0.0
 11
28.250292008
 21
15.239365191
 31
0.0
  0
LINE
  5
11C
330
1D
100
AcDbEntity
  8
1
100
AcDbLine
 10
28.250292008
 20
15.239365191
 30
0.0
 11
28.331290995
 21
15.099070759
 31
0.0
  0
LINE
  5
11D
330
1D
100
AcDbEntity
  8
1
100
AcDbLine
 10
28.331290995
 20
15.099070759
 30
0.0
 11
28.42939279
 21
14.929152818
 31
0.0
  0
LINE
  5
11E
330
1D
100
AcDbEntity
  8
1
100
AcDbLine
 10
28.42939279
 20
14.929152818
 30
0.0
 11
28.54440554
 21
14.729942919
 31
0.0
  0
LINE
  5
11F
330
1D
100
AcDbEntity
  8
1
100
AcDbLine
 10
28.54440554
 20
14.729942919
 30
0.0
 11
28.676105728
 21
14.501834081
 31
0.0
  0
LINE
  5
120
330
1D
100
AcDbEntity
  8
1
100
AcDbLine
 10
28.676105728
 20
14.501834081
 30
0.0
 11
28.824230721
 21
14.245272407
 31
0.0
  0
LINE
  5
121
330
1D
100
AcDbEntity
  8
1
100
AcDbLine
 10
28.824230721
 20
14.245272407
 30
0.0
 11
28.988493671
 21
13.960761742
 31
0.0
  0
LINE
  5
122
330
1D
100
AcDbEntity
  8
1
100
AcDbLine
 10
28.988493671
 20
13.960761742
 30
0.0
 11
29.168570479
 21
13.648859949
 31
0.0
  0
LINE
  5
123
330
1D
100
AcDbEntity
  8
1
100
AcDbLine
 10
29.168570479
 20
13.648859949
 30
0.0
 11
29.364107241
 21
13.310179838
 31
0.0
  0
LINE
  5
124
330
1D
100
AcDbEntity
  8
1
100
AcDbLine
 10
29.364107241
 20
13.310179838
 30
0.0
 11
29.574722116
 21
12.945384511
 31
0.0
  0
LINE
  5
125
330
1D
100
AcDbEntity
  8
1
100
AcDbLine
 10
29.574722116
 20
12.945384511
 30
0.0
 11
29.799999734
 21
12.555191086
 31
0.0
  0
LINE
  5
126
330
1D
100
AcDbEntity
  8
1
100
AcDbLine
 10
29.799999734
 20
12.555191086
 30
0.0
 11
29.799999734
 21
5.196152047
 31
0.0
  0
ARC
  5
127
330
1D
100
AcDbEntity
  8
1
100
AcDbCircle
 10
31.800010361
 20
5.196158411
 30
0.0
 40
2.000010627
100
AcDbArc
 50
180.000182305
 51
239.999829654
  0
LINE
  5
128
330
1D
100
AcDbEntity
  8
1
100
AcDbLine
 10
30.799999898
 20
3.464101373
 30
0.0
 11
31.787011837
 21
2.894250934
 31
0.0
  0
LINE
  5
129
330
1D
100
AcDbEntity
  8
1
100
AcDbLine
 10
31.787011837
 20
2.894250934
 30
0.0
 11
32.781094377
 21
2.320316413
 31
0.0
  0
LINE
  5
12A
330
1D
100
AcDbEntity
  8
1
100
AcDbLine
 10
32.781094377
 20
2.320316413
 30
0.0
 11
33.780846809
 21
1.743108176
 31
0.0
  0
LINE
  5
12B
330
1D
100
AcDbEntity
  8
1
100
AcDbLine
 10
33.780846809
 20
1.743108176
 30
0.0
 11
34.784860974
 21
1.163440316
 31
0.0
  0
LINE
  5
12C
330
1D
100
AcDbEntity
  8
1
100
AcDbLine
 10
34.784860974
 20
1.163440316
 30
0.0
 11
35.79172126
 21
0.582130709
 31
0.0
  0
LINE
  5
12D
330
1D
100
AcDbEntity
  8
1
100
AcDbLine
 10
35.79172126
 20
0.582130709
 30
0.0
 11
36.800000881
 21
-0.000000207
 31
0.0
  0
LINE
  5
12E
330
1D
100
AcDbEntity
  8
1
100
AcDbLine
 10
36.800000881
 20
0.99999984
 30
0.0
 11
36.800000881
 21
-1.000000255
 31
0.0
  0
ARC
  5
12F
330
1D
100
AcDbEntity
  8
1
100
AcDbCircle
 10
41.799970023
 20
-1.000010588
 30
0.0
 40
4.999969142
100
AcDbArc
 50
179.999881585
 51
208.310840286
  0
ARC
  5
130
330
1D
100
AcDbEntity
  8
1
100
AcDbCircle
 10
41.800202081
 20
-0.999851284
 30
0.0
 40
5.000248994
100
AcDbArc
 50
208.311186281
 51
224.453331339
  0
ARC
  5
131
330
1D
100
AcDbEntity
  8
1
100
AcDbCircle
 10
41.800000065
 20
-1.000000207
 30
0.0
 40
5.0
100
AcDbArc
 50
224.45373439
 51
226.765988899
  0
ARC
  5
132
330
1D
100
AcDbEntity
  8
1
100
AcDbCircle
 10
82.488823432
 20
-1.700000207
 30
0.0
 40
44.211769862
100
AcDbArc
 50
183.816526425
 51
185.344722231
  0
ARC
  5
133
330
1D
100
AcDbEntity
  8
1
100
AcDbCircle
 10
45.685805432
 20
-5.143050571
 30
0.0
 40
7.238753526
100
AcDbArc
 50
185.345024151
 51
192.606993773
  0
ARC
  5
134
330
1D
100
AcDbEntity
  8
1
100
AcDbCircle
 10
40.613109825
 20
-6.27758253
 30
0.0
 40
2.040734337
100
AcDbArc
 50
192.606993773
 51
207.00288411
  0
ARC
  5
135
330
1D
100
AcDbEntity
  8
1
100
AcDbCircle
 10
38.869676606
 20
-7.166017099
 30
0.0
 40
0.083983109
100
AcDbArc
 50
207.002623801
 51
332.997376199
  0
ARC
  5
137
330
1D
100
AcDbEntity
  8
1
100
AcDbCircle
 10
37.126243388
 20
-6.27758253
 30
0.0
 40
2.040734337
100
AcDbArc
 50
332.9971158899999
 51
347.393006227
  0
ARC
  5
138
330
1D
100
AcDbEntity
  8
1
100
AcDbCircle
 10
32.053547781
 20
-5.143050571
 30
0.0
 40
7.238753526
100
AcDbArc
 50
347.393006227
 51
354.654975849
  0
ARC
  5
139
330
1D
100
AcDbEntity
  8
1
100
AcDbCircle
 10
-4.74947022
 20
-1.700000207
 30
0.0
 40
44.202475332
100
AcDbArc
 50
354.655277769
 51
355.282273949
  0
ARC
  5
13A
330
1D
100
AcDbEntity
  8
1
100
AcDbCircle
 10
41.800000065
 20
-1.000000207
 30
0.0
 40
5.0
100
AcDbArc
 50
240.137235232
 51
245.16542896
  0
LINE
  5
13B
330
1D
100
AcDbEntity
  8
1
100
AcDbLine
 10
39.700001543
 20
-5.537620953
 30
0.0
 11
39.700001543
 21
-6.455803497
 31
0.0
  0
LINE
  5
13C
330
1D
100
AcDbEntity
  8
CUT
100
AcDbLine
 10
39.700001543
 20
-6.455803497
 30
0.0
 11
39.605405246
 21
-6.54317925
 31
0.0
  0
LINE
  5
13D
330
1D
100
AcDbEntity
  8
1
100
AcDbLine
 10
39.605405246
 20
-6.54317925
 30
0.0
 11
39.395197782
 21
-6.505924419
 31
0.0
  0
ARC
  5
13E
330
1D
100
AcDbEntity
  8
1
100
AcDbCircle
 10
39.458775043
 20
-6.541007539
 30
0.0
 40
0.07456417
100
AcDbArc
 50
153.326885058
 51
167.639176193
  0
ARC
  5
13F
330
1D
100
AcDbEntity
  8
1
100
AcDbCircle
 10
39.646141273
 20
-6.582068391
 30
0.0
 40
0.266376833
100
AcDbArc
 50
167.639176193
 51
174.834712783
  0
ARC
  5
140
330
1D
100
AcDbEntity
  8
1
100
AcDbCircle
 10
41.01638436
 20
-6.70593151
 30
0.0
 40
1.642206834
100
AcDbArc
 50
174.834774516
 51
179.97850863
  0
LINE
  5
141
330
1D
100
AcDbEntity
  8
1
100
AcDbLine
 10
39.374176477
 20
-6.705315525
 30
0.0
 11
39.374176477
 21
-14.347474298
 31
0.0
  0
ARC
  5
142
330
1D
100
AcDbEntity
  8
1
100
AcDbCircle
 10
29.960722165
 20
6.244059983
 30
0.0
 40
1.388610345
100
AcDbArc
 50
264.67016652
 51
280.62483555
  0
LINE
  5
143
330
1D
100
AcDbEntity
  8
1
100
AcDbLine
 10
21.199999442
 20
7.24959865
 30
0.0
 11
21.214582091
 21
7.418725898
 31
0.0
  0
LINE
  5
144
330
1D
100
AcDbEntity
  8
1
100
AcDbLine
 10
21.214582091
 20
7.418725898
 30
0.0
 11
21.299999272
 21
7.766808641
 31
0.0
  0
ARC
  5
145
330
1D
100
AcDbEntity
  8
1
100
AcDbCircle
 10
34.213504561
 20
8.721739343
 30
0.0
 40
0.6
100
AcDbArc
 50
359.813646787
 51
120.186353213
  0
ARC
  5
146
330
1D
100
AcDbEntity
  8
1
100
AcDbCircle
 10
35.063500065
 20
8.718974743
 30
0.0
 40
0.25
100
AcDbArc
 50
179.813646786
 51
0.1863532130000117
  0
ARC
  5
148
330
1D
100
AcDbEntity
  8
1
100
AcDbCircle
 10
35.913495569
 20
8.721739343
 30
0.0
 40
0.6
100
AcDbArc
 50
59.813646785
 51
180.186353214
  0
ARC
  5
149
330
1D
100
AcDbEntity
  8
1
100
AcDbCircle
 10
36.340887535
 20
9.456474743
 30
0.0
 40
0.25
100
AcDbArc
 50
239.813646787
 51
60.18635321499998
  0
ARC
  5
14B
330
1D
100
AcDbEntity
  8
1
100
AcDbCircle
 10
36.763491073
 20
10.193974743
 30
0.0
 40
0.6
100
AcDbArc
 50
119.813646786
 51
240.186353214
  0
ARC
  5
14C
330
1D
100
AcDbEntity
  8
1
100
AcDbCircle
 10
36.340887535
 20
10.931474743
 30
0.0
 40
0.25
100
AcDbArc
 50
299.813646786
 51
120.186353216
  0
ARC
  5
14E
330
1D
100
AcDbEntity
  8
1
100
AcDbCircle
 10
35.913495569
 20
11.666210142
 30
0.0
 40
0.6
100
AcDbArc
 50
179.813646787
 51
300.186353213
  0
ARC
  5
14F
330
1D
100
AcDbEntity
  8
1
100
AcDbCircle
 10
35.063500065
 20
11.668974743
 30
0.0
 40
0.25
100
AcDbArc
 50
359.813646786
 51
180.186353213
  0
ARC
  5
151
330
1D
100
AcDbEntity
  8
1
100
AcDbCircle
 10
34.213504561
 20
11.666210142
 30
0.0
 40
0.6
100
AcDbArc
 50
239.813646785
 51
0.186353214
  0
ARC
  5
152
330
1D
100
AcDbEntity
  8
1
100
AcDbCircle
 10
33.786112594
 20
10.931474743
 30
0.0
 40
0.25
100
AcDbArc
 50
59.81364678599999
 51
240.186353215
  0
ARC
  5
154
330
1D
100
AcDbEntity
  8
1
100
AcDbCircle
 10
33.363509056
 20
10.193974743
 30
0.0
 40
0.6
100
AcDbArc
 50
299.813646786
 51
60.18635321399999
  0
ARC
  5
155
330
1D
100
AcDbEntity
  8
1
100
AcDbCircle
 10
33.786112594
 20
9.456474743
 30
0.0
 40
0.25
100
AcDbArc
 50
119.813646786
 51
300.186353213
  0
LINE
  5
157
330
1D
100
AcDbEntity
  8
1
100
AcDbLine
 10
21.199999442
 20
-7.249599064
 30
0.0
 11
21.224634787
 21
-7.477957031
 31
0.0
  0
LINE
  5
158
330
1D
100
AcDbEntity
  8
1
100
AcDbLine
 10
21.224634787
 20
-7.477957031
 30
0.0
 11
21.299999272
 21
-7.766809056
 31
0.0
  0
ARC
  5
159
330
1D
100
AcDbEntity
  8
1
100
AcDbCircle
 10
22.004396894
 20
-10.610226582
 30
0.0
 40
0.80818348
100
AcDbArc
 50
185.5480995
 51
209.357078048
  0
ARC
  5
15A
330
1D
100
AcDbEntity
  8
1
100
AcDbCircle
 10
21.714744832
 20
-12.702034793
 30
0.0
 40
0.521198603
100
AcDbArc
 50
189.025538625
 51
217.273525898
  0
LINE
  5
15B
330
1D
100
AcDbEntity
  8
1
100
AcDbLine
 10
21.299999272
 20
-14.031049072
 30
0.0
 11
21.265687486
 21
-14.004881701
 31
0.0
  0
LINE
  5
15C
330
1D
100
AcDbEntity
  8
1
100
AcDbLine
 10
21.265687486
 20
-14.004881701
 30
0.0
 11
21.234439751
 21
-13.987211718
 31
0.0
  0
LINE
  5
15D
330
1D
100
AcDbEntity
  8
1
100
AcDbLine
 10
21.234439751
 20
-13.987211718
 30
0.0
 11
21.211447259
 21
-13.983017041
 31
0.0
  0
LINE
  5
15E
330
1D
100
AcDbEntity
  8
1
100
AcDbLine
 10
21.211447259
 20
-13.983017041
 30
0.0
 11
21.199999442
 21
-14.001139647
 31
0.0
  0
ARC
  5
15F
330
1D
100
AcDbEntity
  8
1
100
AcDbCircle
 10
21.670000858
 20
-14.005403235
 30
0.0
 40
0.49058602
100
AcDbArc
 50
196.656420479
 51
221.044197144
  0
LINE
  5
160
330
1D
100
AcDbEntity
  8
1
100
AcDbLine
 10
21.299999272
 20
-14.951653986
 30
0.0
 11
21.259456938
 21
-14.918056524
 31
0.0
  0
LINE
  5
161
330
1D
100
AcDbEntity
  8
1
100
AcDbLine
 10
21.259456938
 20
-14.918056524
 30
0.0
 11
21.227577766
 21
-14.896114564
 31
0.0
  0
LINE
  5
162
330
1D
100
AcDbEntity
  8
1
100
AcDbLine
 10
21.227577766
 20
-14.896114564
 30
0.0
 11
21.199999442
 21
-14.894546217
 31
0.0
  0
ARC
  5
163
330
1D
100
AcDbEntity
  8
1
100
AcDbCircle
 10
21.873974695
 20
10.651229509
 30
0.0
 40
0.674997404
100
AcDbArc
 50
148.248367294
 51
176.846455163
  0
ARC
  5
164
330
1D
100
AcDbEntity
  8
1
100
AcDbCircle
 10
20.920970314
 20
15.770472429
 30
0.0
 40
0.517174278
100
AcDbArc
 50
302.651398253
 51
317.128751256
  0
ARC
  5
165
330
1D
100
AcDbEntity
  8
1
100
AcDbCircle
 10
21.572893888
 20
14.822076002
 30
0.0
 40
0.403588789
100
AcDbArc
 50
132.545070533
 51
157.510027579
  0
ARC
  5
167
330
1D
100
AcDbEntity
  8
1
100
AcDbCircle
 10
30.875000065
 20
5.201949695
 30
0.0
 40
0.4
100
AcDbArc
 50
180.0
 51
279.999982312
  0
ARC
  5
169
330
1D
100
AcDbEntity
  8
1
100
AcDbCircle
 10
39.600000065
 20
6.740402602
 30
0.0
 40
0.4
100
AcDbArc
 50
280.0
 51
0.000012462
  0
LINE
  5
16A
330
1D
100
AcDbEntity
  8
1
100
AcDbLine
 10
39.999999171
 20
6.740402689
 30
0.0
 11
40.000000065
 21
15.59999979
 31
0.0
  0
ARC
  5
16B
330
1D
100
AcDbEntity
  8
1
100
AcDbCircle
 10
39.600000065
 20
15.59999979
 30
0.0
 40
0.4
100
AcDbArc
 50
0.0
 51
99.99986000899999
  0
ARC
  5
16D
330
1D
100
AcDbEntity
  8
1
100
AcDbCircle
 10
30.875000065
 20
14.061546884
 30
0.0
 40
0.4
100
AcDbArc
 50
100.0
 51
180.0
  0
ARC
  5
16E
330
1D
100
AcDbEntity
  8
1
100
AcDbCircle
 10
30.837607209
 20
15.48503506
 30
0.0
 40
0.321337401
100
AcDbArc
 50
239.944024638
 51
276.9816740819999
  0
LINE
  5
16F
330
1D
100
AcDbEntity
  8
1
100
AcDbLine
 10
30.876666372
 20
15.166080349
 30
0.0
 11
34.835614329
 21
15.166080349
 31
0.0
  0
ARC
  5
170
330
1D
100
AcDbEntity
  8
1
100
AcDbCircle
 10
167.115783246
 20
-0.000000207
 30
0.0
 40
129.76152466
100
AcDbArc
 50
181.488740724
 51
185.114988361
  0
ARC
  5
171
330
1D
100
AcDbEntity
  8
1
100
AcDbCircle
 10
58.375287791
 20
-9.733456953
 30
0.0
 40
20.579460177
100
AcDbArc
 50
185.115119474
 51
192.155198864
  0
ARC
  5
172
330
1D
100
AcDbEntity
  8
1
100
AcDbCircle
 10
43.796347827
 20
-12.873604802
 30
0.0
 40
5.66617687
100
AcDbArc
 50
192.155198864
 51
203.44287414
  0
LINE
  5
173
330
1D
100
AcDbEntity
  8
1
100
AcDbLine
 10
38.574177836
 20
-15.138080551
 30
0.0
 11
38.574177836
 21
-15.166080764
 31
0.0
  0
ARC
  5
174
330
1D
100
AcDbEntity
  8
1
100
AcDbCircle
 10
38.570221537
 20
-14.333709946
 30
0.0
 40
0.804380335
100
AcDbArc
 50
270.281807177
 51
357.738385662
  0
ARC
  5
175
330
1D
100
AcDbEntity
  8
1
100
AcDbCircle
 10
44.319463419
 20
-12.12440744
 30
0.0
 40
5.429561468
100
AcDbArc
 50
192.606993773
 51
204.377630643
  0
ARC
  5
176
330
1D
100
AcDbEntity
  8
1
100
AcDbCircle
 10
57.755251783
 20
-9.119430901
 30
0.0
 40
19.172914744
100
AcDbArc
 50
185.345024151
 51
192.606993773
  0
ARC
  5
177
330
1D
100
AcDbEntity
  8
1
100
AcDbCircle
 10
155.233515676
 20
-0.000000207
 30
0.0
 40
117.076826554
100
AcDbArc
 50
182.203363702
 51
185.344722231
  0
ARC
  5
178
330
1D
100
AcDbEntity
  8
1
100
AcDbCircle
 10
41.203821075
 20
-1.8596543
 30
0.0
 40
3.958639141
100
AcDbArc
 50
224.609692907
 51
241.425126927
  0
ARC
  5
179
330
1D
100
AcDbEntity
  8
1
100
AcDbCircle
 10
21.605008223
 20
-14.799612722
 30
0.0
 40
0.441934757
100
AcDbArc
 50
203.588261288
 51
226.356640592
  0
ARC
  5
17A
330
1D
100
AcDbEntity
  8
1
100
AcDbCircle
 10
21.051302377
 20
-15.614542564
 30
0.0
 40
0.316605526
100
AcDbArc
 50
38.232102467
 51
61.987748012
  0
ARC
  5
17B
330
1D
100
AcDbEntity
  8
1
100
AcDbCircle
 10
21.847198083
 20
-14.88147675
 30
0.0
 40
0.805842705
100
AcDbArc
 50
216.569695275
 51
227.2313893
  0
ARC
  5
17C
330
1D
100
AcDbEntity
  8
1
100
AcDbCircle
 10
21.823120103
 20
14.903080682
 30
0.0
 40
0.773638856
100
AcDbArc
 50
132.546022955
 51
143.652892475
  0
LINE
  5
17D
330
1D
100
AcDbEntity
  8
CUT
100
AcDbLine
 10
39.512544935
 20
-6.8137862
 30
0.0
 11
39.59999985
 21
-6.740403103
 31
0.0
  0
LINE
  5
17E
330
1D
100
AcDbEntity
  8
CUT
100
AcDbLine
 10
39.59999985
 20
-6.740403103
 30
0.0
 11
39.999999171
 21
-6.740403103
 31
0.0
  0
LINE
  5
17F
330
1D
100
AcDbEntity
  8
CUT
100
AcDbLine
 10
39.999999171
 20
-6.740403103
 30
0.0
 11
39.999999171
 21
-15.599999784
 31
0.0
  0
LINE
  5
180
330
1D
100
AcDbEntity
  8
CUT
100
AcDbLine
 10
39.999999171
 20
-15.599999784
 30
0.0
 11
39.59999985
 21
-15.599999784
 31
0.0
  0
LINE
  5
181
330
1D
100
AcDbEntity
  8
CUT
100
AcDbLine
 10
39.59999985
 20
-15.599999784
 30
0.0
 11
39.512544935
 21
-15.495775475
 31
0.0
  0
LINE
  5
182
330
1D
100
AcDbEntity
  8
CUT
100
AcDbLine
 10
39.512544935
 20
-15.495775475
 30
0.0
 11
39.512544935
 21
-6.8137862
 31
0.0
  0
ARC
  5
183
330
1D
100
AcDbEntity
  8
CUT
100
AcDbCircle
 10
39.600000065
 20
-15.600000205
 30
0.0
 40
0.4
100
AcDbArc
 50
260.0
 51
0.0
  0
ARC
  5
184
330
1D
100
AcDbEntity
  8
CUT
100
AcDbCircle
 10
39.600000065
 20
-6.740403016
 30
0.0
 40
0.4
100
AcDbArc
 50
0.0
 51
75.52248781400002
  0
LINE
  5
185
330
1D
100
AcDbEntity
  8
1
100
AcDbLine
 10
39.700001543
 20
6.35310428
 30
0.0
 11
39.700000065
 21
5.537620314
 31
0.0
  0
ARC
  5
186
330
1D
100
AcDbEntity
  8
1
100
AcDbCircle
 10
41.800000065
 20
0.999999793
 30
0.0
 40
5.0
100
AcDbArc
 50
114.83458749
 51
179.999999456
  0
LINE
  5
188
330
1D
100
AcDbEntity
  8
1
100
AcDbLine
 10
30.676666712
 20
14.408913234
 30
0.0
 11
30.676666091
 21
15.467708091
 31
0.0
  0
ARC
  5
189
330
1D
100
AcDbEntity
  8
1
100
AcDbCircle
 10
30.562730483
 20
15.227824378
 30
0.0
 40
0.265566411
100
AcDbArc
 50
64.594066067
 51
87.60002637699999
  0
LINE
  5
18B
330
1D
100
AcDbEntity
  8
1
100
AcDbLine
 10
30.216712569
 20
4.879249518
 30
0.0
 11
30.260602077
 21
4.887027924
 31
0.0
  0
LINE
  5
18C
330
1D
100
AcDbEntity
  8
1
100
AcDbLine
 10
30.260602077
 20
4.887027924
 30
0.0
 11
30.314818089
 21
4.896636379
 31
0.0
  0
LINE
  5
18D
330
1D
100
AcDbEntity
  8
1
100
AcDbLine
 10
30.314818089
 20
4.896636379
 30
0.0
 11
30.358232622
 21
4.904330501
 31
0.0
  0
LINE
  5
18E
330
1D
100
AcDbEntity
  8
1
100
AcDbLine
 10
30.358232622
 20
4.904330501
 30
0.0
 11
30.570956012
 21
4.942030904
 31
0.0
  0
LINE
  5
18F
330
1D
100
AcDbEntity
  8
1
100
AcDbLine
 10
22.675516148
 20
9.219544732
 30
0.0
 11
22.67848893
 21
9.202652403
 31
0.0
  0
LINE
  5
190
330
1D
100
AcDbEntity
  8
1
100
AcDbLine
 10
22.67848893
 20
9.202652403
 30
0.0
 11
22.679230263
 21
9.098577106
 31
0.0
  0
LINE
  5
191
330
1D
100
AcDbEntity
  8
CUT
100
AcDbLine
 10
39.59999985
 20
-15.599999784
 30
0.0
 11
39.530541812
 21
-15.993923156
 31
0.0
  0
LINE
  5
192
330
1D
100
AcDbEntity
  8
CUT
100
AcDbLine
 10
39.530541812
 20
-15.993923156
 30
0.0
 11
34.835614329
 21
-15.166080764
 31
0.0
  0
LINE
  5
193
330
1D
100
AcDbEntity
  8
1
100
AcDbLine
 10
28.50000008
 20
4.270830916
 30
0.0
 11
28.50000008
 21
-4.27083133
 31
0.0
  0
LINE
  5
194
330
1D
100
AcDbEntity
  8
1
100
AcDbLine
 10
22.65573672
 20
4.270830916
 30
0.0
 11
22.65573672
 21
-4.27083133
 31
0.0
  0
LINE
  5
195
330
1D
100
AcDbEntity
  8
1
100
AcDbLine
 10
37.30173788
 20
-3.168281375
 30
0.0
 11
37.561271404
 21
-3.64717047
 31
0.0
  0
LINE
  5
196
330
1D
100
AcDbEntity
  8
1
100
AcDbLine
 10
37.985164737
 20
-4.231057337
 30
0.0
 11
38.31134743
 21
-4.563896193
 31
0.0
  0
LINE
  5
197
330
1D
100
AcDbEntity
  8
1
100
AcDbLine
 10
21.199999442
 20
15.361597554
 30
0.0
 11
21.199999442
 21
-15.361597969
 31
0.0
  0
LINE
  5
198
330
1D
100
AcDbEntity
  8
1
100
AcDbLine
 10
37.642750954
 20
-15.166080764
 30
0.0
 11
39.512544935
 21
-15.495775475
 31
0.0
  0
LINE
  5
199
330
1D
100
AcDbEntity
  8
CUT
100
AcDbLine
 10
39.512544935
 20
-6.8137862
 30
0.0
 11
39.374176477
 21
-6.789388343
 31
0.0
  0
LINE
  5
19A
330
1D
100
AcDbEntity
  8
CUT
100
AcDbLine
 10
39.59999985
 20
-6.740403103
 30
0.0
 11
39.64049003
 21
-6.510772484
 31
0.0
  0
LINE
  5
19B
330
1D
100
AcDbEntity
  8
1
100
AcDbLine
 10
30.574124371
 20
14.325124935
 30
0.0
 11
30.574124371
 21
15.499677302
 31
0.0
  0
LINE
  5
19C
330
1D
100
AcDbEntity
  8
1
100
AcDbLine
 10
29.799999734
 20
8.055262991
 30
0.0
 11
30.474999984
 21
8.174891376
 31
0.0
  0
LINE
  5
19D
330
1D
100
AcDbEntity
  8
1
100
AcDbLine
 10
30.876666372
 20
15.166080349
 30
0.0
 11
30.876666372
 21
14.468011239
 31
0.0
  0
LINE
  5
19F
330
1D
100
AcDbEntity
  8
SK2
100
AcDbLine
 10
53.290026348
 20
-16.000000205
 30
0.0
 11
39.600000065
 21
-16.000000205
 31
0.0
  0
LINE
  5
1A0
330
1D
100
AcDbEntity
  8
SK2
100
AcDbLine
 10
51.290026348
 20
-16.000000205
 30
0.0
 11
50.840026348
 21
-12.500000205
 31
0.0
  0
LINE
  5
1A1
330
1D
100
AcDbEntity
  8
SK2
100
AcDbLine
 10
50.840026348
 20
-12.500000205
 30
0.0
 11
51.740026348
 21
-12.500000205
 31
0.0
  0
LINE
  5
1A2
330
1D
100
AcDbEntity
  8
SK2
100
AcDbLine
 10
51.740026348
 20
-12.500000205
 30
0.0
 11
51.290026348
 21
-16.000000205
 31
0.0
  0
LINE
  5
1A3
330
1D
100
AcDbEntity
  8
SK2
100
AcDbLine
 10
53.290026348
 20
15.99999979
 30
0.0
 11
39.600000065
 21
15.99999979
 31
0.0
  0
LINE
  5
1A4
330
1D
100
AcDbEntity
  8
SK2
100
AcDbLine
 10
51.290026348
 20
15.99999979
 30
0.0
 11
51.740026348
 21
12.49999979
 31
0.0
  0
LINE
  5
1A5
330
1D
100
AcDbEntity
  8
SK2
100
AcDbLine
 10
51.740026348
 20
12.49999979
 30
0.0
 11
50.840026348
 21
12.49999979
 31
0.0
  0
LINE
  5
1A6
330
1D
100
AcDbEntity
  8
SK2
100
AcDbLine
 10
50.840026348
 20
12.49999979
 30
0.0
 11
51.290026348
 21
15.99999979
 31
0.0
  0
LINE
  5
1A7
330
1D
100
AcDbEntity
  8
SK2
100
AcDbLine
 10
51.290026348
 20
-12.500000205
 30
0.0
 11
51.290026348
 21
12.49999979
 31
0.0
  0
TEXT
  5
1A8
330
1D
100
AcDbEntity
  8
SK2
100
AcDbText
 10
49.790026348
 20
-3.149688065
 30
0.0
 40
3.5
  1
32
 50
90.0
  7
BMG_Text
100
AcDbText
  0
CIRCLE
  5
1A9
330
1D
100
AcDbEntity
  8
SK2
100
AcDbCircle
 10
48.540026348
 20
-5.399688065
 30
0.0
 40
1.25
  0
LINE
  5
1AA
330
1D
100
AcDbEntity
  8
SK2
100
AcDbLine
 10
49.790026348
 20
-6.649688065
 30
0.0
 11
47.290026348
 21
-4.149688065
 31
0.0
  0
TEXT
  5
1AB
330
1D
100
AcDbEntity
  8
SK2
100
AcDbText
 10
49.790026348
 20
3.111392712729455
 30
0.0
 40
3.5
  1
-42
 50
90.0
  7
BMG_Text
100
AcDbText
  0
LINE
  5
253
330
1D
100
AcDbEntity
  8
1
100
AcDbLine
 10
30.474999984
 20
8.174891376
 30
0.0
 11
30.475000065
 21
14.061546884
 31
0.0
  0
LINE
  5
259
330
1D
100
AcDbEntity
  8
1
100
AcDbLine
 10
30.80554079393323
 20
14.45546998520488
 30
0.0
 11
34.835614329
 21
15.166080349
 31
0.0
  0
LINE
  5
25A
330
1D
100
AcDbEntity
  8
3
100
AcDbLine
 10
34.835614329
 20
15.166080349
 30
0.0
 11
39.600000065
 21
15.59999979
 31
0.0
  0
LINE
  5
25B
330
1D
100
AcDbEntity
  8
3
100
AcDbLine
 10
39.600000065
 20
15.59999979
 30
0.0
 11
39.600000065
 21
6.740402602
 31
0.0
  0
LINE
  5
25C
330
1D
100
AcDbEntity
  8
3
100
AcDbLine
 10
39.600000065
 20
6.740402602
 30
0.0
 11
39.700001543
 21
6.35310428
 31
0.0
  0
LINE
  5
25F
330
1D
100
AcDbEntity
  8
1
100
AcDbLine
 10
39.52514107503577
 20
15.99999979
 30
0.0
 11
30.80554079393323
 21
14.45546998520488
 31
0.0
  0
LINE
  5
261
330
1D
100
AcDbEntity
  8
1
100
AcDbLine
 10
30.475000065
 20
14.061546884
 30
0.0
 11
30.475000065
 21
5.201949695
 31
0.0
  0
LINE
  5
262
330
1D
100
AcDbEntity
  8
1
100
AcDbLine
 10
30.944459205
 20
4.808026624
 30
0.0
 11
39.669459336
 21
6.3464795
 31
0.0
  0
LINE
  5
263
330
1D
100
AcDbEntity
  8
1
100
AcDbLine
 10
39.669459336
 20
6.3464795
 30
0.0
 11
39.700001543
 21
6.35310428
 31
0.0
  0
LINE
  5
26E
330
1D
100
AcDbEntity
  8
NOCUT
100
AcDbLine
 10
0.0
 20
0.0
 30
0.0
 11
0.0
 21
14.750000089
 31
0.0
  0
LINE
  5
26F
330
1D
100
AcDbEntity
  8
NOCUT
100
AcDbLine
 10
0.0
 20
14.750000089
 30
0.0
 11
0.750000007
 21
15.499999747
 31
0.0
  0
LINE
  5
270
330
1D
100
AcDbEntity
  8
NOCUT
100
AcDbLine
 10
0.750000007
 20
15.499999747
 30
0.0
 11
22.2
 21
15.494990055
 31
0.0
  0
LINE
  5
271
330
1D
100
AcDbEntity
  8
NOCUT
100
AcDbLine
 10
22.2
 20
15.494990055
 30
0.0
 11
30.574124371
 21
15.499677302
 31
0.0
  0
LINE
  5
272
330
1D
100
AcDbEntity
  8
NOCUT
100
AcDbLine
 10
30.574124371
 20
15.499677302
 30
0.0
 11
30.574124371
 21
15.49314625415736
 31
0.0
  0
LINE
  5
273
330
1D
100
AcDbEntity
  8
NOCUT
100
AcDbLine
 10
30.574124371
 20
15.49314625415736
 30
0.0
 11
30.6265402718485
 21
15.48561078085812
 31
0.0
  0
LINE
  5
274
330
1D
100
AcDbEntity
  8
NOCUT
100
AcDbLine
 10
30.6265402718485
 20
15.48561078085812
 30
0.0
 11
30.67666609149764
 21
15.46770809101048
 31
0.0
  0
LINE
  5
275
330
1D
100
AcDbEntity
  8
NOCUT
100
AcDbLine
 10
30.67666609149764
 20
15.46770809101048
 30
0.0
 11
30.67666609149764
 21
15.20574205115224
 31
0.0
  0
ARC
  5
276
330
1D
100
AcDbEntity
  8
NOCUT
100
AcDbCircle
 10
30.83760720900001
 20
15.48503506000001
 30
0.0
 40
0.3213374010000083
100
AcDbArc
 50
239.9440246380002
 51
276.9816740819993
  0
ARC
  5
27A
330
1D
100
AcDbEntity
  8
NOCUT
100
AcDbCircle
 10
41.79999828628126
 20
1.000001828115715
 30
0.0
 40
4.999997405281652
100
AcDbArc
 50
114.8345787906041
 51
180.0000227821397
  0
LINE
  5
27B
330
1D
100
AcDbEntity
  8
NOCUT
100
AcDbLine
 10
30.876666372
 20
15.166080349
 30
0.0
 11
34.835614329
 21
15.166080349
 31
0.0
  0
LINE
  5
27E
330
1D
100
AcDbEntity
  8
NOCUT
100
AcDbLine
 10
0.0
 20
0.0
 30
0.0
 11
36.79390090421219
 21
0.0
 31
0.0
  0
LINE
  5
27F
330
1D
100
AcDbEntity
  8
NOCUT
100
AcDbLine
 10
36.79390090421219
 20
0.0
 30
0.0
 11
36.79390090421219
 21
0.9905569991683718
 31
0.0
  0
LWPOLYLINE
  5
286
330
1D
100
AcDbEntity
  8
INFTOTAL
100
AcDbPolyline
 90
        4
 70
     1
 43
0.0
 10
-52.27970514767264
 20
40.50270024313098
 10
-52.27970514767264
 20
-35.13886496344308
 10
69.24653324727353
 20
-35.13886496344308
 10
69.24653324727353
 20
40.50270024313098
  0
LINE
  5
2C2
330
1D
100
AcDbEntity
  8
SK4
100
AcDbLine
 10
-22.884901567
 20
0.0
 30
0.0
 11
42.261020465
 21
0.0
 31
0.0
  0
LINE
  5
2C6
330
1D
100
AcDbEntity
  8
4
100
AcDbLine
 10
0.0
 20
0.0
 30
0.0
 11
42.261020465
 21
0.0
 31
0.0
  0
LINE
  5
2C8
330
1D
100
AcDbEntity
  8
3
100
AcDbLine
 10
-0.0000000000000071
 20
4.499998093
 30
0.0
 11
2.000019023
 21
4.499998093
 31
0.0
  0
LINE
  5
2C9
330
1D
100
AcDbEntity
  8
3
100
AcDbLine
 10
0.0
 20
-4.500001907
 30
0.0
 11
2.000017635
 21
-4.500001907
 31
0.0
  0
LINE
  5
2D1
330
1D
100
AcDbEntity
  8
SK3
100
AcDbLine
 10
-0.0000000000000071
 20
4.499998093
 30
0.0
 11
-20.0
 21
4.499998093
 31
0.0
  0
LINE
  5
2D4
330
1D
100
AcDbEntity
  8
SK3
100
AcDbLine
 10
0.0
 20
-4.500001907
 30
0.0
 11
-19.999999996
 21
-4.500001907
 31
0.0
  0
LINE
  5
2DC
330
1D
100
AcDbEntity
  8
SK3
100
AcDbLine
 10
-0.378405447
 20
4.500050098
 30
0.0
 11
0.0
 21
4.663151562721659
 31
0.0
  0
LINE
  5
2DD
330
1D
100
AcDbEntity
  8
SK3
100
AcDbLine
 10
0.0
 20
-4.663151595177666
 30
0.0
 11
-0.378405527
 21
-4.500050098
 31
0.0
  0
LINE
  5
2DF
330
1D
100
AcDbEntity
  8
3
100
AcDbLine
 10
0.0
 20
-4.663151595177666
 30
0.0
 11
22.500000894
 21
-14.361170177
 31
0.0
  0
LINE
  5
2E0
330
1D
100
AcDbEntity
  8
3
100
AcDbLine
 10
22.500000894
 20
14.361170265
 30
0.0
 11
0.0
 21
4.663151562721659
 31
0.0
  0
LINE
  5
313
330
1D
100
AcDbEntity
  8
NOCUT
100
AcDbLine
 10
34.835614329
 20
15.166080349
 30
0.0
 11
39.600000065
 21
15.59999979
 31
0.0
  0
LINE
  5
314
330
1D
100
AcDbEntity
  8
NOCUT
100
AcDbLine
 10
39.600000065
 20
15.59999979
 30
0.0
 11
39.600000065
 21
6.740402602
 31
0.0
  0
LINE
  5
316
330
1D
100
AcDbEntity
  8
NOCUT
100
AcDbLine
 10
39.700001543
 20
6.353104279999999
 30
0.0
 11
39.600000065
 21
6.740402602
 31
0.0
  0
LINE
  5
317
330
1D
100
AcDbEntity
  8
NOCUT
100
AcDbLine
 10
39.700001543
 20
6.353104279999999
 30
0.0
 11
39.700001543
 21
5.537665196831874
 31
0.0
  0
LINE
  5
359
330
1D
100
AcDbEntity
  8
SK4
100
AcDbLine
 10
1.266980022192001
 20
-3.848079245537519
 30
0.0
 11
22.72958287659389
 21
-13.09895594434922
 31
0.0
  0
LINE
  5
35B
330
1D
100
AcDbEntity
  8
4
100
AcDbLine
 10
1.266980022192001
 20
-3.848079245537519
 30
0.0
 11
22.72958287659389
 21
-13.09895594434922
 31
0.0
  0
LINE
  5
360
330
1D
100
AcDbEntity
  8
SK4
100
AcDbLine
 10
1.266980022192072
 20
3.848079245537803
 30
0.0
 11
22.72958287659413
 21
13.09895594434911
 31
0.0
  0
LINE
  5
361
330
1D
100
AcDbEntity
  8
4
100
AcDbLine
 10
1.266980022192072
 20
3.848079245537803
 30
0.0
 11
22.72958287659413
 21
13.09895594434911
 31
0.0
  0
ARC
  5
374
330
1D
100
AcDbEntity
  8
CUT
100
AcDbCircle
 10
30.87500006499999
 20
5.201949695
 30
0.0
 40
0.4
100
AcDbArc
 50
180.0
 51
279.9999823120004
  0
ARC
  5
375
330
1D
100
AcDbEntity
  8
CUT
100
AcDbCircle
 10
39.600000065
 20
6.740402602
 30
0.0
 40
0.4
100
AcDbArc
 50
280.0000000000006
 51
0.0000124619999907
  0
LINE
  5
376
330
1D
100
AcDbEntity
  8
CUT
100
AcDbLine
 10
40.00000006499999
 20
6.740402689001172
 30
0.0
 11
40.00000006500001
 21
15.59999979
 31
0.0
  0
ARC
  5
377
330
1D
100
AcDbEntity
  8
CUT
100
AcDbCircle
 10
39.600000065
 20
15.59999979
 30
0.0
 40
0.4
100
AcDbArc
 50
0.0
 51
99.99986000900047
  0
ARC
  5
378
330
1D
100
AcDbEntity
  8
CUT
100
AcDbCircle
 10
30.87500006499999
 20
14.061546884
 30
0.0
 40
0.4
100
AcDbArc
 50
99.99999999999852
 51
180.0
  0
CIRCLE
  5
379
330
1D
100
AcDbEntity
  8
1
100
AcDbCircle
 10
35.063500065
 20
10.193974743
 30
0.0
 40
2.65
  0
LINE
  5
37A
330
1D
100
AcDbEntity
  8
CUT
100
AcDbLine
 10
39.53054175640727
 20
15.99392306091381
 30
0.0
 11
30.80554079393323
 21
14.45546998520489
 31
0.0
  0
LINE
  5
37B
330
1D
100
AcDbEntity
  8
CUT
100
AcDbLine
 10
30.47500006499999
 20
14.061546884
 30
0.0
 11
30.47500006499999
 21
5.201949695
 31
0.0
  0
LINE
  5
37C
330
1D
100
AcDbEntity
  8
CUT
100
AcDbLine
 10
30.94445921445725
 20
4.808026572352098
 30
0.0
 11
39.66945933606678
 21
6.346479500795117
 31
0.0
  0
HATCH
  5
381
330
1D
100
AcDbEntity
  8
7
100
AcDbHatch
 10
0.0
 20
0.0
 30
0.0
210
0.0
220
0.0
230
1.0
  2
ANSI37
 70
     0
 71
     0
 91
        2
 92
        7
 72
     1
 73
     1
 93
        8
 10
40.00000006499998
 20
6.740402631000401
 42
0.0
 10
40.00000006499999
 20
15.59999979
 42
0.4663074102594728
 10
39.53054111477796
 20
15.99392294777725
 42
0.0
 10
30.80554079395313
 20
14.4554699852084
 42
0.3639702342804969
 10
30.47500006499999
 20
14.06154688399999
 42
0.0
 10
30.47500006499999
 20
5.201949695
 42
0.4663076268420642
 10
30.94445929553956
 20
4.808026586649099
 42
0.0
 10
39.66945933607607
 20
6.346479500796756
 42
0.3639702547859363
 97
        0
 92
       22
 72
     1
 73
     1
 93
        2
 10
32.41350006499999
 20
10.193974743
 42
-1.0
 10
37.71350006500001
 20
10.193974743
 42
-1.0
 97
        0
 75
     0
 76
     1
 52
90.0
 41
5.0
 77
     0
 78
     2
 53
135.0
 43
-65.81264743938331
 44
8.077714800717969
 45
-0.4419417382415922
 46
-0.4419417382415922
 79
     0
 53
225.0
 43
-65.81264743938331
 44
8.077714800717969
 45
0.4419417382415922
 46
-0.4419417382415923
 79
     0
 47
0.0
 98
        2
 10
39.49570808944073
 20
15.25354423642223
 10
39.49570808944073
 20
15.25354423642223
1001
ACAD
1010
0.0
1020
0.0
1030
0.0
1001
PE_URL
1000

  0
LINE
  5
386
330
1D
100
AcDbEntity
  8
CUT
100
AcDbLine
 10
-0.0000006294955885
 20
8.899989628639856
 30
0.0
 11
-0.0000005920479774
 21
-8.900020174725924
 31
0.0
  0
ENDSEC
  0
SECTION
  2
OBJECTS
  0
DICTIONARY
  5
C
330
0
100
AcDbDictionary
281
     1
  3
ACAD_COLOR
350
346
  3
ACAD_DETAILVIEWSTYLE
350
24F
  3
ACAD_GROUP
350
D
  3
ACAD_LAYOUT
350
1A
  3
ACAD_MATERIAL
350
1EA
  3
ACAD_MLEADERSTYLE
350
1F8
  3
ACAD_MLINESTYLE
350
17
  3
ACAD_PLOTSETTINGS
350
19
  3
ACAD_PLOTSTYLENAME
350
E
  3
ACAD_SCALELIST
350
1B3
  3
ACAD_SECTIONVIEWSTYLE
350
250
  3
ACAD_TABLESTYLE
350
241
  3
ACAD_VISUALSTYLE
350
1D9
  3
ACDB_RECOMPOSE_DATA
350
38D
  3
AcDbVariableDictionary
350
1F6
  3
APPDATA
350
244
  0
SUN
  5
287
330
1AC
100
AcDbSun
 90
        1
290
     0
 63
     7
421
 16777215
 40
1.0
291
     1
 91
  2455826
 92
 54000000
292
     0
 70
     2
 71
   256
280
     1
  0
DICTIONARY
  5
245
330
2
100
AcDbDictionary
280
     1
281
     1
  3
ACAD_LAYERSTATES
360
246
  0
DICTIONARY
  5
37F
330
1D
100
AcDbDictionary
280
     1
281
     1
  3
ACAD_SORTENTS
360
380
  0
DICTIONARY
  5
346
102
{ACAD_REACTORS
330
C
102
}
330
C
100
AcDbDictionary
281
     1
  0
DICTIONARY
  5
24F
102
{ACAD_REACTORS
330
C
102
}
330
C
100
AcDbDictionary
281
     1
  0
DICTIONARY
  5
D
102
{ACAD_REACTORS
330
C
102
}
330
C
100
AcDbDictionary
281
     1
  0
DICTIONARY
  5
1A
102
{ACAD_REACTORS
330
C
102
}
330
C
100
AcDbDictionary
281
     1
  3
Layout1
350
1C
  3
Model
350
1E
  0
DICTIONARY
  5
1EA
102
{ACAD_REACTORS
330
C
102
}
330
C
100
AcDbDictionary
281
     1
  3
ByBlock
350
1EC
  3
ByLayer
350
1EB
  3
Global
350
1ED
  0
DICTIONARY
  5
1F8
102
{ACAD_REACTORS
330
C
102
}
330
C
100
AcDbDictionary
281
     1
  3
Standard
350
243
  0
DICTIONARY
  5
17
102
{ACAD_REACTORS
330
C
102
}
330
C
100
AcDbDictionary
281
     1
  3
Standard
350
18
  0
DICTIONARY
  5
19
102
{ACAD_REACTORS
330
C
102
}
330
C
100
AcDbDictionary
281
     1
  0
ACDBDICTIONARYWDFLT
  5
E
102
{ACAD_REACTORS
330
C
102
}
330
C
100
AcDbDictionary
281
     1
  3
Normal
350
F
100
AcDbDictionaryWithDefault
340
F
  0
DICTIONARY
  5
1B3
102
{ACAD_REACTORS
330
C
102
}
330
C
100
AcDbDictionary
281
     1
  3
A0
350
1B4
  3
A1
350
1B5
  3
A2
350
1B6
  3
A3
350
1B7
  3
A4
350
1B8
  3
A5
350
1B9
  3
A6
350
1BA
  3
A7
350
1BB
  3
A8
350
1BC
  3
A9
350
1BD
  3
B0
350
1BE
  3
B1
350
1BF
  3
B2
350
1C0
  3
B3
350
1C1
  3
B4
350
1C2
  3
B5
350
1C3
  3
B6
350
1C4
  3
B7
350
1C5
  3
B8
350
1C6
  3
B9
350
1C7
  3
C0
350
1C8
  3
C1
350
1C9
  3
C2
350
1CA
  3
C3
350
1CB
  3
C4
350
1CC
  3
C5
350
1CD
  3
C6
350
1CE
  3
C7
350
1CF
  3
C8
350
1D0
  3
C9
350
1D1
  3
D0
350
1D2
  3
D1
350
1D3
  3
D2
350
1D4
  0
DICTIONARY
  5
250
102
{ACAD_REACTORS
330
C
102
}
330
C
100
AcDbDictionary
281
     1
  0
DICTIONARY
  5
241
102
{ACAD_REACTORS
330
C
102
}
330
C
100
AcDbDictionary
281
     1
  3
Standard
350
242
  0
DICTIONARY
  5
1D9
102
{ACAD_REACTORS
330
C
102
}
330
C
100
AcDbDictionary
281
     1
  3
2dWireframe
350
1DE
  3
3D Hidden
350
1E0
  3
3dWireframe
350
1DF
  3
Basic
350
1E1
  3
Brighten
350
1E5
  3
ColorChange
350
1E9
  3
Conceptual
350
1E3
  3
Dim
350
1E4
  3
EdgeColorOff
350
23B
  3
Facepattern
350
1E8
  3
Flat
350
1DA
  3
FlatWithEdges
350
1DB
  3
Gouraud
350
1DC
  3
GouraudWithEdges
350
1DD
  3
Hidden
350
238
  3
JitterOff
350
239
  3
Linepattern
350
1E7
  3
OverhangOff
350
23A
  3
Realistic
350
1E2
  3
Shaded
350
240
  3
Shaded with edges
350
23F
  3
Shades of Gray
350
23C
  3
Sketchy
350
23D
  3
Thicken
350
1E6
  3
Wireframe
350
237
  3
X-Ray
350
23E
  0
XRECORD
  5
38D
102
{ACAD_REACTORS
330
C
102
}
330
C
100
AcDbXrecord
280
     1
 90
        1
330
242
  0
DICTIONARY
  5
1F6
102
{ACAD_REACTORS
330
C
102
}
330
C
100
AcDbDictionary
281
     1
  3
CANNOSCALE
350
24C
  3
CMLEADERSTYLE
350
24E
  3
CTABLESTYLE
350
24D
  3
DIMASSOC
350
1FA
  3
HIDETEXT
350
1FB
  3
MSLTSCALE
350
1F9
  0
DICTIONARY
  5
244
102
{ACAD_REACTORS
330
C
102
}
330
C
100
AcDbDictionary
281
     1
  0
DICTIONARY
  5
246
102
{ACAD_REACTORS
330
245
102
}
330
245
100
AcDbDictionary
281
     1
  0
SORTENTSTABLE
  5
380
102
{ACAD_REACTORS
330
37F
102
}
330
37F
100
AcDbSortentsTable
330
1D
331
374
  5
376
331
375
  5
377
331
376
  5
378
331
377
  5
379
331
378
  5
37A
331
379
  5
37B
331
37A
  5
37C
331
37B
  5
37E
331
37C
  5
381
331
0
  5
374
331
381
  5
375
  0
LAYOUT
  5
1C
102
{ACAD_REACTORS
330
1A
102
}
330
1A
100
AcDbPlotSettings
  1

  2
none_device
  4

  6

 40
0.0
 41
0.0
 42
0.0
 43
0.0
 44
0.0
 45
0.0
 46
0.0
 47
0.0
 48
0.0
 49
0.0
140
0.0
141
0.0
142
1.0
143
1.0
 70
   688
 72
     0
 73
     0
 74
     5
  7

 75
    16
 76
     0
 77
     2
 78
   300
147
1.0
148
0.0
149
0.0
100
AcDbLayout
  1
Layout1
 70
     1
 71
     1
 10
0.0
 20
0.0
 11
12.0
 21
9.0
 12
0.0
 22
0.0
 32
0.0
 14
1.000000000000000E+20
 24
1.000000000000000E+20
 34
1.000000000000000E+20
 15
-1.000000000000000E+20
 25
-1.000000000000000E+20
 35
-1.000000000000000E+20
146
0.0
 13
0.0
 23
0.0
 33
0.0
 16
1.0
 26
0.0
 36
0.0
 17
0.0
 27
1.0
 37
0.0
 76
     0
330
1B
  0
LAYOUT
  5
1E
102
{ACAD_REACTORS
330
1A
102
}
330
1A
100
AcDbPlotSettings
  1

  2
none_device
  4

  6

 40
0.0
 41
0.0
 42
0.0
 43
0.0
 44
0.0
 45
0.0
 46
0.0
 47
0.0
 48
0.0
 49
0.0
140
0.0
141
0.0
142
1.0
143
1.0
 70
  1712
 72
     0
 73
     0
 74
     0
  7

 75
     0
 76
     0
 77
     2
 78
   300
147
1.0
148
0.0
149
0.0
100
AcDbLayout
  1
Model
 70
     1
 71
     0
 10
0.0
 20
0.0
 11
12.0
 21
9.0
 12
0.0
 22
0.0
 32
0.0
 14
-52.27970514767264
 24
-35.13886496344308
 34
0.0
 15
69.24653324727353
 25
40.50270024313098
 35
0.0
146
0.0
 13
0.0
 23
0.0
 33
0.0
 16
1.0
 26
0.0
 36
0.0
 17
0.0
 27
1.0
 37
0.0
 76
     0
330
1D
331
1AC
  0
MATERIAL
  5
1EC
102
{ACAD_REACTORS
330
1EA
102
}
330
1EA
100
AcDbMaterial
  1
ByBlock
 72
     1
 94
      127
  0
MATERIAL
  5
1EB
102
{ACAD_REACTORS
330
1EA
102
}
330
1EA
100
AcDbMaterial
  1
ByLayer
 72
     1
 94
      127
  0
MATERIAL
  5
1ED
102
{ACAD_REACTORS
330
1EA
102
}
330
1EA
100
AcDbMaterial
  1
Global
 72
     1
 94
      127
  0
MLEADERSTYLE
  5
243
102
{ACAD_REACTORS
330
1F8
102
}
330
1F8
100
AcDbMLeaderStyle
179
     2
170
     2
171
     1
172
     0
 90
        2
 40
0.0
 41
0.0
173
     1
 91
-1056964608
340
14
 92
       -2
290
     1
 42
0.09
291
     1
 43
0.36
  3
Standard
341
0
 44
0.18
300

342
11
174
     1
178
     1
175
     1
176
     0
 93
-1056964608
 45
0.18
292
     0
297
     0
 46
0.18
343
0
 94
-1056964608
 47
1.0
 49
1.0
140
1.0
293
     1
141
0.0
294
     1
177
     0
142
1.0
295
     0
296
     0
143
0.125
271
     0
272
     9
273
     9
298
     0
  0
MLINESTYLE
  5
18
102
{ACAD_REACTORS
330
17
102
}
330
17
100
AcDbMlineStyle
  2
Standard
 70
     0
  3

 62
   256
 51
90.0
 52
90.0
 71
     2
 49
0.5
 62
   256
  6
BYLAYER
 49
-0.5
 62
   256
  6
BYLAYER
  0
ACDBPLACEHOLDER
  5
F
102
{ACAD_REACTORS
330
E
102
}
330
E
  0
SCALE
  5
1B4
102
{ACAD_REACTORS
330
1B3
102
}
330
1B3
100
AcDbScale
 70
     0
300
1:1
140
1.0
141
1.0
290
     1
  0
SCALE
  5
1B5
102
{ACAD_REACTORS
330
1B3
102
}
330
1B3
100
AcDbScale
 70
     0
300
1:2
140
1.0
141
2.0
290
     0
  0
SCALE
  5
1B6
102
{ACAD_REACTORS
330
1B3
102
}
330
1B3
100
AcDbScale
 70
     0
300
1:4
140
1.0
141
4.0
290
     0
  0
SCALE
  5
1B7
102
{ACAD_REACTORS
330
1B3
102
}
330
1B3
100
AcDbScale
 70
     0
300
1:5
140
1.0
141
5.0
290
     0
  0
SCALE
  5
1B8
102
{ACAD_REACTORS
330
1B3
102
}
330
1B3
100
AcDbScale
 70
     0
300
1:8
140
1.0
141
8.0
290
     0
  0
SCALE
  5
1B9
102
{ACAD_REACTORS
330
1B3
102
}
330
1B3
100
AcDbScale
 70
     0
300
1:10
140
1.0
141
10.0
290
     0
  0
SCALE
  5
1BA
102
{ACAD_REACTORS
330
1B3
102
}
330
1B3
100
AcDbScale
 70
     0
300
1:16
140
1.0
141
16.0
290
     0
  0
SCALE
  5
1BB
102
{ACAD_REACTORS
330
1B3
102
}
330
1B3
100
AcDbScale
 70
     0
300
1:20
140
1.0
141
20.0
290
     0
  0
SCALE
  5
1BC
102
{ACAD_REACTORS
330
1B3
102
}
330
1B3
100
AcDbScale
 70
     0
300
1:30
140
1.0
141
30.0
290
     0
  0
SCALE
  5
1BD
102
{ACAD_REACTORS
330
1B3
102
}
330
1B3
100
AcDbScale
 70
     0
300
1:40
140
1.0
141
40.0
290
     0
  0
SCALE
  5
1BE
102
{ACAD_REACTORS
330
1B3
102
}
330
1B3
100
AcDbScale
 70
     0
300
1:50
140
1.0
141
50.0
290
     0
  0
SCALE
  5
1BF
102
{ACAD_REACTORS
330
1B3
102
}
330
1B3
100
AcDbScale
 70
     0
300
1:100
140
1.0
141
100.0
290
     0
  0
SCALE
  5
1C0
102
{ACAD_REACTORS
330
1B3
102
}
330
1B3
100
AcDbScale
 70
     0
300
2:1
140
2.0
141
1.0
290
     0
  0
SCALE
  5
1C1
102
{ACAD_REACTORS
330
1B3
102
}
330
1B3
100
AcDbScale
 70
     0
300
4:1
140
4.0
141
1.0
290
     0
  0
SCALE
  5
1C2
102
{ACAD_REACTORS
330
1B3
102
}
330
1B3
100
AcDbScale
 70
     0
300
8:1
140
8.0
141
1.0
290
     0
  0
SCALE
  5
1C3
102
{ACAD_REACTORS
330
1B3
102
}
330
1B3
100
AcDbScale
 70
     0
300
10:1
140
10.0
141
1.0
290
     0
  0
SCALE
  5
1C4
102
{ACAD_REACTORS
330
1B3
102
}
330
1B3
100
AcDbScale
 70
     0
300
100:1
140
100.0
141
1.0
290
     0
  0
SCALE
  5
1C5
102
{ACAD_REACTORS
330
1B3
102
}
330
1B3
100
AcDbScale
 70
     0
300
1/128" = 1'-0"
140
0.0078125
141
12.0
290
     0
  0
SCALE
  5
1C6
102
{ACAD_REACTORS
330
1B3
102
}
330
1B3
100
AcDbScale
 70
     0
300
1/64" = 1'-0"
140
0.015625
141
12.0
290
     0
  0
SCALE
  5
1C7
102
{ACAD_REACTORS
330
1B3
102
}
330
1B3
100
AcDbScale
 70
     0
300
1/32" = 1'-0"
140
0.03125
141
12.0
290
     0
  0
SCALE
  5
1C8
102
{ACAD_REACTORS
330
1B3
102
}
330
1B3
100
AcDbScale
 70
     0
300
1/16" = 1'-0"
140
0.0625
141
12.0
290
     0
  0
SCALE
  5
1C9
102
{ACAD_REACTORS
330
1B3
102
}
330
1B3
100
AcDbScale
 70
     0
300
3/32" = 1'-0"
140
0.09375
141
12.0
290
     0
  0
SCALE
  5
1CA
102
{ACAD_REACTORS
330
1B3
102
}
330
1B3
100
AcDbScale
 70
     0
300
1/8" = 1'-0"
140
0.125
141
12.0
290
     0
  0
SCALE
  5
1CB
102
{ACAD_REACTORS
330
1B3
102
}
330
1B3
100
AcDbScale
 70
     0
300
3/16" = 1'-0"
140
0.1875
141
12.0
290
     0
  0
SCALE
  5
1CC
102
{ACAD_REACTORS
330
1B3
102
}
330
1B3
100
AcDbScale
 70
     0
300
1/4" = 1'-0"
140
0.25
141
12.0
290
     0
  0
SCALE
  5
1CD
102
{ACAD_REACTORS
330
1B3
102
}
330
1B3
100
AcDbScale
 70
     0
300
3/8" = 1'-0"
140
0.375
141
12.0
290
     0
  0
SCALE
  5
1CE
102
{ACAD_REACTORS
330
1B3
102
}
330
1B3
100
AcDbScale
 70
     0
300
1/2" = 1'-0"
140
0.5
141
12.0
290
     0
  0
SCALE
  5
1CF
102
{ACAD_REACTORS
330
1B3
102
}
330
1B3
100
AcDbScale
 70
     0
300
3/4" = 1'-0"
140
0.75
141
12.0
290
     0
  0
SCALE
  5
1D0
102
{ACAD_REACTORS
330
1B3
102
}
330
1B3
100
AcDbScale
 70
     0
300
1" = 1'-0"
140
1.0
141
12.0
290
     0
  0
SCALE
  5
1D1
102
{ACAD_REACTORS
330
1B3
102
}
330
1B3
100
AcDbScale
 70
     0
300
1-1/2" = 1'-0"
140
1.5
141
12.0
290
     0
  0
SCALE
  5
1D2
102
{ACAD_REACTORS
330
1B3
102
}
330
1B3
100
AcDbScale
 70
     0
300
3" = 1'-0"
140
3.0
141
12.0
290
     0
  0
SCALE
  5
1D3
102
{ACAD_REACTORS
330
1B3
102
}
330
1B3
100
AcDbScale
 70
     0
300
6" = 1'-0"
140
6.0
141
12.0
290
     0
  0
SCALE
  5
1D4
102
{ACAD_REACTORS
330
1B3
102
}
330
1B3
100
AcDbScale
 70
     0
300
1'-0" = 1'-0"
140
12.0
141
12.0
290
     0
  0
TABLESTYLE
  5
242
102
{ACAD_REACTORS
330
241
102
}
102
{ACAD_XDICTIONARY
360
38B
102
}
330
241
100
AcDbTableStyle
  3
Standard
 70
     0
 71
     0
 40
0.06
 41
0.06
280
     0
281
     0
  7
Standard
140
0.18
170
     2
 62
     0
 63
   257
283
     0
 90
        4
 91
        0
  1

274
    -2
284
     1
 64
     0
275
    -2
285
     1
 65
     0
276
    -2
286
     1
 66
     0
277
    -2
287
     1
 67
     0
278
    -2
288
     1
 68
     0
279
    -2
289
     1
 69
     0
  7
Standard
140
0.25
170
     5
 62
     0
 63
   257
283
     0
 90
        4
 91
        0
  1

274
    -2
284
     1
 64
     0
275
    -2
285
     1
 65
     0
276
    -2
286
     1
 66
     0
277
    -2
287
     1
 67
     0
278
    -2
288
     1
 68
     0
279
    -2
289
     1
 69
     0
  7
Standard
140
0.18
170
     5
 62
     0
 63
   257
283
     0
 90
        4
 91
        0
  1

274
    -2
284
     1
 64
     0
275
    -2
285
     1
 65
     0
276
    -2
286
     1
 66
     0
277
    -2
287
     1
 67
     0
278
    -2
288
     1
 68
     0
279
    -2
289
     1
 69
     0
  0
VISUALSTYLE
  5
1DE
102
{ACAD_REACTORS
330
1D9
102
}
330
1D9
100
AcDbVisualStyle
  2
2dWireframe
 70
     4
177
     3
291
     0
 70
    58
 90
        0
176
     1
 90
        2
176
     1
 90
        0
176
     1
 90
        0
176
     1
 40
-0.6
176
     1
 40
-30.0
176
     1
 62
     7
176
     1
 90
        1
176
     1
 90
        4
176
     1
 62
     7
176
     1
 62
   257
176
     1
 90
        1
176
     1
 90
        1
176
     1
 40
1.0
176
     1
 90
        0
176
     1
 62
   257
176
     1
 40
1.0
176
     1
 90
        1
176
     1
 90
        6
176
     1
 90
        2
176
     1
 62
     7
176
     1
 90
        5
176
     1
 90
        0
176
     1
 90
        0
176
     1
290
     0
176
     1
 90
        1
176
     1
 40
0.0
176
     1
 90
        0
176
     1
290
     1
176
     1
290
     1
176
     1
290
     0
176
     1
290
     0
176
     1
290
     0
176
     1
290
     0
176
     1
290
     0
176
     1
290
     0
176
     1
290
     0
176
     1
 90
       50
176
     1
 40
0.0
176
     1
 40
1.0
176
     1
 90
        0
176
     1
 62
    18
420
        0
176
     1
 90
       50
176
     1
 90
        3
176
     1
 62
     5
420
      255
176
     1
290
     0
176
     1
 90
       50
176
     1
 90
       50
176
     1
 90
       50
176
     1
290
     0
176
     1
 90
       50
176
     1
 62
   256
176
     0
 40
1.0
176
     0
 90
        2
176
     1
  1
strokes_ogs.tif
176
     1
290
     0
176
     1
 40
1.0
176
     1
 40
1.0
176
     1
  0
VISUALSTYLE
  5
1E0
102
{ACAD_REACTORS
330
1D9
102
}
330
1D9
100
AcDbVisualStyle
  2
3D Hidden
 70
     6
177
     3
291
     0
 70
    58
 90
        1
176
     1
 90
        2
176
     1
 90
        2
176
     1
 90
        0
176
     1
 40
-0.6
176
     1
 40
-30.0
176
     1
 62
     7
176
     1
 90
        2
176
     1
 90
        2
176
     1
 62
     7
176
     1
 62
   257
176
     1
 90
        2
176
     1
 90
        1
176
     1
 40
40.0
176
     1
 90
        0
176
     1
 62
   257
176
     1
 40
1.0
176
     1
 90
        1
176
     1
 90
        6
176
     1
 90
        2
176
     1
 62
     7
176
     1
 90
        3
176
     1
 90
        0
176
     1
 90
        0
176
     1
290
     0
176
     1
 90
        1
176
     1
 40
0.0
176
     1
 90
        0
176
     1
290
     0
176
     1
290
     1
176
     1
290
     1
176
     1
290
     0
176
     1
290
     0
176
     1
290
     0
176
     1
290
     0
176
     1
290
     0
176
     1
290
     0
176
     1
 90
       50
176
     1
 40
0.0
176
     1
 40
1.0
176
     1
 90
        0
176
     1
 62
    18
420
        0
176
     1
 90
       50
176
     1
 90
        3
176
     1
 62
     5
420
      255
176
     1
290
     0
176
     1
 90
       50
176
     1
 90
       50
176
     1
 90
       50
176
     1
290
     0
176
     1
 90
       50
176
     1
 62
   256
176
     0
 40
1.0
176
     0
 90
        2
176
     1
  1
strokes_ogs.tif
176
     1
290
     0
176
     1
 40
1.0
176
     1
 40
1.0
176
     1
  0
VISUALSTYLE
  5
1DF
102
{ACAD_REACTORS
330
1D9
102
}
330
1D9
100
AcDbVisualStyle
  2
3dWireframe
 70
     5
177
     3
291
     0
 70
    58
 90
        0
176
     1
 90
        2
176
     1
 90
        0
176
     1
 90
        0
176
     1
 40
-0.6
176
     1
 40
-30.0
176
     1
 62
     7
176
     1
 90
        1
176
     1
 90
        4
176
     1
 62
     7
176
     1
 62
   257
176
     1
 90
        1
176
     1
 90
        1
176
     1
 40
1.0
176
     1
 90
        0
176
     1
 62
   257
176
     1
 40
1.0
176
     1
 90
        1
176
     1
 90
        6
176
     1
 90
        2
176
     1
 62
     7
176
     1
 90
        5
176
     1
 90
        0
176
     1
 90
        0
176
     1
290
     0
176
     1
 90
        1
176
     1
 40
0.0
176
     1
 90
        0
176
     1
290
     0
176
     1
290
     1
176
     1
290
     1
176
     1
290
     0
176
     1
290
     0
176
     1
290
     0
176
     1
290
     0
176
     1
290
     0
176
     1
290
     0
176
     1
 90
       50
176
     1
 40
0.0
176
     1
 40
1.0
176
     1
 90
        0
176
     1
 62
    18
420
        0
176
     1
 90
       50
176
     1
 90
        3
176
     1
 62
     5
420
      255
176
     1
290
     0
176
     1
 90
       50
176
     1
 90
       50
176
     1
 90
       50
176
     1
290
     0
176
     1
 90
       50
176
     1
 62
   256
176
     0
 40
1.0
176
     0
 90
        2
176
     1
  1
strokes_ogs.tif
176
     1
290
     0
176
     1
 40
1.0
176
     1
 40
1.0
176
     1
  0
VISUALSTYLE
  5
1E1
102
{ACAD_REACTORS
330
1D9
102
}
330
1D9
100
AcDbVisualStyle
  2
Basic
 70
     7
177
     3
291
     1
 70
    58
 90
        1
176
     1
 90
        0
176
     1
 90
        1
176
     1
 90
        0
176
     1
 40
-0.6
176
     1
 40
-30.0
176
     1
 62
     7
176
     1
 90
        0
176
     1
 90
        4
176
     1
 62
     7
176
     1
 62
   257
176
     1
 90
        1
176
     1
 90
        1
176
     1
 40
1.0
176
     1
 90
        8
176
     1
 62
     7
176
     1
 40
1.0
176
     1
 90
        1
176
     1
 90
        6
176
     1
 90
        2
176
     1
 62
     7
176
     1
 90
        5
176
     1
 90
        0
176
     1
 90
        0
176
     1
290
     0
176
     1
 90
        1
176
     1
 40
0.0
176
     1
 90
        0
176
     1
290
     0
176
     1
290
     1
176
     1
290
     1
176
     1
290
     0
176
     1
290
     0
176
     1
290
     0
176
     1
290
     0
176
     1
290
     0
176
     1
290
     0
176
     1
 90
       50
176
     1
 40
0.0
176
     1
 40
1.0
176
     1
 90
        0
176
     1
 62
    18
420
        0
176
     1
 90
       50
176
     1
 90
        3
176
     1
 62
     5
420
      255
176
     1
290
     0
176
     1
 90
       50
176
     1
 90
       50
176
     1
 90
       50
176
     1
290
     0
176
     1
 90
       50
176
     1
 62
   256
176
     0
 40
1.0
176
     0
 90
        2
176
     1
  1
strokes_ogs.tif
176
     1
290
     0
176
     1
 40
1.0
176
     1
 40
1.0
176
     1
  0
VISUALSTYLE
  5
1E5
102
{ACAD_REACTORS
330
1D9
102
}
330
1D9
100
AcDbVisualStyle
  2
Brighten
 70
    12
177
     3
291
     1
 70
    58
 90
        2
176
     1
 90
        2
176
     1
 90
        0
176
     1
 90
        0
176
     1
 40
-0.6
176
     1
 40
-30.0
176
     1
 62
     7
176
     1
 90
        1
176
     1
 90
        4
176
     1
 62
     7
176
     1
 62
   257
176
     1
 90
        1
176
     1
 90
        1
176
     1
 40
1.0
176
     1
 90
        8
176
     1
 62
     7
176
     1
 40
1.0
176
     1
 90
        1
176
     1
 90
        6
176
     1
 90
        2
176
     1
 62
     7
176
     1
 90
        5
176
     1
 90
        0
176
     1
 90
        0
176
     1
290
     0
176
     1
 90
        1
176
     1
 40
50.0
176
     1
 90
        0
176
     1
290
     0
176
     1
290
     1
176
     1
290
     1
176
     1
290
     0
176
     1
290
     0
176
     1
290
     0
176
     1
290
     0
176
     1
290
     0
176
     1
290
     0
176
     1
 90
       50
176
     1
 40
0.0
176
     1
 40
1.0
176
     1
 90
        0
176
     1
 62
    18
420
        0
176
     1
 90
       50
176
     1
 90
        3
176
     1
 62
     5
420
      255
176
     1
290
     0
176
     1
 90
       50
176
     1
 90
       50
176
     1
 90
       50
176
     1
290
     0
176
     1
 90
       50
176
     1
 62
   256
176
     0
 40
1.0
176
     0
 90
        2
176
     1
  1
strokes_ogs.tif
176
     1
290
     0
176
     1
 40
1.0
176
     1
 40
1.0
176
     1
  0
VISUALSTYLE
  5
1E9
102
{ACAD_REACTORS
330
1D9
102
}
330
1D9
100
AcDbVisualStyle
  2
ColorChange
 70
    16
177
     3
291
     1
 70
    58
 90
        2
176
     1
 90
        2
176
     1
 90
        3
176
     1
 90
        0
176
     1
 40
-0.6
176
     1
 40
-30.0
176
     1
 62
     8
176
     1
 90
        1
176
     1
 90
        4
176
     1
 62
     7
176
     1
 62
   257
176
     1
 90
        1
176
     1
 90
        1
176
     1
 40
1.0
176
     1
 90
        8
176
     1
 62
     8
176
     1
 40
1.0
176
     1
 90
        1
176
     1
 90
        6
176
     1
 90
        2
176
     1
 62
     7
176
     1
 90
        5
176
     1
 90
        0
176
     1
 90
        0
176
     1
290
     0
176
     1
 90
        1
176
     1
 40
0.0
176
     1
 90
        0
176
     1
290
     0
176
     1
290
     1
176
     1
290
     1
176
     1
290
     0
176
     1
290
     0
176
     1
290
     0
176
     1
290
     0
176
     1
290
     0
176
     1
290
     0
176
     1
 90
       50
176
     1
 40
0.0
176
     1
 40
1.0
176
     1
 90
        0
176
     1
 62
    18
420
        0
176
     1
 90
       50
176
     1
 90
        3
176
     1
 62
     5
420
      255
176
     1
290
     0
176
     1
 90
       50
176
     1
 90
       50
176
     1
 90
       50
176
     1
290
     0
176
     1
 90
       50
176
     1
 62
   256
176
     0
 40
1.0
176
     0
 90
        2
176
     1
  1
strokes_ogs.tif
176
     1
290
     0
176
     1
 40
1.0
176
     1
 40
1.0
176
     1
  0
VISUALSTYLE
  5
1E3
102
{ACAD_REACTORS
330
1D9
102
}
330
1D9
100
AcDbVisualStyle
  2
Conceptual
 70
     9
177
     3
291
     0
 70
    58
 90
        3
176
     1
 90
        2
176
     1
 90
        0
176
     1
 90
        0
176
     1
 40
-0.6
176
     1
 40
-30.0
176
     1
 62
     7
176
     1
 90
        2
176
     1
 90
        2
176
     1
 62
     7
176
     1
 62
   257
176
     1
 90
        1
176
     1
 90
        1
176
     1
 40
40.0
176
     1
 90
        8
176
     1
 62
     7
176
     1
 40
1.0
176
     1
 90
        1
176
     1
 90
        6
176
     1
 90
        2
176
     1
 62
     7
176
     1
 90
        3
176
     1
 90
        0
176
     1
 90
        0
176
     1
290
     0
176
     1
 90
        1
176
     1
 40
0.0
176
     1
 90
        0
176
     1
290
     0
176
     1
290
     1
176
     1
290
     1
176
     1
290
     0
176
     1
290
     0
176
     1
290
     0
176
     1
290
     0
176
     1
290
     0
176
     1
290
     0
176
     1
 90
       50
176
     1
 40
0.0
176
     1
 40
1.0
176
     1
 90
        0
176
     1
 62
    18
420
        0
176
     1
 90
       50
176
     1
 90
        3
176
     1
 62
     5
420
      255
176
     1
290
     0
176
     1
 90
       50
176
     1
 90
       50
176
     1
 90
       50
176
     1
290
     0
176
     1
 90
       50
176
     1
 62
   256
176
     0
 40
1.0
176
     0
 90
        2
176
     1
  1
strokes_ogs.tif
176
     1
290
     0
176
     1
 40
1.0
176
     1
 40
1.0
176
     1
  0
VISUALSTYLE
  5
1E4
102
{ACAD_REACTORS
330
1D9
102
}
330
1D9
100
AcDbVisualStyle
  2
Dim
 70
    11
177
     3
291
     1
 70
    58
 90
        2
176
     1
 90
        2
176
     1
 90
        0
176
     1
 90
        0
176
     1
 40
-0.6
176
     1
 40
-30.0
176
     1
 62
     7
176
     1
 90
        1
176
     1
 90
        4
176
     1
 62
     7
176
     1
 62
   257
176
     1
 90
        1
176
     1
 90
        1
176
     1
 40
1.0
176
     1
 90
        8
176
     1
 62
     7
176
     1
 40
1.0
176
     1
 90
        1
176
     1
 90
        6
176
     1
 90
        2
176
     1
 62
     7
176
     1
 90
        5
176
     1
 90
        0
176
     1
 90
        0
176
     1
290
     0
176
     1
 90
        1
176
     1
 40
-50.0
176
     1
 90
        0
176
     1
290
     0
176
     1
290
     1
176
     1
290
     1
176
     1
290
     0
176
     1
290
     0
176
     1
290
     0
176
     1
290
     0
176
     1
290
     0
176
     1
290
     0
176
     1
 90
       50
176
     1
 40
0.0
176
     1
 40
1.0
176
     1
 90
        0
176
     1
 62
    18
420
        0
176
     1
 90
       50
176
     1
 90
        3
176
     1
 62
     5
420
      255
176
     1
290
     0
176
     1
 90
       50
176
     1
 90
       50
176
     1
 90
       50
176
     1
290
     0
176
     1
 90
       50
176
     1
 62
   256
176
     0
 40
1.0
176
     0
 90
        2
176
     1
  1
strokes_ogs.tif
176
     1
290
     0
176
     1
 40
1.0
176
     1
 40
1.0
176
     1
  0
VISUALSTYLE
  5
23B
102
{ACAD_REACTORS
330
1D9
102
}
330
1D9
100
AcDbVisualStyle
  2
EdgeColorOff
 70
    22
177
     3
291
     1
 70
    58
 90
        2
176
     0
 90
        2
176
     0
 90
        0
176
     0
 90
        0
176
     0
 40
0.6
176
     0
 40
30.0
176
     0
 62
     7
420
 16777215
176
     0
 90
        1
176
     0
 90
        4
176
     0
 62
     7
176
     0
 62
   257
176
     0
 90
        1
176
     0
 90
        1
176
     0
 40
1.0
176
     0
 90
        8
176
     2
 62
     7
176
     0
 40
1.0
176
     0
 90
        1
176
     0
 90
        6
176
     0
 90
        2
176
     0
 62
     7
176
     0
 90
        5
176
     0
 90
        0
176
     0
 90
        0
176
     0
290
     0
176
     0
 90
        1
176
     0
 40
0.0
176
     0
 90
        0
176
     0
290
     0
176
     0
290
     1
176
     0
290
     1
176
     0
290
     0
176
     0
290
     0
176
     0
290
     0
176
     0
290
     0
176
     0
290
     0
176
     0
290
     0
176
     0
 90
       50
176
     0
 40
0.0
176
     0
 40
1.0
176
     0
 90
        0
176
     0
 62
    18
420
        0
176
     0
 90
       50
176
     0
 90
        3
176
     0
 62
     5
420
      255
176
     0
290
     0
176
     0
 90
       50
176
     0
 90
       50
176
     0
 90
       50
176
     0
290
     0
176
     0
 90
       50
176
     0
 62
   256
176
     0
 40
1.0
176
     0
 90
        2
176
     0
  1
strokes_ogs.tif
176
     0
290
     0
176
     0
 40
1.0
176
     0
 40
1.0
176
     0
  0
VISUALSTYLE
  5
1E8
102
{ACAD_REACTORS
330
1D9
102
}
330
1D9
100
AcDbVisualStyle
  2
Facepattern
 70
    15
177
     3
291
     1
 70
    58
 90
        2
176
     1
 90
        2
176
     1
 90
        0
176
     1
 90
        0
176
     1
 40
-0.6
176
     1
 40
-30.0
176
     1
 62
     7
176
     1
 90
        1
176
     1
 90
        4
176
     1
 62
     7
176
     1
 62
   257
176
     1
 90
        1
176
     1
 90
        1
176
     1
 40
1.0
176
     1
 90
        8
176
     1
 62
     7
176
     1
 40
1.0
176
     1
 90
        1
176
     1
 90
        6
176
     1
 90
        2
176
     1
 62
     7
176
     1
 90
        5
176
     1
 90
        0
176
     1
 90
        0
176
     1
290
     0
176
     1
 90
        1
176
     1
 40
0.0
176
     1
 90
        0
176
     1
290
     0
176
     1
290
     1
176
     1
290
     1
176
     1
290
     0
176
     1
290
     0
176
     1
290
     0
176
     1
290
     0
176
     1
290
     0
176
     1
290
     0
176
     1
 90
       50
176
     1
 40
0.0
176
     1
 40
1.0
176
     1
 90
        0
176
     1
 62
    18
420
        0
176
     1
 90
       50
176
     1
 90
        3
176
     1
 62
     5
420
      255
176
     1
290
     0
176
     1
 90
       50
176
     1
 90
       50
176
     1
 90
       50
176
     1
290
     0
176
     1
 90
       50
176
     1
 62
   256
176
     0
 40
1.0
176
     0
 90
        2
176
     1
  1
strokes_ogs.tif
176
     1
290
     0
176
     1
 40
1.0
176
     1
 40
1.0
176
     1
  0
VISUALSTYLE
  5
1DA
102
{ACAD_REACTORS
330
1D9
102
}
330
1D9
100
AcDbVisualStyle
  2
Flat
 70
     0
177
     3
291
     1
 70
    58
 90
        2
176
     1
 90
        1
176
     1
 90
        1
176
     1
 90
        2
176
     1
 40
-0.6
176
     1
 40
30.0
176
     1
 62
     7
176
     1
 90
        0
176
     1
 90
        4
176
     1
 62
     7
176
     1
 62
   257
176
     1
 90
        1
176
     1
 90
        1
176
     1
 40
1.0
176
     1
 90
        8
176
     1
 62
     7
176
     1
 40
1.0
176
     1
 90
        1
176
     1
 90
        6
176
     1
 90
        2
176
     1
 62
     7
176
     1
 90
        5
176
     1
 90
        0
176
     1
 90
        0
176
     1
290
     0
176
     1
 90
       13
176
     1
 40
0.0
176
     1
 90
        0
176
     1
290
     0
176
     1
290
     1
176
     1
290
     1
176
     1
290
     0
176
     1
290
     0
176
     1
290
     0
176
     1
290
     0
176
     1
290
     0
176
     1
290
     0
176
     1
 90
       50
176
     1
 40
0.0
176
     1
 40
1.0
176
     1
 90
        0
176
     1
 62
    18
420
        0
176
     1
 90
       50
176
     1
 90
        3
176
     1
 62
     5
420
      255
176
     1
290
     0
176
     1
 90
       50
176
     1
 90
       50
176
     1
 90
       50
176
     1
290
     0
176
     1
 90
       50
176
     1
 62
   256
176
     0
 40
1.0
176
     0
 90
        2
176
     1
  1
strokes_ogs.tif
176
     1
290
     0
176
     1
 40
1.0
176
     1
 40
1.0
176
     1
  0
VISUALSTYLE
  5
1DB
102
{ACAD_REACTORS
330
1D9
102
}
330
1D9
100
AcDbVisualStyle
  2
FlatWithEdges
 70
     1
177
     3
291
     1
 70
    58
 90
        2
176
     1
 90
        1
176
     1
 90
        1
176
     1
 90
        2
176
     1
 40
-0.6
176
     1
 40
30.0
176
     1
 62
     7
176
     1
 90
        1
176
     1
 90
        4
176
     1
 62
     7
176
     1
 62
   257
176
     1
 90
        1
176
     1
 90
        1
176
     1
 40
1.0
176
     1
 90
        0
176
     1
 62
   257
176
     1
 40
1.0
176
     1
 90
        1
176
     1
 90
        6
176
     1
 90
        2
176
     1
 62
     7
176
     1
 90
        5
176
     1
 90
        0
176
     1
 90
        0
176
     1
290
     0
176
     1
 90
       13
176
     1
 40
0.0
176
     1
 90
        0
176
     1
290
     0
176
     1
290
     1
176
     1
290
     1
176
     1
290
     0
176
     1
290
     0
176
     1
290
     0
176
     1
290
     0
176
     1
290
     0
176
     1
290
     0
176
     1
 90
       50
176
     1
 40
0.0
176
     1
 40
1.0
176
     1
 90
        0
176
     1
 62
    18
420
        0
176
     1
 90
       50
176
     1
 90
        3
176
     1
 62
     5
420
      255
176
     1
290
     0
176
     1
 90
       50
176
     1
 90
       50
176
     1
 90
       50
176
     1
290
     0
176
     1
 90
       50
176
     1
 62
   256
176
     0
 40
1.0
176
     0
 90
        2
176
     1
  1
strokes_ogs.tif
176
     1
290
     0
176
     1
 40
1.0
176
     1
 40
1.0
176
     1
  0
VISUALSTYLE
  5
1DC
102
{ACAD_REACTORS
330
1D9
102
}
330
1D9
100
AcDbVisualStyle
  2
Gouraud
 70
     2
177
     3
291
     1
 70
    58
 90
        2
176
     1
 90
        2
176
     1
 90
        1
176
     1
 90
        2
176
     1
 40
-0.6
176
     1
 40
30.0
176
     1
 62
     7
176
     1
 90
        0
176
     1
 90
        4
176
     1
 62
     7
176
     1
 62
   257
176
     1
 90
        1
176
     1
 90
        1
176
     1
 40
1.0
176
     1
 90
        0
176
     1
 62
     7
176
     1
 40
1.0
176
     1
 90
        1
176
     1
 90
        6
176
     1
 90
        2
176
     1
 62
     7
176
     1
 90
        5
176
     1
 90
        0
176
     1
 90
        0
176
     1
290
     0
176
     1
 90
       13
176
     1
 40
0.0
176
     1
 90
        0
176
     1
290
     0
176
     1
290
     1
176
     1
290
     1
176
     1
290
     0
176
     1
290
     0
176
     1
290
     0
176
     1
290
     0
176
     1
290
     0
176
     1
290
     0
176
     1
 90
       50
176
     1
 40
0.0
176
     1
 40
1.0
176
     1
 90
        0
176
     1
 62
    18
420
        0
176
     1
 90
       50
176
     1
 90
        3
176
     1
 62
     5
420
      255
176
     1
290
     0
176
     1
 90
       50
176
     1
 90
       50
176
     1
 90
       50
176
     1
290
     0
176
     1
 90
       50
176
     1
 62
   256
176
     0
 40
1.0
176
     0
 90
        2
176
     1
  1
strokes_ogs.tif
176
     1
290
     0
176
     1
 40
1.0
176
     1
 40
1.0
176
     1
  0
VISUALSTYLE
  5
1DD
102
{ACAD_REACTORS
330
1D9
102
}
330
1D9
100
AcDbVisualStyle
  2
GouraudWithEdges
 70
     3
177
     3
291
     1
 70
    58
 90
        2
176
     1
 90
        2
176
     1
 90
        1
176
     1
 90
        2
176
     1
 40
-0.6
176
     1
 40
30.0
176
     1
 62
     7
176
     1
 90
        1
176
     1
 90
        4
176
     1
 62
     7
176
     1
 62
   257
176
     1
 90
        1
176
     1
 90
        1
176
     1
 40
1.0
176
     1
 90
        0
176
     1
 62
   257
176
     1
 40
1.0
176
     1
 90
        1
176
     1
 90
        6
176
     1
 90
        2
176
     1
 62
     7
176
     1
 90
        5
176
     1
 90
        0
176
     1
 90
        0
176
     1
290
     0
176
     1
 90
       13
176
     1
 40
0.0
176
     1
 90
        0
176
     1
290
     0
176
     1
290
     1
176
     1
290
     1
176
     1
290
     0
176
     1
290
     0
176
     1
290
     0
176
     1
290
     0
176
     1
290
     0
176
     1
290
     0
176
     1
 90
       50
176
     1
 40
0.0
176
     1
 40
1.0
176
     1
 90
        0
176
     1
 62
    18
420
        0
176
     1
 90
       50
176
     1
 90
        3
176
     1
 62
     5
420
      255
176
     1
290
     0
176
     1
 90
       50
176
     1
 90
       50
176
     1
 90
       50
176
     1
290
     0
176
     1
 90
       50
176
     1
 62
   256
176
     0
 40
1.0
176
     0
 90
        2
176
     1
  1
strokes_ogs.tif
176
     1
290
     0
176
     1
 40
1.0
176
     1
 40
1.0
176
     1
  0
VISUALSTYLE
  5
238
102
{ACAD_REACTORS
330
1D9
102
}
330
1D9
100
AcDbVisualStyle
  2
Hidden
 70
     6
177
     3
291
     0
 70
    58
 90
        1
176
     1
 90
        2
176
     1
 90
        2
176
     1
 90
        0
176
     1
 40
0.6
176
     1
 40
30.0
176
     1
 62
     7
420
 16777215
176
     1
 90
        2
176
     1
 90
        2
176
     1
 62
     7
176
     1
 62
   257
176
     1
 90
        2
176
     1
 90
        1
176
     1
 40
40.0
176
     1
 90
        0
176
     1
 62
   257
176
     1
 40
1.0
176
     1
 90
        1
176
     1
 90
        6
176
     1
 90
        2
176
     1
 62
     7
176
     1
 90
        3
176
     1
 90
        0
176
     1
 90
        0
176
     1
290
     0
176
     1
 90
        1
176
     1
 40
0.0
176
     1
 90
        0
176
     1
290
     0
176
     1
290
     1
176
     1
290
     1
176
     1
290
     0
176
     1
290
     0
176
     1
290
     0
176
     1
290
     0
176
     1
290
     0
176
     1
290
     0
176
     1
 90
       50
176
     1
 40
0.0
176
     1
 40
1.0
176
     1
 90
        0
176
     1
 62
    18
420
        0
176
     1
 90
       50
176
     1
 90
        3
176
     1
 62
     5
420
      255
176
     1
290
     0
176
     1
 90
       50
176
     1
 90
       50
176
     1
 90
       50
176
     1
290
     0
176
     1
 90
       50
176
     1
 62
   256
176
     0
 40
1.0
176
     0
 90
        2
176
     1
  1
strokes_ogs.tif
176
     1
290
     0
176
     1
 40
1.0
176
     1
 40
1.0
176
     1
  0
VISUALSTYLE
  5
239
102
{ACAD_REACTORS
330
1D9
102
}
330
1D9
100
AcDbVisualStyle
  2
JitterOff
 70
    20
177
     3
291
     1
 70
    58
 90
        2
176
     0
 90
        2
176
     0
 90
        0
176
     0
 90
        0
176
     0
 40
0.6
176
     0
 40
30.0
176
     0
 62
     7
420
 16777215
176
     0
 90
        1
176
     0
 90
        4
176
     0
 62
     7
176
     0
 62
   257
176
     0
 90
        1
176
     0
 90
        1
176
     0
 40
1.0
176
     0
 90
       10
176
     2
 62
     7
176
     0
 40
1.0
176
     0
 90
        1
176
     0
 90
        6
176
     0
 90
        2
176
     0
 62
     7
176
     0
 90
        5
176
     0
 90
        0
176
     0
 90
        0
176
     0
290
     0
176
     0
 90
        1
176
     0
 40
0.0
176
     0
 90
        0
176
     0
290
     0
176
     0
290
     1
176
     0
290
     1
176
     0
290
     0
176
     0
290
     0
176
     0
290
     0
176
     0
290
     0
176
     0
290
     0
176
     0
290
     0
176
     0
 90
       50
176
     0
 40
0.0
176
     0
 40
1.0
176
     0
 90
        0
176
     0
 62
    18
420
        0
176
     0
 90
       50
176
     0
 90
        3
176
     0
 62
     5
420
      255
176
     0
290
     0
176
     0
 90
       50
176
     0
 90
       50
176
     0
 90
       50
176
     0
290
     0
176
     0
 90
       50
176
     0
 62
   256
176
     0
 40
1.0
176
     0
 90
        2
176
     0
  1
strokes_ogs.tif
176
     0
290
     0
176
     0
 40
1.0
176
     0
 40
1.0
176
     0
  0
VISUALSTYLE
  5
1E7
102
{ACAD_REACTORS
330
1D9
102
}
330
1D9
100
AcDbVisualStyle
  2
Linepattern
 70
    14
177
     3
291
     1
 70
    58
 90
        2
176
     1
 90
        2
176
     1
 90
        0
176
     1
 90
        0
176
     1
 40
-0.6
176
     1
 40
-30.0
176
     1
 62
     7
176
     1
 90
        1
176
     1
 90
        4
176
     1
 62
     7
176
     1
 62
   257
176
     1
 90
        7
176
     1
 90
        7
176
     1
 40
1.0
176
     1
 90
        8
176
     1
 62
     7
176
     1
 40
1.0
176
     1
 90
        1
176
     1
 90
        6
176
     1
 90
        2
176
     1
 62
     7
176
     1
 90
        5
176
     1
 90
        0
176
     1
 90
        0
176
     1
290
     0
176
     1
 90
        1
176
     1
 40
0.0
176
     1
 90
        0
176
     1
290
     0
176
     1
290
     1
176
     1
290
     1
176
     1
290
     0
176
     1
290
     0
176
     1
290
     0
176
     1
290
     0
176
     1
290
     0
176
     1
290
     0
176
     1
 90
       50
176
     1
 40
0.0
176
     1
 40
1.0
176
     1
 90
        0
176
     1
 62
    18
420
        0
176
     1
 90
       50
176
     1
 90
        3
176
     1
 62
     5
420
      255
176
     1
290
     0
176
     1
 90
       50
176
     1
 90
       50
176
     1
 90
       50
176
     1
290
     0
176
     1
 90
       50
176
     1
 62
   256
176
     0
 40
1.0
176
     0
 90
        2
176
     1
  1
strokes_ogs.tif
176
     1
290
     0
176
     1
 40
1.0
176
     1
 40
1.0
176
     1
  0
VISUALSTYLE
  5
23A
102
{ACAD_REACTORS
330
1D9
102
}
330
1D9
100
AcDbVisualStyle
  2
OverhangOff
 70
    21
177
     3
291
     1
 70
    58
 90
        2
176
     0
 90
        2
176
     0
 90
        0
176
     0
 90
        0
176
     0
 40
0.6
176
     0
 40
30.0
176
     0
 62
     7
420
 16777215
176
     0
 90
        1
176
     0
 90
        4
176
     0
 62
     7
176
     0
 62
   257
176
     0
 90
        1
176
     0
 90
        1
176
     0
 40
1.0
176
     0
 90
        9
176
     2
 62
     7
176
     0
 40
1.0
176
     0
 90
        1
176
     0
 90
        6
176
     0
 90
        2
176
     0
 62
     7
176
     0
 90
        5
176
     0
 90
        0
176
     0
 90
        0
176
     0
290
     0
176
     0
 90
        1
176
     0
 40
0.0
176
     0
 90
        0
176
     0
290
     0
176
     0
290
     1
176
     0
290
     1
176
     0
290
     0
176
     0
290
     0
176
     0
290
     0
176
     0
290
     0
176
     0
290
     0
176
     0
290
     0
176
     0
 90
       50
176
     0
 40
0.0
176
     0
 40
1.0
176
     0
 90
        0
176
     0
 62
    18
420
        0
176
     0
 90
       50
176
     0
 90
        3
176
     0
 62
     5
420
      255
176
     0
290
     0
176
     0
 90
       50
176
     0
 90
       50
176
     0
 90
       50
176
     0
290
     0
176
     0
 90
       50
176
     0
 62
   256
176
     0
 40
1.0
176
     0
 90
        2
176
     0
  1
strokes_ogs.tif
176
     0
290
     0
176
     0
 40
1.0
176
     0
 40
1.0
176
     0
  0
VISUALSTYLE
  5
1E2
102
{ACAD_REACTORS
330
1D9
102
}
330
1D9
100
AcDbVisualStyle
  2
Realistic
 70
     8
177
     3
291
     0
 70
    58
 90
        2
176
     1
 90
        2
176
     1
 90
        0
176
     1
 90
        0
176
     1
 40
-0.6
176
     1
 40
-30.0
176
     1
 62
     7
176
     1
 90
        1
176
     1
 90
        0
176
     1
 62
     7
176
     1
 62
   257
176
     1
 90
        1
176
     1
 90
        1
176
     1
 40
1.0
176
     1
 90
        8
176
     1
 62
     8
176
     1
 40
1.0
176
     1
 90
        1
176
     1
 90
        6
176
     1
 90
        2
176
     1
 62
     7
176
     1
 90
        5
176
     1
 90
        0
176
     1
 90
        0
176
     1
290
     0
176
     1
 90
       13
176
     1
 40
0.0
176
     1
 90
        0
176
     1
290
     0
176
     1
290
     1
176
     1
290
     1
176
     1
290
     0
176
     1
290
     0
176
     1
290
     0
176
     1
290
     0
176
     1
290
     0
176
     1
290
     0
176
     1
 90
       50
176
     1
 40
0.0
176
     1
 40
1.0
176
     1
 90
        0
176
     1
 62
    18
420
        0
176
     1
 90
       50
176
     1
 90
        3
176
     1
 62
     5
420
      255
176
     1
290
     0
176
     1
 90
       50
176
     1
 90
       50
176
     1
 90
       50
176
     1
290
     0
176
     1
 90
       50
176
     1
 62
   256
176
     0
 40
1.0
176
     0
 90
        2
176
     1
  1
strokes_ogs.tif
176
     1
290
     0
176
     1
 40
1.0
176
     1
 40
1.0
176
     1
  0
VISUALSTYLE
  5
240
102
{ACAD_REACTORS
330
1D9
102
}
330
1D9
100
AcDbVisualStyle
  2
Shaded
 70
    27
177
     3
291
     0
 70
    58
 90
        2
176
     1
 90
        2
176
     1
 90
        1
176
     1
 90
        2
176
     1
 40
0.6
176
     1
 40
30.0
176
     1
 62
     7
420
 16777215
176
     1
 90
        0
176
     1
 90
        4
176
     1
 62
     7
176
     1
 62
   257
176
     1
 90
        1
176
     1
 90
        1
176
     1
 40
1.0
176
     1
 90
        8
176
     1
 62
   257
176
     1
 40
1.0
176
     1
 90
        1
176
     1
 90
        6
176
     1
 90
        2
176
     1
 62
     8
420
  7895160
176
     1
 90
        3
176
     1
 90
        0
176
     1
 90
        0
176
     1
290
     0
176
     1
 90
        5
176
     1
 40
0.0
176
     1
 90
        0
176
     1
290
     0
176
     1
290
     1
176
     1
290
     1
176
     1
290
     0
176
     1
290
     0
176
     1
290
     0
176
     1
290
     0
176
     1
290
     0
176
     1
290
     0
176
     1
 90
       50
176
     1
 40
0.0
176
     1
 40
1.0
176
     1
 90
        0
176
     1
 62
    18
420
        0
176
     1
 90
       50
176
     1
 90
        3
176
     1
 62
     5
420
      255
176
     1
290
     0
176
     1
 90
       50
176
     1
 90
       50
176
     1
 90
       50
176
     1
290
     0
176
     1
 90
       50
176
     1
 62
   256
176
     0
 40
1.0
176
     0
 90
        2
176
     1
  1
strokes_ogs.tif
176
     1
290
     0
176
     1
 40
1.0
176
     1
 40
1.0
176
     1
  0
VISUALSTYLE
  5
23F
102
{ACAD_REACTORS
330
1D9
102
}
330
1D9
100
AcDbVisualStyle
  2
Shaded with edges
 70
    26
177
     3
291
     0
 70
    58
 90
        2
176
     1
 90
        2
176
     1
 90
        1
176
     1
 90
        2
176
     1
 40
0.6
176
     1
 40
30.0
176
     1
 62
     7
420
 16777215
176
     1
 90
        1
176
     1
 90
       10
176
     1
 62
     7
176
     1
 62
   257
176
     1
 90
        2
176
     1
 90
        1
176
     1
 40
1.0
176
     1
 90
        8
176
     1
 62
   257
176
     1
 40
1.0
176
     1
 90
        1
176
     1
 90
        6
176
     1
 90
        2
176
     1
 62
     7
176
     1
 90
        3
176
     1
 90
        0
176
     1
 90
        0
176
     1
290
     0
176
     1
 90
        5
176
     1
 40
0.0
176
     1
 90
        0
176
     1
290
     0
176
     1
290
     1
176
     1
290
     1
176
     1
290
     0
176
     1
290
     0
176
     1
290
     0
176
     1
290
     0
176
     1
290
     0
176
     1
290
     0
176
     1
 90
       50
176
     1
 40
0.0
176
     1
 40
1.0
176
     1
 90
        0
176
     1
 62
    18
420
        0
176
     1
 90
       50
176
     1
 90
        3
176
     1
 62
     5
420
      255
176
     1
290
     0
176
     1
 90
       50
176
     1
 90
       50
176
     1
 90
       50
176
     1
290
     0
176
     1
 90
       50
176
     1
 62
   256
176
     0
 40
1.0
176
     0
 90
        2
176
     1
  1
strokes_ogs.tif
176
     1
290
     0
176
     1
 40
1.0
176
     1
 40
1.0
176
     1
  0
VISUALSTYLE
  5
23C
102
{ACAD_REACTORS
330
1D9
102
}
330
1D9
100
AcDbVisualStyle
  2
Shades of Gray
 70
    23
177
     3
291
     0
 70
    58
 90
        2
176
     1
 90
        2
176
     1
 90
        3
176
     1
 90
        0
176
     1
 40
0.6
176
     1
 40
30.0
176
     1
 62
     7
420
 16777215
176
     1
 90
        2
176
     1
 90
        2
176
     1
 62
     7
176
     1
 62
     7
176
     1
 90
        1
176
     1
 90
        1
176
     1
 40
40.0
176
     1
 90
        8
176
     1
 62
     7
176
     1
 40
1.0
176
     1
 90
        1
176
     1
 90
        6
176
     1
 90
        2
176
     1
 62
     7
176
     1
 90
        3
176
     1
 90
        0
176
     1
 90
        0
176
     1
290
     0
176
     1
 90
        1
176
     1
 40
0.0
176
     1
 90
        0
176
     1
290
     0
176
     1
290
     1
176
     1
290
     1
176
     1
290
     0
176
     1
290
     0
176
     1
290
     0
176
     1
290
     0
176
     1
290
     0
176
     1
290
     0
176
     1
 90
       50
176
     1
 40
0.0
176
     1
 40
1.0
176
     1
 90
        0
176
     1
 62
    18
420
        0
176
     1
 90
       50
176
     1
 90
        3
176
     1
 62
     5
420
      255
176
     1
290
     0
176
     1
 90
       50
176
     1
 90
       50
176
     1
 90
       50
176
     1
290
     0
176
     1
 90
       50
176
     1
 62
   256
176
     0
 40
1.0
176
     0
 90
        2
176
     1
  1
strokes_ogs.tif
176
     1
290
     0
176
     1
 40
1.0
176
     1
 40
1.0
176
     1
  0
VISUALSTYLE
  5
23D
102
{ACAD_REACTORS
330
1D9
102
}
330
1D9
100
AcDbVisualStyle
  2
Sketchy
 70
    24
177
     3
291
     0
 70
    58
 90
        1
176
     1
 90
        2
176
     1
 90
        2
176
     1
 90
        0
176
     1
 40
0.6
176
     1
 40
30.0
176
     1
 62
     7
420
 16777215
176
     1
 90
        2
176
     1
 90
        2
176
     1
 62
     7
176
     1
 62
     7
176
     1
 90
        1
176
     1
 90
        1
176
     1
 40
40.0
176
     1
 90
       11
176
     1
 62
     7
176
     1
 40
1.0
176
     1
 90
        1
176
     1
 90
        6
176
     1
 90
        2
176
     1
 62
     7
176
     1
 90
        6
176
     1
 90
        0
176
     1
 90
        0
176
     1
290
     0
176
     1
 90
        1
176
     1
 40
0.0
176
     1
 90
        0
176
     1
290
     0
176
     1
290
     1
176
     1
290
     1
176
     1
290
     0
176
     1
290
     0
176
     1
290
     0
176
     1
290
     0
176
     1
290
     0
176
     1
290
     0
176
     1
 90
       50
176
     1
 40
0.0
176
     1
 40
1.0
176
     1
 90
        0
176
     1
 62
    18
420
        0
176
     1
 90
       50
176
     1
 90
        3
176
     1
 62
     5
420
      255
176
     1
290
     0
176
     1
 90
       50
176
     1
 90
       50
176
     1
 90
       50
176
     1
290
     0
176
     1
 90
       50
176
     1
 62
   256
176
     0
 40
1.0
176
     0
 90
        2
176
     1
  1
strokes_ogs.tif
176
     1
290
     0
176
     1
 40
1.0
176
     1
 40
1.0
176
     1
  0
VISUALSTYLE
  5
1E6
102
{ACAD_REACTORS
330
1D9
102
}
330
1D9
100
AcDbVisualStyle
  2
Thicken
 70
    13
177
     3
291
     1
 70
    58
 90
        2
176
     1
 90
        2
176
     1
 90
        0
176
     1
 90
        0
176
     1
 40
-0.6
176
     1
 40
-30.0
176
     1
 62
     7
176
     1
 90
        1
176
     1
 90
        4
176
     1
 62
     7
176
     1
 62
   257
176
     1
 90
        1
176
     1
 90
        1
176
     1
 40
1.0
176
     1
 90
       12
176
     1
 62
     7
176
     1
 40
1.0
176
     1
 90
        1
176
     1
 90
        6
176
     1
 90
        2
176
     1
 62
     7
176
     1
 90
        5
176
     1
 90
        0
176
     1
 90
        0
176
     1
290
     0
176
     1
 90
        1
176
     1
 40
0.0
176
     1
 90
        0
176
     1
290
     0
176
     1
290
     1
176
     1
290
     1
176
     1
290
     0
176
     1
290
     0
176
     1
290
     0
176
     1
290
     0
176
     1
290
     0
176
     1
290
     0
176
     1
 90
       50
176
     1
 40
0.0
176
     1
 40
1.0
176
     1
 90
        0
176
     1
 62
    18
420
        0
176
     1
 90
       50
176
     1
 90
        3
176
     1
 62
     5
420
      255
176
     1
290
     0
176
     1
 90
       50
176
     1
 90
       50
176
     1
 90
       50
176
     1
290
     0
176
     1
 90
       50
176
     1
 62
   256
176
     0
 40
1.0
176
     0
 90
        2
176
     1
  1
strokes_ogs.tif
176
     1
290
     0
176
     1
 40
1.0
176
     1
 40
1.0
176
     1
  0
VISUALSTYLE
  5
237
102
{ACAD_REACTORS
330
1D9
102
}
330
1D9
100
AcDbVisualStyle
  2
Wireframe
 70
     5
177
     3
291
     0
 70
    58
 90
        0
176
     1
 90
        2
176
     1
 90
        0
176
     1
 90
        0
176
     1
 40
0.6
176
     1
 40
30.0
176
     1
 62
     7
420
 16777215
176
     1
 90
        1
176
     1
 90
        4
176
     1
 62
     7
176
     1
 62
   257
176
     1
 90
        1
176
     1
 90
        1
176
     1
 40
1.0
176
     1
 90
        0
176
     1
 62
   257
176
     1
 40
1.0
176
     1
 90
        1
176
     1
 90
        6
176
     1
 90
        2
176
     1
 62
     7
176
     1
 90
        3
176
     1
 90
        0
176
     1
 90
        0
176
     1
290
     0
176
     1
 90
        1
176
     1
 40
0.0
176
     1
 90
        0
176
     1
290
     0
176
     1
290
     1
176
     1
290
     1
176
     1
290
     0
176
     1
290
     0
176
     1
290
     0
176
     1
290
     0
176
     1
290
     0
176
     1
290
     0
176
     1
 90
       50
176
     1
 40
0.0
176
     1
 40
1.0
176
     1
 90
        0
176
     1
 62
    18
420
        0
176
     1
 90
       50
176
     1
 90
        3
176
     1
 62
     5
420
      255
176
     1
290
     0
176
     1
 90
       50
176
     1
 90
       50
176
     1
 90
       50
176
     1
290
     0
176
     1
 90
       50
176
     1
 62
   256
176
     0
 40
1.0
176
     0
 90
        2
176
     1
  1
strokes_ogs.tif
176
     1
290
     0
176
     1
 40
1.0
176
     1
 40
1.0
176
     1
  0
VISUALSTYLE
  5
23E
102
{ACAD_REACTORS
330
1D9
102
}
330
1D9
100
AcDbVisualStyle
  2
X-Ray
 70
    25
177
     3
291
     0
 70
    58
 90
        2
176
     1
 90
        2
176
     1
 90
        1
176
     1
 90
        1
176
     1
 40
0.5
176
     1
 40
30.0
176
     1
 62
     7
420
 16777215
176
     1
 90
        1
176
     1
 90
        0
176
     1
 62
     7
176
     1
 62
   257
176
     1
 90
        1
176
     1
 90
        1
176
     1
 40
1.0
176
     1
 90
        8
176
     1
 62
     7
176
     1
 40
1.0
176
     1
 90
        1
176
     1
 90
        6
176
     1
 90
        2
176
     1
 62
     7
176
     1
 90
        3
176
     1
 90
        0
176
     1
 90
        0
176
     1
290
     0
176
     1
 90
       13
176
     1
 40
0.0
176
     1
 90
        0
176
     1
290
     0
176
     1
290
     1
176
     1
290
     1
176
     1
290
     0
176
     1
290
     0
176
     1
290
     0
176
     1
290
     0
176
     1
290
     0
176
     1
290
     0
176
     1
 90
       50
176
     1
 40
0.0
176
     1
 40
1.0
176
     1
 90
        0
176
     1
 62
    18
420
        0
176
     1
 90
       50
176
     1
 90
        3
176
     1
 62
     5
420
      255
176
     1
290
     0
176
     1
 90
       50
176
     1
 90
       50
176
     1
 90
       50
176
     1
290
     0
176
     1
 90
       50
176
     1
 62
   256
176
     0
 40
1.0
176
     0
 90
        2
176
     1
  1
strokes_ogs.tif
176
     1
290
     0
176
     1
 40
1.0
176
     1
 40
1.0
176
     1
  0
DICTIONARYVAR
  5
24C
102
{ACAD_REACTORS
330
1F6
102
}
330
1F6
100
DictionaryVariables
280
     0
  1
1:1
  0
DICTIONARYVAR
  5
24E
102
{ACAD_REACTORS
330
1F6
102
}
330
1F6
100
DictionaryVariables
280
     0
  1
Standard
  0
DICTIONARYVAR
  5
24D
102
{ACAD_REACTORS
330
1F6
102
}
330
1F6
100
DictionaryVariables
280
     0
  1
Standard
  0
DICTIONARYVAR
  5
1FA
102
{ACAD_REACTORS
330
1F6
102
}
330
1F6
100
DictionaryVariables
280
     0
  1
2
  0
DICTIONARYVAR
  5
1FB
102
{ACAD_REACTORS
330
1F6
102
}
330
1F6
100
DictionaryVariables
280
     0
  1
1
  0
DICTIONARYVAR
  5
1F9
102
{ACAD_REACTORS
330
1F6
102
}
330
1F6
100
DictionaryVariables
280
     0
  1
0
  0
DICTIONARY
  5
38B
330
242
100
AcDbDictionary
280
     1
281
     1
  3
ACAD_ROUNDTRIP_2008_TABLESTYLE_CELLSTYLEMAP
360
38C
  0
CELLSTYLEMAP
  5
38C
102
{ACAD_REACTORS
330
38B
102
}
330
38B
100
AcDbCellStyleMap
 90
        3
300
CELLSTYLE
  1
TABLEFORMAT_BEGIN
 90
        5
170
     1
 91
        0
 92
    32768
 62
   257
 93
        1
300
CONTENTFORMAT
  1
CONTENTFORMAT_BEGIN
 90
        0
 91
        0
 92
        4
 93
        0
300

 40
0.0
140
1.0
 94
        5
 62
     0
340
11
144
0.25
309
CONTENTFORMAT_END
171
     1
301
MARGIN
  1
CELLMARGIN_BEGIN
 40
0.06
 40
0.06
 40
0.06
 40
0.06
 40
0.06
 40
0.06
309
CELLMARGIN_END
 94
        6
 95
        1
302
GRIDFORMAT
  1
GRIDFORMAT_BEGIN
 90
        0
 91
        1
 62
     0
 92
       -2
340
14
 93
        0
 40
0.045
309
GRIDFORMAT_END
 95
        2
302
GRIDFORMAT
  1
GRIDFORMAT_BEGIN
 90
        0
 91
        1
 62
     0
 92
       -2
340
14
 93
        0
 40
0.045
309
GRIDFORMAT_END
 95
        4
302
GRIDFORMAT
  1
GRIDFORMAT_BEGIN
 90
        0
 91
        1
 62
     0
 92
       -2
340
14
 93
        0
 40
0.045
309
GRIDFORMAT_END
 95
        8
302
GRIDFORMAT
  1
GRIDFORMAT_BEGIN
 90
        0
 91
        1
 62
     0
 92
       -2
340
14
 93
        0
 40
0.045
309
GRIDFORMAT_END
 95
       16
302
GRIDFORMAT
  1
GRIDFORMAT_BEGIN
 90
        0
 91
        1
 62
     0
 92
       -2
340
14
 93
        0
 40
0.045
309
GRIDFORMAT_END
 95
       32
302
GRIDFORMAT
  1
GRIDFORMAT_BEGIN
 90
        0
 91
        1
 62
     0
 92
       -2
340
14
 93
        0
 40
0.045
309
GRIDFORMAT_END
309
TABLEFORMAT_END
  1
CELLSTYLE_BEGIN
 90
        1
 91
        1
300
_TITLE
309
CELLSTYLE_END
300
CELLSTYLE
  1
TABLEFORMAT_BEGIN
 90
        5
170
     1
 91
        0
 92
        0
 62
   257
 93
        1
300
CONTENTFORMAT
  1
CONTENTFORMAT_BEGIN
 90
        0
 91
        0
 92
        4
 93
        0
300

 40
0.0
140
1.0
 94
        5
 62
     0
340
11
144
0.18
309
CONTENTFORMAT_END
171
     1
301
MARGIN
  1
CELLMARGIN_BEGIN
 40
0.06
 40
0.06
 40
0.06
 40
0.06
 40
0.06
 40
0.06
309
CELLMARGIN_END
 94
        6
 95
        1
302
GRIDFORMAT
  1
GRIDFORMAT_BEGIN
 90
        0
 91
        1
 62
     0
 92
       -2
340
14
 93
        0
 40
0.045
309
GRIDFORMAT_END
 95
        2
302
GRIDFORMAT
  1
GRIDFORMAT_BEGIN
 90
        0
 91
        1
 62
     0
 92
       -2
340
14
 93
        0
 40
0.045
309
GRIDFORMAT_END
 95
        4
302
GRIDFORMAT
  1
GRIDFORMAT_BEGIN
 90
        0
 91
        1
 62
     0
 92
       -2
340
14
 93
        0
 40
0.045
309
GRIDFORMAT_END
 95
        8
302
GRIDFORMAT
  1
GRIDFORMAT_BEGIN
 90
        0
 91
        1
 62
     0
 92
       -2
340
14
 93
        0
 40
0.045
309
GRIDFORMAT_END
 95
       16
302
GRIDFORMAT
  1
GRIDFORMAT_BEGIN
 90
        0
 91
        1
 62
     0
 92
       -2
340
14
 93
        0
 40
0.045
309
GRIDFORMAT_END
 95
       32
302
GRIDFORMAT
  1
GRIDFORMAT_BEGIN
 90
        0
 91
        1
 62
     0
 92
       -2
340
14
 93
        0
 40
0.045
309
GRIDFORMAT_END
309
TABLEFORMAT_END
  1
CELLSTYLE_BEGIN
 90
        2
 91
        1
300
_HEADER
309
CELLSTYLE_END
300
CELLSTYLE
  1
TABLEFORMAT_BEGIN
 90
        5
170
     1
 91
        0
 92
        0
 62
   257
 93
        1
300
CONTENTFORMAT
  1
CONTENTFORMAT_BEGIN
 90
        0
 91
        0
 92
        4
 93
        0
300

 40
0.0
140
1.0
 94
        2
 62
     0
340
11
144
0.18
309
CONTENTFORMAT_END
171
     1
301
MARGIN
  1
CELLMARGIN_BEGIN
 40
0.06
 40
0.06
 40
0.06
 40
0.06
 40
0.06
 40
0.06
309
CELLMARGIN_END
 94
        6
 95
        1
302
GRIDFORMAT
  1
GRIDFORMAT_BEGIN
 90
        0
 91
        1
 62
     0
 92
       -2
340
14
 93
        0
 40
0.045
309
GRIDFORMAT_END
 95
        2
302
GRIDFORMAT
  1
GRIDFORMAT_BEGIN
 90
        0
 91
        1
 62
     0
 92
       -2
340
14
 93
        0
 40
0.045
309
GRIDFORMAT_END
 95
        4
302
GRIDFORMAT
  1
GRIDFORMAT_BEGIN
 90
        0
 91
        1
 62
     0
 92
       -2
340
14
 93
        0
 40
0.045
309
GRIDFORMAT_END
 95
        8
302
GRIDFORMAT
  1
GRIDFORMAT_BEGIN
 90
        0
 91
        1
 62
     0
 92
       -2
340
14
 93
        0
 40
0.045
309
GRIDFORMAT_END
 95
       16
302
GRIDFORMAT
  1
GRIDFORMAT_BEGIN
 90
        0
 91
        1
 62
     0
 92
       -2
340
14
 93
        0
 40
0.045
309
GRIDFORMAT_END
 95
       32
302
GRIDFORMAT
  1
GRIDFORMAT_BEGIN
 90
        0
 91
        1
 62
     0
 92
       -2
340
14
 93
        0
 40
0.045
309
GRIDFORMAT_END
309
TABLEFORMAT_END
  1
CELLSTYLE_BEGIN
 90
        3
 91
        2
300
_DATA
309
CELLSTYLE_END
  0
ENDSEC
  0
EOF
