  0
SECTION
  2
HEADER
  9
$ACADVER
  1
AC1027
  9
$ACADMAINTVER
 70
   105
  9
$DWGCODEPAGE
  3
ANSI_1252
  9
$REQUIREDVERSIONS
160
                 0
  9
$LASTSAVEDBY
  1
matthias.ochs
  9
$INSBASE
 10
0.0
 20
0.0
 30
0.0
  9
$EXTMIN
 10
-48.0983553191201
 20
-35.99836059418901
 30
0.0
  9
$EXTMAX
 10
61.94911717055381
 20
45.88735712450534
 30
0.0
  9
$LIMMIN
 10
-46.008652376
 20
-21.220050157
  9
$LIMMAX
 10
56.271044014
 20
23.437822279
  9
$ORTHOMODE
 70
     0
  9
$REGENMODE
 70
     1
  9
$FILLMODE
 70
     1
  9
$QTEXTMODE
 70
     0
  9
$MIRRTEXT
 70
     1
  9
$LTSCALE
 40
1.0
  9
$ATTMODE
 70
     1
  9
$TEXTSIZE
 40
0.2
  9
$TRACEWID
 40
0.05
  9
$TEXTSTYLE
  7
Standard
  9
$CLAYER
  8
SK1
  9
$CELTYPE
  6
ByLayer
  9
$CECOLOR
 62
   256
  9
$CELTSCALE
 40
1.0
  9
$DISPSILH
 70
     0
  9
$DIMSCALE
 40
1.0
  9
$DIMASZ
 40
0.18
  9
$DIMEXO
 40
0.0625
  9
$DIMDLI
 40
0.38
  9
$DIMRND
 40
0.0
  9
$DIMDLE
 40
0.0
  9
$DIMEXE
 40
0.18
  9
$DIMTP
 40
0.0
  9
$DIMTM
 40
0.0
  9
$DIMTXT
 40
0.18
  9
$DIMCEN
 40
0.09
  9
$DIMTSZ
 40
0.0
  9
$DIMTOL
 70
     0
  9
$DIMLIM
 70
     0
  9
$DIMTIH
 70
     1
  9
$DIMTOH
 70
     1
  9
$DIMSE1
 70
     0
  9
$DIMSE2
 70
     0
  9
$DIMTAD
 70
     0
  9
$DIMZIN
 70
     0
  9
$DIMBLK
  1

  9
$DIMASO
 70
     1
  9
$DIMSHO
 70
     1
  9
$DIMPOST
  1

  9
$DIMAPOST
  1

  9
$DIMALT
 70
     0
  9
$DIMALTD
 70
     2
  9
$DIMALTF
 40
25.4
  9
$DIMLFAC
 40
1.0
  9
$DIMTOFL
 70
     0
  9
$DIMTVP
 40
0.0
  9
$DIMTIX
 70
     0
  9
$DIMSOXD
 70
     0
  9
$DIMSAH
 70
     0
  9
$DIMBLK1
  1

  9
$DIMBLK2
  1

  9
$DIMSTYLE
  2
Standard
  9
$DIMCLRD
 70
     0
  9
$DIMCLRE
 70
     0
  9
$DIMCLRT
 70
     0
  9
$DIMTFAC
 40
1.0
  9
$DIMGAP
 40
0.09
  9
$DIMJUST
 70
     0
  9
$DIMSD1
 70
     0
  9
$DIMSD2
 70
     0
  9
$DIMTOLJ
 70
     1
  9
$DIMTZIN
 70
     0
  9
$DIMALTZ
 70
     0
  9
$DIMALTTZ
 70
     0
  9
$DIMUPT
 70
     0
  9
$DIMDEC
 70
     4
  9
$DIMTDEC
 70
     4
  9
$DIMALTU
 70
     2
  9
$DIMALTTD
 70
     2
  9
$DIMTXSTY
  7
Standard
  9
$DIMAUNIT
 70
     0
  9
$DIMADEC
 70
     0
  9
$DIMALTRND
 40
0.0
  9
$DIMAZIN
 70
     0
  9
$DIMDSEP
 70
    46
  9
$DIMATFIT
 70
     3
  9
$DIMFRAC
 70
     0
  9
$DIMLDRBLK
  1

  9
$DIMLUNIT
 70
     2
  9
$DIMLWD
 70
    -2
  9
$DIMLWE
 70
    -2
  9
$DIMTMOVE
 70
     2
  9
$DIMFXL
 40
1.0
  9
$DIMFXLON
 70
     0
  9
$DIMJOGANG
 40
0.7853981633974483
  9
$DIMTFILL
 70
     0
  9
$DIMTFILLCLR
 70
     0
  9
$DIMARCSYM
 70
     0
  9
$DIMLTYPE
  6

  9
$DIMLTEX1
  6

  9
$DIMLTEX2
  6

  9
$DIMTXTDIRECTION
 70
     0
  9
$LUNITS
 70
     2
  9
$LUPREC
 70
     4
  9
$SKETCHINC
 40
0.1
  9
$FILLETRAD
 40
0.5
  9
$AUNITS
 70
     2
  9
$AUPREC
 70
     0
  9
$MENU
  1
.
  9
$ELEVATION
 40
0.0
  9
$PELEVATION
 40
0.0
  9
$THICKNESS
 40
0.0
  9
$LIMCHECK
 70
     0
  9
$CHAMFERA
 40
0.5
  9
$CHAMFERB
 40
0.5
  9
$CHAMFERC
 40
1.0
  9
$CHAMFERD
 40
0.0
  9
$SKPOLY
 70
     0
  9
$TDCREATE
 40
2458327.544406759
  9
$TDUCREATE
 40
2458327.461073426
  9
$TDUPDATE
 40
2458677.444686551
  9
$TDUUPDATE
 40
2458677.361353218
  9
$TDINDWG
 40
0.0117096875
  9
$TDUSRTIMER
 40
0.0030714236
  9
$USRTIMER
 70
     1
  9
$ANGBASE
 50
0.0
  9
$ANGDIR
 70
     0
  9
$PDMODE
 70
     0
  9
$PDSIZE
 40
0.0
  9
$PLINEWID
 40
0.0
  9
$SPLFRAME
 70
     0
  9
$SPLINETYPE
 70
     6
  9
$SPLINESEGS
 70
     8
  9
$HANDSEED
  5
37E
  9
$SURFTAB1
 70
     6
  9
$SURFTAB2
 70
     6
  9
$SURFTYPE
 70
     6
  9
$SURFU
 70
     6
  9
$SURFV
 70
     6
  9
$UCSBASE
  2

  9
$UCSNAME
  2

  9
$UCSORG
 10
0.0
 20
0.0
 30
0.0
  9
$UCSXDIR
 10
1.0
 20
0.0
 30
0.0
  9
$UCSYDIR
 10
0.0
 20
1.0
 30
0.0
  9
$UCSORTHOREF
  2

  9
$UCSORTHOVIEW
 70
     0
  9
$UCSORGTOP
 10
0.0
 20
0.0
 30
0.0
  9
$UCSORGBOTTOM
 10
0.0
 20
0.0
 30
0.0
  9
$UCSORGLEFT
 10
0.0
 20
0.0
 30
0.0
  9
$UCSORGRIGHT
 10
0.0
 20
0.0
 30
0.0
  9
$UCSORGFRONT
 10
0.0
 20
0.0
 30
0.0
  9
$UCSORGBACK
 10
0.0
 20
0.0
 30
0.0
  9
$PUCSBASE
  2

  9
$PUCSNAME
  2

  9
$PUCSORG
 10
0.0
 20
0.0
 30
0.0
  9
$PUCSXDIR
 10
1.0
 20
0.0
 30
0.0
  9
$PUCSYDIR
 10
0.0
 20
1.0
 30
0.0
  9
$PUCSORTHOREF
  2

  9
$PUCSORTHOVIEW
 70
     0
  9
$PUCSORGTOP
 10
0.0
 20
0.0
 30
0.0
  9
$PUCSORGBOTTOM
 10
0.0
 20
0.0
 30
0.0
  9
$PUCSORGLEFT
 10
0.0
 20
0.0
 30
0.0
  9
$PUCSORGRIGHT
 10
0.0
 20
0.0
 30
0.0
  9
$PUCSORGFRONT
 10
0.0
 20
0.0
 30
0.0
  9
$PUCSORGBACK
 10
0.0
 20
0.0
 30
0.0
  9
$USERI1
 70
     0
  9
$USERI2
 70
     0
  9
$USERI3
 70
     0
  9
$USERI4
 70
     0
  9
$USERI5
 70
     0
  9
$USERR1
 40
0.0
  9
$USERR2
 40
0.0
  9
$USERR3
 40
0.0
  9
$USERR4
 40
0.0
  9
$USERR5
 40
0.0
  9
$WORLDVIEW
 70
     1
  9
$SHADEDGE
 70
     3
  9
$SHADEDIF
 70
    70
  9
$TILEMODE
 70
     1
  9
$MAXACTVP
 70
    64
  9
$PINSBASE
 10
0.0
 20
0.0
 30
0.0
  9
$PLIMCHECK
 70
     0
  9
$PEXTMIN
 10
1.000000000000000E+20
 20
1.000000000000000E+20
 30
1.000000000000000E+20
  9
$PEXTMAX
 10
-1.000000000000000E+20
 20
-1.000000000000000E+20
 30
-1.000000000000000E+20
  9
$PLIMMIN
 10
0.0
 20
0.0
  9
$PLIMMAX
 10
0.0
 20
0.0
  9
$UNITMODE
 70
     0
  9
$VISRETAIN
 70
     1
  9
$PLINEGEN
 70
     0
  9
$PSLTSCALE
 70
     1
  9
$TREEDEPTH
 70
  3020
  9
$CMLSTYLE
  2
Standard
  9
$CMLJUST
 70
     0
  9
$CMLSCALE
 40
1.0
  9
$PROXYGRAPHICS
 70
     1
  9
$MEASUREMENT
 70
     0
  9
$CELWEIGHT
370
    -1
  9
$ENDCAPS
280
     0
  9
$JOINSTYLE
280
     0
  9
$LWDISPLAY
290
     0
  9
$INSUNITS
 70
     0
  9
$HYPERLINKBASE
  1

  9
$STYLESHEET
  1

  9
$XEDIT
290
     1
  9
$CEPSNTYPE
380
     0
  9
$PSTYLEMODE
290
     1
  9
$FINGERPRINTGUID
  2
{E0EE072E-08C7-4805-AC31-36B4FD8CE9D2}
  9
$VERSIONGUID
  2
{FAEB1C32-E019-11D5-929B-00C0DF256EC4}
  9
$EXTNAMES
290
     1
  9
$PSVPSCALE
 40
0.0
  9
$OLESTARTUP
290
     0
  9
$SORTENTS
280
   127
  9
$INDEXCTL
280
     0
  9
$HIDETEXT
280
     1
  9
$XCLIPFRAME
280
     2
  9
$HALOGAP
280
     0
  9
$OBSCOLOR
 70
   257
  9
$OBSLTYPE
280
     0
  9
$INTERSECTIONDISPLAY
280
     0
  9
$INTERSECTIONCOLOR
 70
   257
  9
$DIMASSOC
280
     2
  9
$PROJECTNAME
  1

  9
$CAMERADISPLAY
290
     0
  9
$LENSLENGTH
 40
50.0
  9
$CAMERAHEIGHT
 40
0.0
  9
$STEPSPERSEC
 40
2.0
  9
$STEPSIZE
 40
6.0
  9
$3DDWFPREC
 40
2.0
  9
$PSOLWIDTH
 40
0.25
  9
$PSOLHEIGHT
 40
4.0
  9
$LOFTANG1
 40
1.570796326794897
  9
$LOFTANG2
 40
1.570796326794897
  9
$LOFTMAG1
 40
0.0
  9
$LOFTMAG2
 40
0.0
  9
$LOFTPARAM
 70
     7
  9
$LOFTNORMALS
280
     1
  9
$LATITUDE
 40
37.795
  9
$LONGITUDE
 40
-122.394
  9
$NORTHDIRECTION
 40
0.0
  9
$TIMEZONE
 70
 -8000
  9
$LIGHTGLYPHDISPLAY
280
     1
  9
$TILEMODELIGHTSYNCH
280
     1
  9
$SOLIDHIST
280
     0
  9
$SHOWHIST
280
     1
  9
$DWFFRAME
280
     2
  9
$DGNFRAME
280
     2
  9
$REALWORLDSCALE
290
     1
  9
$INTERFERECOLOR
 62
   256
  9
$CSHADOW
280
     0
  9
$SHADOWPLANELOCATION
 40
0.0
  0
ENDSEC
  0
SECTION
  2
CLASSES
  0
CLASS
  1
ACDBDICTIONARYWDFLT
  2
AcDbDictionaryWithDefault
  3
ObjectDBX Classes
 90
        0
 91
       13
280
     0
281
     0
  0
CLASS
  1
SCALE
  2
AcDbScale
  3
ObjectDBX Classes
 90
     1153
 91
       13
280
     0
281
     0
  0
CLASS
  1
VISUALSTYLE
  2
AcDbVisualStyle
  3
ObjectDBX Classes
 90
     4095
 91
       13
280
     0
281
     0
  0
CLASS
  1
MATERIAL
  2
AcDbMaterial
  3
ObjectDBX Classes
 90
     1153
 91
       13
280
     0
281
     0
  0
CLASS
  1
DICTIONARYVAR
  2
AcDbDictionaryVar
  3
ObjectDBX Classes
 90
        0
 91
       11
280
     0
281
     0
  0
CLASS
  1
ACDBPLACEHOLDER
  2
AcDbPlaceHolder
  3
ObjectDBX Classes
 90
        0
 91
        1
280
     0
281
     0
  0
CLASS
  1
LAYOUT
  2
AcDbLayout
  3
ObjectDBX Classes
 90
        0
 91
        1
280
     0
281
     0
  0
CLASS
  1
TABLESTYLE
  2
AcDbTableStyle
  3
ObjectDBX Classes
 90
     4095
 91
       12
280
     0
281
     0
  0
CLASS
  1
MLEADERSTYLE
  2
AcDbMLeaderStyle
  3
ACDB_MLEADERSTYLE_CLASS
 90
     4095
 91
       12
280
     0
281
     0
  0
CLASS
  1
SUN
  2
AcDbSun
  3
SCENEOE
 90
     1153
 91
       13
280
     0
281
     0
  0
CLASS
  1
SORTENTSTABLE
  2
AcDbSortentsTable
  3
ObjectDBX Classes
 90
        0
 91
        9
280
     0
281
     0
  0
CLASS
  1
CELLSTYLEMAP
  2
AcDbCellStyleMap
  3
ObjectDBX Classes
 90
     1152
 91
        8
280
     0
281
     0
  0
ENDSEC
  0
SECTION
  2
TABLES
  0
TABLE
  2
VPORT
  5
8
330
0
100
AcDbSymbolTable
 70
     1
  0
VPORT
  5
198
330
8
100
AcDbSymbolTableRecord
100
AcDbViewportTableRecord
  2
*Active
 70
     0
 10
0.0
 20
0.0
 11
1.0
 21
1.0
 12
-6.711164312918598
 22
-22.68504512252748
 13
0.0
 23
0.0
 14
0.5
 24
0.5
 15
0.5
 25
0.5
 16
0.0
 26
0.0
 36
1.0
 17
0.0
 27
0.0
 37
0.0
 40
234.7302875067553
 41
1.831002331002331
 42
50.0
 43
0.0
 44
0.0
 50
0.0
 51
0.0
 71
    16
 72
   100
 73
     1
 74
     3
 75
     0
 76
     0
 77
     0
 78
     0
281
     0
 65
     1
110
0.0
120
0.0
130
0.0
111
1.0
121
0.0
131
0.0
112
0.0
122
1.0
132
0.0
 79
     0
146
0.0
348
1CA
 60
     3
 61
     5
292
     1
282
     1
141
0.0
142
0.0
 63
   256
361
27B
  0
ENDTAB
  0
TABLE
  2
LTYPE
  5
5
330
0
100
AcDbSymbolTable
 70
     8
  0
LTYPE
  5
14
330
5
100
AcDbSymbolTableRecord
100
AcDbLinetypeTableRecord
  2
ByBlock
 70
     0
  3

 72
    65
 73
     0
 40
0.0
  0
LTYPE
  5
15
330
5
100
AcDbSymbolTableRecord
100
AcDbLinetypeTableRecord
  2
ByLayer
 70
     0
  3

 72
    65
 73
     0
 40
0.0
  0
LTYPE
  5
16
330
5
100
AcDbSymbolTableRecord
100
AcDbLinetypeTableRecord
  2
Continuous
 70
     0
  3
Solid line
 72
    65
 73
     0
 40
0.0
  0
LTYPE
  5
20
330
5
100
AcDbSymbolTableRecord
100
AcDbLinetypeTableRecord
  2
PUNKT
 70
     0
  3
..............
 72
    65
 73
     2
 40
1.5
 49
0.7
 74
     0
 49
-0.8
 74
     0
  0
LTYPE
  5
21
330
5
100
AcDbSymbolTableRecord
100
AcDbLinetypeTableRecord
  2
GESTRICHELT
 70
     0
  3
-- -- -- -- --
 72
    65
 73
     7
 40
2.8
 49
0.9
 74
     0
 49
0.0
 74
     0
 49
0.9
 74
     0
 49
0.0
 74
     0
 49
0.2
 74
     0
 49
0.0
 74
     0
 49
-0.8
 74
     0
  0
LTYPE
  5
22
330
5
100
AcDbSymbolTableRecord
100
AcDbLinetypeTableRecord
  2
STRICHPUNKT
 70
     0
  3
--.--.--.--.--
 72
    65
 73
     4
 40
8.8
 49
5.5
 74
     0
 49
-1.3
 74
     0
 49
0.7
 74
     0
 49
-1.3
 74
     0
  0
LTYPE
  5
25
330
5
100
AcDbSymbolTableRecord
100
AcDbLinetypeTableRecord
  2
PHANTOM
 70
     0
  3
--..--..--..--
 72
    65
 73
     6
 40
14.2
 49
7.0
 74
     0
 49
-1.8
 74
     0
 49
0.9
 74
     0
 49
-1.8
 74
     0
 49
0.9
 74
     0
 49
-1.8
 74
     0
  0
LTYPE
  5
212
330
5
100
AcDbSymbolTableRecord
100
AcDbLinetypeTableRecord
  2
DASH
 70
     0
  3
DASH _ _ _ _ _
 72
    65
 73
     2
 40
0.75
 49
0.4
 74
     0
 49
-0.35
 74
     0
  0
LTYPE
  5
213
330
5
100
AcDbSymbolTableRecord
100
AcDbLinetypeTableRecord
  2
LONGDASH_DASH
 70
     0
  3
LONGDASH_DASH __ . __ . __
 72
    65
 73
     4
 40
0.85
 49
0.4
 74
     0
 49
-0.2
 74
     0
 49
0.05
 74
     0
 49
-0.2
 74
     0
  0
LTYPE
  5
214
330
5
100
AcDbSymbolTableRecord
100
AcDbLinetypeTableRecord
  2
LONGDASH_DASH_DASH
 70
     0
  3
LONGDASH_DASH_DASH __ . . __ . . __
 72
    65
 73
     6
 40
1.1
 49
0.4
 74
     0
 49
-0.2
 74
     0
 49
0.05
 74
     0
 49
-0.2
 74
     0
 49
0.05
 74
     0
 49
-0.2
 74
     0
  0
ENDTAB
  0
TABLE
  2
LAYER
  5
2
102
{ACAD_XDICTIONARY
360
231
102
}
330
0
100
AcDbSymbolTable
 70
    17
  0
LAYER
  5
1DB
330
2
100
AcDbSymbolTableRecord
100
AcDbLayerTableRecord
  2
200
 70
     0
 62
     2
  6
Continuous
370
    50
390
F
347
1D9
348
0
  0
LAYER
  5
215
330
2
100
AcDbSymbolTableRecord
100
AcDbLayerTableRecord
  2
0
 70
     0
 62
     1
  6
Continuous
370
    -3
390
F
347
1D9
348
0
  0
LAYER
  5
216
330
2
100
AcDbSymbolTableRecord
100
AcDbLayerTableRecord
  2
1
 70
     0
 62
     4
  6
Continuous
370
    50
390
F
347
1D9
348
0
  0
LAYER
  5
217
330
2
100
AcDbSymbolTableRecord
100
AcDbLayerTableRecord
  2
2
 70
     0
 62
     7
  6
Continuous
370
    25
390
F
347
1D9
348
0
  0
LAYER
  5
218
330
2
100
AcDbSymbolTableRecord
100
AcDbLayerTableRecord
  2
3
 70
     0
 62
     1
  6
DASH
370
    35
390
F
347
1D9
348
0
  0
LAYER
  5
219
330
2
100
AcDbSymbolTableRecord
100
AcDbLayerTableRecord
  2
4
 70
     0
 62
     2
  6
LONGDASH_DASH
370
    25
390
F
347
1D9
348
0
  0
LAYER
  5
21A
330
2
100
AcDbSymbolTableRecord
100
AcDbLayerTableRecord
  2
6
 70
     0
 62
     5
  6
Continuous
370
    -3
390
F
347
1D9
348
0
  0
LAYER
  5
21B
330
2
100
AcDbSymbolTableRecord
100
AcDbLayerTableRecord
  2
CUT
 70
     0
 62
     1
  6
Continuous
370
    25
390
F
347
1D9
348
0
  0
LAYER
  5
21C
330
2
100
AcDbSymbolTableRecord
100
AcDbLayerTableRecord
  2
NOCUT
 70
     0
 62
     7
  6
Continuous
370
    25
390
F
347
1D9
348
0
  0
LAYER
  5
21D
330
2
100
AcDbSymbolTableRecord
100
AcDbLayerTableRecord
  2
SK1
 70
     0
 62
     4
  6
Continuous
370
    50
390
F
347
1D9
348
0
  0
LAYER
  5
21E
330
2
100
AcDbSymbolTableRecord
100
AcDbLayerTableRecord
  2
SK2
 70
     0
 62
     7
  6
Continuous
370
    25
390
F
347
1D9
348
0
  0
LAYER
  5
21F
330
2
100
AcDbSymbolTableRecord
100
AcDbLayerTableRecord
  2
SK3
 70
     0
 62
     1
  6
DASH
370
    35
390
F
347
1D9
348
0
  0
LAYER
  5
220
330
2
100
AcDbSymbolTableRecord
100
AcDbLayerTableRecord
  2
SK4
 70
     0
 62
     2
  6
LONGDASH_DASH
370
    25
390
F
347
1D9
348
0
  0
LAYER
  5
221
330
2
100
AcDbSymbolTableRecord
100
AcDbLayerTableRecord
  2
SK6
 70
     0
 62
     5
  6
Continuous
370
    -3
390
F
347
1D9
348
0
  0
LAYER
  5
222
330
2
100
AcDbSymbolTableRecord
100
AcDbLayerTableRecord
  2
INFTOTAL
 70
     0
 62
     9
  6
Continuous
370
    18
390
F
347
1D9
348
0
  0
LAYER
  5
333
330
2
100
AcDbSymbolTableRecord
100
AcDbLayerTableRecord
  2
7
 70
     0
 62
     5
  6
Continuous
370
    18
390
F
347
1D9
348
0
1001
AcAecLayerStandard
1000

1000

  0
LAYER
  5
335
330
2
100
AcDbSymbolTableRecord
100
AcDbLayerTableRecord
  2
11
 70
     0
 62
     4
  6
Continuous
370
    50
390
F
347
1D9
348
0
1001
AcAecLayerStandard
1000

1000

  0
ENDTAB
  0
TABLE
  2
STYLE
  5
3
330
0
100
AcDbSymbolTable
 70
     3
  0
STYLE
  5
11
330
3
100
AcDbSymbolTableRecord
100
AcDbTextStyleTableRecord
  2
Standard
 70
     0
 40
0.0
 41
1.0
 50
0.0
 71
     0
 42
0.2
  3
txt
  4

  0
STYLE
  5
1DA
330
3
100
AcDbSymbolTableRecord
100
AcDbTextStyleTableRecord
  2
BMG_Text
 70
     0
 40
3.5
 41
1.0
 50
0.0
 71
     0
 42
0.2
  3
monos.ttf
  4

1001
ACAD
1000
Monospac821 BT
1071
       49
  0
STYLE
  5
33A
330
3
100
AcDbSymbolTableRecord
100
AcDbTextStyleTableRecord
  2
SLDTEXTSTYLE0
 70
     0
 40
0.0
 41
0.605
 50
0.0
 71
     0
 42
0.2
  3
TXT
  4

  0
ENDTAB
  0
TABLE
  2
VIEW
  5
6
330
0
100
AcDbSymbolTable
 70
     0
  0
ENDTAB
  0
TABLE
  2
UCS
  5
7
330
0
100
AcDbSymbolTable
 70
     0
  0
ENDTAB
  0
TABLE
  2
APPID
  5
9
330
0
100
AcDbSymbolTable
 70
     3
  0
APPID
  5
12
330
9
100
AcDbSymbolTableRecord
100
AcDbRegAppTableRecord
  2
ACAD
 70
     0
  0
APPID
  5
334
330
9
100
AcDbSymbolTableRecord
100
AcDbRegAppTableRecord
  2
AcAecLayerStandard
 70
     0
  0
APPID
  5
33D
330
9
100
AcDbSymbolTableRecord
100
AcDbRegAppTableRecord
  2
PE_URL
 70
     0
  0
ENDTAB
  0
TABLE
  2
DIMSTYLE
  5
A
330
0
100
AcDbSymbolTable
 70
     6
100
AcDbDimStyleTable
  0
DIMSTYLE
105
28
330
A
100
AcDbSymbolTableRecord
100
AcDbDimStyleTableRecord
  2
Standard
 70
     0
178
     0
340
11
  0
DIMSTYLE
105
336
330
A
100
AcDbSymbolTableRecord
100
AcDbDimStyleTableRecord
  2
Matthias
 70
     0
 41
3.0
 44
2.0
 73
     0
 77
     1
140
3.0
147
2.0
178
     0
340
11
  0
DIMSTYLE
105
338
102
{ACAD_REACTORS
102
}
330
A
100
AcDbSymbolTableRecord
100
AcDbDimStyleTableRecord
  2
ISO-25
 70
     0
 41
2.5
 42
0.625
 43
3.75
 44
1.25
 73
     0
 74
     0
 77
     1
 78
     8
140
2.5
141
2.5
143
0.0393700787
147
0.625
171
     3
172
     1
178
     0
271
     2
272
     2
274
     3
278
    44
283
     0
284
     8
340
11
  0
DIMSTYLE
105
339
330
A
100
AcDbSymbolTableRecord
100
AcDbDimStyleTableRecord
  2
SLDDIMSTYLE0
 70
     0
 41
3.5
 44
0.0
 45
0.000000001
 73
     0
 74
     0
 77
     1
 78
    12
 79
     3
140
3.5
144
0.5
147
0.875
173
     1
178
     0
271
     2
272
     1
276
     2
284
    12
340
33A
  0
DIMSTYLE
105
33B
330
A
100
AcDbSymbolTableRecord
100
AcDbDimStyleTableRecord
  2
SLDDIMSTYLE1
 70
     0
 41
3.5
 44
0.0
 45
0.000000001
 73
     0
 74
     0
 77
     1
 78
    12
 79
     3
140
3.5
144
0.5
147
0.875
173
     1
178
     0
271
     2
272
     3
276
     2
284
    12
340
33A
  0
DIMSTYLE
105
33C
330
A
100
AcDbSymbolTableRecord
100
AcDbDimStyleTableRecord
  2
SLDDIMSTYLE2
 70
     0
 41
3.5
 44
0.0
 45
0.000000001
 73
     0
 74
     0
 77
     1
 78
    12
 79
     3
140
3.5
147
0.875
173
     1
178
     0
271
     2
272
     0
276
     2
284
    12
340
33A
  0
ENDTAB
  0
TABLE
  2
BLOCK_RECORD
  5
1
330
0
100
AcDbSymbolTable
 70
     1
  0
BLOCK_RECORD
  5
1D
102
{ACAD_XDICTIONARY
360
36E
102
}
330
1
100
AcDbSymbolTableRecord
100
AcDbBlockTableRecord
  2
*Model_Space
340
1E
 70
     0
280
     1
281
     0
  0
BLOCK_RECORD
  5
1B
330
1
100
AcDbSymbolTableRecord
100
AcDbBlockTableRecord
  2
*Paper_Space
340
1C
 70
     0
280
     1
281
     0
  0
ENDTAB
  0
ENDSEC
  0
SECTION
  2
BLOCKS
  0
BLOCK
  5
1C3
330
1D
100
AcDbEntity
  8
0
100
AcDbBlockBegin
  2
*Model_Space
 70
     0
 10
0.0
 20
0.0
 30
0.0
  3
*Model_Space
  1

  0
ENDBLK
  5
1C4
330
1D
100
AcDbEntity
  8
0
100
AcDbBlockEnd
  0
BLOCK
  5
1C1
330
1B
100
AcDbEntity
 67
     1
  8
0
100
AcDbBlockBegin
  2
*Paper_Space
 70
     0
 10
0.0
 20
0.0
 30
0.0
  3
*Paper_Space
  1

  0
ENDBLK
  5
1C2
330
1B
100
AcDbEntity
 67
     1
  8
0
100
AcDbBlockEnd
  0
ENDSEC
  0
SECTION
  2
ENTITIES
  0
LINE
  5
29
330
1D
100
AcDbEntity
  8
SK1
100
AcDbLine
 10
-13.749992371
 20
7.0
 30
0.0
 11
-14.657493591
 21
6.839981079
 31
0.0
  0
LINE
  5
2A
330
1D
100
AcDbEntity
  8
SK1
100
AcDbLine
 10
-14.657493591
 20
6.839981079
 30
0.0
 11
-15.530536029
 21
6.993930191
 31
0.0
  0
ARC
  5
2B
330
1D
100
AcDbEntity
  8
SK1
100
AcDbCircle
 10
-15.599998474
 20
6.600006104
 30
0.0
 40
0.400001523
100
AcDbArc
 50
79.999576807
 51
180.0
  0
LINE
  5
2C
330
1D
100
AcDbEntity
  8
SK1
100
AcDbLine
 10
-15.999992371
 20
6.600006104
 30
0.0
 11
-15.999999997
 21
-6.600006104
 31
0.0
  0
ARC
  5
2D
330
1D
100
AcDbEntity
  8
SK1
100
AcDbCircle
 10
-15.599998474
 20
-6.600006104
 30
0.0
 40
0.400001523
100
AcDbArc
 50
180.0
 51
279.99987659
  0
LINE
  5
2E
330
1D
100
AcDbEntity
  8
SK1
100
AcDbLine
 10
-15.530540466
 20
-6.993927002
 30
0.0
 11
-14.657493591
 21
-6.839981079
 31
0.0
  0
LINE
  5
2F
330
1D
100
AcDbEntity
  8
SK1
100
AcDbLine
 10
-14.657493591
 20
-6.839981079
 30
0.0
 11
-13.749992371
 21
-7.0
 31
0.0
  0
LINE
  5
30
330
1D
100
AcDbEntity
  8
SK1
100
AcDbLine
 10
-13.749992371
 20
-7.0
 30
0.0
 11
-13.749992371
 21
7.000015259
 31
0.0
  0
LINE
  5
31
330
1D
100
AcDbEntity
  8
SK1
100
AcDbLine
 10
-13.749992371
 20
7.000015259
 30
0.0
 11
-1.1121521
 21
7.000015259
 31
0.0
  0
ARC
  5
32
330
1D
100
AcDbEntity
  8
SK1
100
AcDbCircle
 10
-0.299995422
 20
-7.300033569
 30
0.0
 40
0.5
100
AcDbArc
 50
53.12974870199999
 51
105.000628549
  0
LINE
  5
33
330
1D
100
AcDbEntity
  8
SK1
100
AcDbLine
 10
-0.429412842
 20
-6.817062378
 30
0.0
 11
-1.112167358
 21
-7.0
 31
0.0
  0
LINE
  5
34
330
1D
100
AcDbEntity
  8
SK1
100
AcDbLine
 10
-1.112167358
 20
-7.0
 30
0.0
 11
-1.112190247
 21
7.000015259
 31
0.0
  0
LINE
  5
35
330
1D
100
AcDbEntity
  8
SK1
100
AcDbLine
 10
-1.112190247
 20
7.000015259
 30
0.0
 11
-0.429421678
 21
6.817057837
 31
0.0
  0
ARC
  5
36
330
1D
100
AcDbEntity
  8
SK1
100
AcDbCircle
 10
-0.300003052
 20
7.300018311
 30
0.0
 40
0.5
100
AcDbArc
 50
254.998919964
 51
306.870251298
  0
LINE
  5
38
330
1D
100
AcDbEntity
  8
SK1
100
AcDbLine
 10
-13.749992371
 20
-7.0
 30
0.0
 11
-1.1121521
 21
-7.0
 31
0.0
  0
CIRCLE
  5
39
330
1D
100
AcDbEntity
  8
SK1
100
AcDbCircle
 10
-6.25
 20
0.0
 30
0.0
 40
2.0
  0
LINE
  5
3A
330
1D
100
AcDbEntity
  8
4
100
AcDbLine
 10
-0.0000000000000036
 20
0.0
 30
0.0
 11
35.364277188
 21
0.0
 31
0.0
  0
ARC
  5
3B
330
1D
100
AcDbEntity
  8
SK1
100
AcDbCircle
 10
-2.1
 20
6.939230728
 30
0.0
 40
0.600001303
100
AcDbArc
 50
5.814457373999999
 51
29.999938965
  0
ARC
  5
3C
330
1D
100
AcDbEntity
  8
SK1
100
AcDbCircle
 10
-2.654702759
 20
7.900000381
 30
0.0
 40
0.6
100
AcDbArc
 50
29.99993920299999
 51
90.0
  0
ARC
  5
3D
330
1D
100
AcDbEntity
  8
SK1
100
AcDbCircle
 10
-5.345300293
 20
7.900000381
 30
0.0
 40
0.600000159
100
AcDbArc
 50
90.000001192
 51
149.999675751
  0
ARC
  5
3E
330
1D
100
AcDbEntity
  8
SK1
100
AcDbCircle
 10
-5.9
 20
6.939227676
 30
0.0
 40
0.6
100
AcDbArc
 50
149.999926686
 51
174.185237023
  0
ARC
  5
3F
330
1D
100
AcDbEntity
  8
SK1
100
AcDbCircle
 10
-2.1
 20
-6.939230728
 30
0.0
 40
0.599999015
100
AcDbArc
 50
329.9998626710001
 51
354.186985012
  0
ARC
  5
40
330
1D
100
AcDbEntity
  8
SK1
100
AcDbCircle
 10
-2.654702759
 20
-7.900000381
 30
0.0
 40
0.6
100
AcDbArc
 50
270.0
 51
330.000001788
  0
ARC
  5
41
330
1D
100
AcDbEntity
  8
SK1
100
AcDbCircle
 10
-5.345300293
 20
-7.900000381
 30
0.0
 40
0.599998633
100
AcDbArc
 50
210.000076294
 51
269.999997616
  0
ARC
  5
42
330
1D
100
AcDbEntity
  8
SK1
100
AcDbCircle
 10
-5.9
 20
-6.939232254
 30
0.0
 40
0.599998252
100
AcDbArc
 50
185.812875941
 51
210.000015259
  0
LINE
  5
43
330
1D
100
AcDbEntity
  8
SK1
100
AcDbLine
 10
-1.580383301
 20
7.239230728
 30
0.0
 11
-2.13508606
 21
8.200000381
 31
0.0
  0
LINE
  5
44
330
1D
100
AcDbEntity
  8
SK1
100
AcDbLine
 10
-6.419613647
 20
7.239227676
 30
0.0
 11
-5.86491394
 21
8.200003433
 31
0.0
  0
LINE
  5
45
330
1D
100
AcDbEntity
  8
SK1
100
AcDbLine
 10
-1.580386353
 20
-7.239231491
 30
0.0
 11
-2.13508606
 21
-8.200001144
 31
0.0
  0
LINE
  5
46
330
1D
100
AcDbEntity
  8
SK1
100
AcDbLine
 10
-6.419613647
 20
-7.239231491
 30
0.0
 11
-5.86491394
 21
-8.200000381
 31
0.0
  0
LINE
  5
47
330
1D
100
AcDbEntity
  8
SK1
100
AcDbLine
 10
-5.345300293
 20
8.500000381
 30
0.0
 11
-2.654702759
 21
8.500000381
 31
0.0
  0
LINE
  5
48
330
1D
100
AcDbEntity
  8
SK1
100
AcDbLine
 10
-5.345300293
 20
-8.500000381
 30
0.0
 11
-2.654702759
 21
-8.500000381
 31
0.0
  0
LINE
  5
49
330
1D
100
AcDbEntity
  8
SK4
100
AcDbLine
 10
-4.0
 20
8.979834135
 30
0.0
 11
-4.0
 21
6.222331983
 31
0.0
  0
LINE
  5
4A
330
1D
100
AcDbEntity
  8
SK4
100
AcDbLine
 10
-4.0
 20
-8.979834135
 30
0.0
 11
-4.0
 21
-6.222331983
 31
0.0
  0
LINE
  5
4B
330
1D
100
AcDbEntity
  8
SK3
100
AcDbLine
 10
0.0
 20
-3.5
 30
0.0
 11
-15.999993265
 21
-3.5
 31
0.0
  0
LINE
  5
4C
330
1D
100
AcDbEntity
  8
SK3
100
AcDbLine
 10
-15.999999103
 20
3.5
 30
0.0
 11
-0.0000000000000018
 21
3.5
 31
0.0
  0
LINE
  5
4D
330
1D
100
AcDbEntity
  8
2
100
AcDbLine
 10
0.0
 20
20.0
 30
0.0
 11
0.0
 21
11.25
 31
0.0
  0
LINE
  5
4E
330
1D
100
AcDbEntity
  8
2
100
AcDbLine
 10
0.0
 20
18.0
 30
0.0
 11
3.5
 21
18.45
 31
0.0
  0
LINE
  5
4F
330
1D
100
AcDbEntity
  8
2
100
AcDbLine
 10
3.5
 20
18.45
 30
0.0
 11
3.5
 21
17.55
 31
0.0
  0
LINE
  5
50
330
1D
100
AcDbEntity
  8
2
100
AcDbLine
 10
3.5
 20
17.55
 30
0.0
 11
0.0
 21
18.0
 31
0.0
  0
LINE
  5
51
330
1D
100
AcDbEntity
  8
1
100
AcDbLine
 10
35.5
 20
20.0
 30
0.0
 11
35.5
 21
11.25
 31
0.0
  0
LINE
  5
52
330
1D
100
AcDbEntity
  8
2
100
AcDbLine
 10
35.5
 20
18.0
 30
0.0
 11
32.0
 21
17.55
 31
0.0
  0
LINE
  5
53
330
1D
100
AcDbEntity
  8
2
100
AcDbLine
 10
32.0
 20
17.55
 30
0.0
 11
32.0
 21
18.45
 31
0.0
  0
LINE
  5
54
330
1D
100
AcDbEntity
  8
2
100
AcDbLine
 10
32.0
 20
18.45
 30
0.0
 11
35.5
 21
18.0
 31
0.0
  0
LINE
  5
55
330
1D
100
AcDbEntity
  8
2
100
AcDbLine
 10
3.5
 20
18.0
 30
0.0
 11
32.0
 21
18.0
 31
0.0
  0
TEXT
  5
56
330
1D
100
AcDbEntity
  8
2
100
AcDbText
 10
14.882187103
 20
19.5
 30
0.0
 40
3.5
  1
35.5
  7
BMG_Text
100
AcDbText
  0
LINE
  5
57
330
1D
100
AcDbEntity
  8
SK2
100
AcDbLine
 10
-24.538651467
 20
-7.0
 30
0.0
 11
-13.749992371
 21
-7.0
 31
0.0
  0
LINE
  5
58
330
1D
100
AcDbEntity
  8
SK2
100
AcDbLine
 10
-22.538651467
 20
-7.0
 30
0.0
 11
-22.988651467
 21
-3.5
 31
0.0
  0
LINE
  5
59
330
1D
100
AcDbEntity
  8
SK2
100
AcDbLine
 10
-22.988651467
 20
-3.5
 30
0.0
 11
-22.088651467
 21
-3.5
 31
0.0
  0
LINE
  5
5A
330
1D
100
AcDbEntity
  8
SK2
100
AcDbLine
 10
-22.088651467
 20
-3.5
 30
0.0
 11
-22.538651467
 21
-7.0
 31
0.0
  0
LINE
  5
5B
330
1D
100
AcDbEntity
  8
SK2
100
AcDbLine
 10
-24.538651467
 20
7.0
 30
0.0
 11
-13.749992371
 21
7.0
 31
0.0
  0
LINE
  5
5C
330
1D
100
AcDbEntity
  8
SK2
100
AcDbLine
 10
-22.538651467
 20
7.0
 30
0.0
 11
-22.088651467
 21
3.5
 31
0.0
  0
LINE
  5
5D
330
1D
100
AcDbEntity
  8
SK2
100
AcDbLine
 10
-22.088651467
 20
3.5
 30
0.0
 11
-22.988651467
 21
3.5
 31
0.0
  0
LINE
  5
5E
330
1D
100
AcDbEntity
  8
SK2
100
AcDbLine
 10
-22.988651467
 20
3.5
 30
0.0
 11
-22.538651467
 21
7.0
 31
0.0
  0
LINE
  5
5F
330
1D
100
AcDbEntity
  8
SK2
100
AcDbLine
 10
-22.538651467
 20
-3.5
 30
0.0
 11
-22.538651467
 21
3.5
 31
0.0
  0
TEXT
  5
60
330
1D
100
AcDbEntity
  8
SK2
100
AcDbText
 10
-24.038651467
 20
0.468124844
 30
0.0
 40
3.5
  1
14
 50
90.0
  7
BMG_Text
100
AcDbText
  0
CIRCLE
  5
61
330
1D
100
AcDbEntity
  8
SK2
100
AcDbCircle
 10
-25.288651467
 20
-1.781875156
 30
0.0
 40
1.25
  0
LINE
  5
62
330
1D
100
AcDbEntity
  8
SK2
100
AcDbLine
 10
-24.038651467
 20
-3.031875156
 30
0.0
 11
-26.538651467
 21
-0.531875156
 31
0.0
  0
TEXT
  5
63
330
1D
100
AcDbEntity
  8
SK6
100
AcDbText
 10
-23.5837357277439
 20
-19.51027847953684
 30
0.0
 40
3.5
  1
319.201
  7
BMG_Text
100
AcDbText
  0
LINE
  5
64
330
1D
100
AcDbEntity
  8
1
100
AcDbLine
 10
21.391113879
 20
12.000000104
 30
0.0
 11
0.750000007
 21
12.000000104
 31
0.0
  0
LINE
  5
65
330
1D
100
AcDbEntity
  8
1
100
AcDbLine
 10
0.750000007
 20
12.000000104
 30
0.0
 11
0.0
 21
11.250000447
 31
0.0
  0
LINE
  5
66
330
1D
100
AcDbEntity
  8
1
100
AcDbLine
 10
0.0
 20
11.250000447
 30
0.0
 11
0.0
 21
-11.250000447
 31
0.0
  0
LINE
  5
67
330
1D
100
AcDbEntity
  8
1
100
AcDbLine
 10
0.0
 20
-11.250000447
 30
0.0
 11
0.750000007
 21
-12.000000104
 31
0.0
  0
LINE
  5
68
330
1D
100
AcDbEntity
  8
1
100
AcDbLine
 10
0.750000007
 20
-12.000000104
 30
0.0
 11
21.4000009
 21
-12.000000104
 31
0.0
  0
LINE
  5
69
330
1D
100
AcDbEntity
  8
1
100
AcDbLine
 10
21.4000009
 20
-12.000000104
 30
0.0
 11
21.70000039
 21
-11.698308867
 31
0.0
  0
LINE
  5
6A
330
1D
100
AcDbEntity
  8
1
100
AcDbLine
 10
21.70000039
 20
-3.255380061
 30
0.0
 11
15.3
 21
-3.255380162
 31
0.0
  0
ARC
  5
6B
330
1D
100
AcDbEntity
  8
1
100
AcDbCircle
 10
34.717667055
 20
0.0
 30
0.0
 40
19.688659016
100
AcDbArc
 50
180.0
 51
189.517155341
  0
ARC
  5
6C
330
1D
100
AcDbEntity
  8
1
100
AcDbCircle
 10
34.717667055
 20
0.0
 30
0.0
 40
19.677474676
100
AcDbArc
 50
170.48284484
 51
180.0
  0
LINE
  5
6D
330
1D
100
AcDbEntity
  8
1
100
AcDbLine
 10
15.300000086
 20
3.255380085
 30
0.0
 11
21.70000039
 21
3.255380085
 31
0.0
  0
LINE
  5
6E
330
1D
100
AcDbEntity
  8
1
100
AcDbLine
 10
21.70000039
 20
-11.698308867
 30
0.0
 11
21.70000039
 21
11.704255077
 31
0.0
  0
LINE
  5
6F
330
1D
100
AcDbEntity
  8
1
100
AcDbLine
 10
21.70000039
 20
11.704255077
 30
0.0
 11
21.391113879
 21
12.000000104
 31
0.0
  0
LINE
  5
70
330
1D
100
AcDbEntity
  8
3
100
AcDbLine
 10
1.500000013
 20
-3.500049934
 30
0.0
 11
2.77391409
 21
0.0
 31
0.0
  0
LINE
  5
71
330
1D
100
AcDbEntity
  8
3
100
AcDbLine
 10
2.77391409
 20
0.0
 30
0.0
 11
1.500000013
 21
3.500049934
 31
0.0
  0
LINE
  5
72
330
1D
100
AcDbEntity
  8
3
100
AcDbLine
 10
1.500000013
 20
3.5
 30
0.0
 11
1.500000013
 21
-3.500049934
 31
0.0
  0
LINE
  5
74
330
1D
100
AcDbEntity
  8
1
100
AcDbLine
 10
0.750000007
 20
12.000000104
 30
0.0
 11
0.750000007
 21
-12.000000104
 31
0.0
  0
LINE
  5
75
330
1D
100
AcDbEntity
  8
1
100
AcDbLine
 10
15.300000086
 20
-3.255380085
 30
0.0
 11
15.300000086
 21
3.255380085
 31
0.0
  0
LINE
  5
76
330
1D
100
AcDbEntity
  8
3
100
AcDbLine
 10
2.139712321
 20
1.742454927
 30
0.0
 11
21.70000039
 21
9.324736523
 31
0.0
  0
LINE
  5
77
330
1D
100
AcDbEntity
  8
3
100
AcDbLine
 10
21.475675172
 20
11.919036446
 30
0.0
 11
-0.0000000000000036
 21
3.594281036223251
 31
0.0
  0
LINE
  5
78
330
1D
100
AcDbEntity
  8
3
100
AcDbLine
 10
0.0
 20
-3.594281178191447
 30
0.0
 11
21.479165269
 21
-11.920389314
 31
0.0
  0
LINE
  5
79
330
1D
100
AcDbEntity
  8
3
100
AcDbLine
 10
21.70000039
 20
-9.324735617
 30
0.0
 11
2.139712324
 21
-1.742454919
 31
0.0
  0
LINE
  5
7A
330
1D
100
AcDbEntity
  8
2
100
AcDbLine
 10
0.0
 20
-22.782227963
 30
0.0
 11
0.0
 21
-11.250000447
 31
0.0
  0
LINE
  5
7B
330
1D
100
AcDbEntity
  8
2
100
AcDbLine
 10
0.0
 20
-20.782227963
 30
0.0
 11
3.499999989
 21
-20.332227878
 31
0.0
  0
LINE
  5
7C
330
1D
100
AcDbEntity
  8
2
100
AcDbLine
 10
3.499999989
 20
-20.332227878
 30
0.0
 11
3.500000011
 21
-21.232227878
 31
0.0
  0
LINE
  5
7D
330
1D
100
AcDbEntity
  8
2
100
AcDbLine
 10
3.500000011
 20
-21.232227878
 30
0.0
 11
0.0
 21
-20.782227963
 31
0.0
  0
LINE
  5
7E
330
1D
100
AcDbEntity
  8
2
100
AcDbLine
 10
21.70000039
 20
-22.782227438
 30
0.0
 11
21.70000039
 21
-11.698308867
 31
0.0
  0
LINE
  5
7F
330
1D
100
AcDbEntity
  8
2
100
AcDbLine
 10
21.70000039
 20
-20.782227438
 30
0.0
 11
18.200000401
 21
-21.232227523
 31
0.0
  0
LINE
  5
80
330
1D
100
AcDbEntity
  8
2
100
AcDbLine
 10
18.200000401
 20
-21.232227523
 30
0.0
 11
18.20000038
 21
-20.332227523
 31
0.0
  0
LINE
  5
81
330
1D
100
AcDbEntity
  8
2
100
AcDbLine
 10
18.20000038
 20
-20.332227523
 30
0.0
 11
21.70000039
 21
-20.782227438
 31
0.0
  0
LINE
  5
82
330
1D
100
AcDbEntity
  8
2
100
AcDbLine
 10
3.5
 20
-20.782227878
 30
0.0
 11
18.20000039
 21
-20.782227523
 31
0.0
  0
TEXT
  5
83
330
1D
100
AcDbEntity
  8
2
100
AcDbText
 10
7.954843666
 20
-19.282227771
 30
0.0
 40
3.5
  1
21.7
 50
0.000001387
  7
BMG_Text
100
AcDbText
  0
LINE
  5
84
330
1D
100
AcDbEntity
  8
SK2
100
AcDbLine
 10
-31.836631768
 20
-12.000000104
 30
0.0
 11
0.750000007
 21
-12.000000104
 31
0.0
  0
LINE
  5
85
330
1D
100
AcDbEntity
  8
SK2
100
AcDbLine
 10
-29.836631768
 20
-12.000000104
 30
0.0
 11
-30.286631768
 21
-8.500000104
 31
0.0
  0
LINE
  5
86
330
1D
100
AcDbEntity
  8
SK2
100
AcDbLine
 10
-30.286631768
 20
-8.500000104
 30
0.0
 11
-29.386631768
 21
-8.500000104
 31
0.0
  0
LINE
  5
87
330
1D
100
AcDbEntity
  8
SK2
100
AcDbLine
 10
-29.386631768
 20
-8.500000104
 30
0.0
 11
-29.836631768
 21
-12.000000104
 31
0.0
  0
LINE
  5
88
330
1D
100
AcDbEntity
  8
SK2
100
AcDbLine
 10
-31.836631768
 20
12.000000104
 30
0.0
 11
0.750000007
 21
12.000000104
 31
0.0
  0
LINE
  5
89
330
1D
100
AcDbEntity
  8
SK2
100
AcDbLine
 10
-29.836631768
 20
12.000000104
 30
0.0
 11
-29.386631768
 21
8.500000104
 31
0.0
  0
LINE
  5
8A
330
1D
100
AcDbEntity
  8
SK2
100
AcDbLine
 10
-29.386631768
 20
8.500000104
 30
0.0
 11
-30.286631768
 21
8.500000104
 31
0.0
  0
LINE
  5
8B
330
1D
100
AcDbEntity
  8
SK2
100
AcDbLine
 10
-30.286631768
 20
8.500000104
 30
0.0
 11
-29.836631768
 21
12.000000104
 31
0.0
  0
LINE
  5
8C
330
1D
100
AcDbEntity
  8
SK2
100
AcDbLine
 10
-29.836631768
 20
-8.500000104
 30
0.0
 11
-29.836631768
 21
8.500000104
 31
0.0
  0
TEXT
  5
8D
330
1D
100
AcDbEntity
  8
SK2
100
AcDbText
 10
-31.336631768
 20
0.085312232
 30
0.0
 40
3.5
  1
24
 50
90.0
  7
BMG_Text
100
AcDbText
  0
CIRCLE
  5
8E
330
1D
100
AcDbEntity
  8
SK2
100
AcDbCircle
 10
-32.586631768
 20
-2.164687768
 30
0.0
 40
1.25
  0
LINE
  5
8F
330
1D
100
AcDbEntity
  8
SK2
100
AcDbLine
 10
-31.336631768
 20
-3.414687768
 30
0.0
 11
-33.836631768
 21
-0.914687768
 31
0.0
  0
LINE
  5
90
330
1D
100
AcDbEntity
  8
4
100
AcDbLine
 10
0.212606817
 20
2.336066848
 30
0.0
 11
22.241628228
 21
10.875319524
 31
0.0
  0
LINE
  5
91
330
1D
100
AcDbEntity
  8
4
100
AcDbLine
 10
0.212606817
 20
-2.336066848
 30
0.0
 11
22.241628228
 21
-10.875319524
 31
0.0
  0
LINE
  5
92
330
1D
100
AcDbEntity
  8
1
100
AcDbLine
 10
24.949999495
 20
11.892855171
 30
0.0
 11
24.934660612
 21
11.867500845
 31
0.0
  0
LINE
  5
93
330
1D
100
AcDbEntity
  8
1
100
AcDbLine
 10
24.934660612
 20
11.867500845
 30
0.0
 11
24.889588325
 21
11.840335097
 31
0.0
  0
LINE
  5
94
330
1D
100
AcDbEntity
  8
1
100
AcDbLine
 10
24.889588325
 20
11.840335097
 30
0.0
 11
24.815767972
 21
11.812405664
 31
0.0
  0
LINE
  5
95
330
1D
100
AcDbEntity
  8
1
100
AcDbLine
 10
24.815767972
 20
11.812405664
 30
0.0
 11
24.715620993
 21
11.785021055
 31
0.0
  0
LINE
  5
96
330
1D
100
AcDbEntity
  8
1
100
AcDbLine
 10
24.715620993
 20
11.785021055
 30
0.0
 11
24.591125516
 21
11.759517718
 31
0.0
  0
LINE
  5
97
330
1D
100
AcDbEntity
  8
1
100
AcDbLine
 10
24.591125516
 20
11.759517718
 30
0.0
 11
24.446241526
 21
11.737391356
 31
0.0
  0
LINE
  5
98
330
1D
100
AcDbEntity
  8
1
100
AcDbLine
 10
24.446241526
 20
11.737391356
 30
0.0
 11
24.286679892
 21
11.720235463
 31
0.0
  0
LINE
  5
99
330
1D
100
AcDbEntity
  8
1
100
AcDbLine
 10
24.286679892
 20
11.720235463
 30
0.0
 11
24.115631325
 21
11.70878392
 31
0.0
  0
LINE
  5
9A
330
1D
100
AcDbEntity
  8
1
100
AcDbLine
 10
24.115631325
 20
11.70878392
 30
0.0
 11
23.941939665
 21
11.703963395
 31
0.0
  0
LINE
  5
9B
330
1D
100
AcDbEntity
  8
1
100
AcDbLine
 10
23.941939665
 20
11.703963395
 30
0.0
 11
23.767037286
 21
11.705649089
 31
0.0
  0
LINE
  5
9C
330
1D
100
AcDbEntity
  8
1
100
AcDbLine
 10
23.767037286
 20
11.705649089
 30
0.0
 11
23.598318888
 21
11.713705029
 31
0.0
  0
LINE
  5
9D
330
1D
100
AcDbEntity
  8
1
100
AcDbLine
 10
23.598318888
 20
11.713705029
 30
0.0
 11
23.437999157
 21
11.727475564
 31
0.0
  0
LINE
  5
9E
330
1D
100
AcDbEntity
  8
1
100
AcDbLine
 10
23.437999157
 20
11.727475564
 30
0.0
 11
23.289537026
 21
11.746359061
 31
0.0
  0
LINE
  5
9F
330
1D
100
AcDbEntity
  8
1
100
AcDbLine
 10
23.289537026
 20
11.746359061
 30
0.0
 11
23.157846151
 21
11.769087988
 31
0.0
  0
LINE
  5
A0
330
1D
100
AcDbEntity
  8
1
100
AcDbLine
 10
23.157846151
 20
11.769087988
 30
0.0
 11
23.044411062
 21
11.795013215
 31
0.0
  0
LINE
  5
A1
330
1D
100
AcDbEntity
  8
1
100
AcDbLine
 10
23.044411062
 20
11.795013215
 30
0.0
 11
22.954886748
 21
11.822304692
 31
0.0
  0
LINE
  5
A2
330
1D
100
AcDbEntity
  8
1
100
AcDbLine
 10
22.954886748
 20
11.822304692
 30
0.0
 11
22.891147031
 21
11.850100945
 31
0.0
  0
LINE
  5
A3
330
1D
100
AcDbEntity
  8
1
100
AcDbLine
 10
22.891147031
 20
11.850100945
 30
0.0
 11
22.856362133
 21
11.876758191
 31
0.0
  0
LINE
  5
A4
330
1D
100
AcDbEntity
  8
1
100
AcDbLine
 10
22.856362133
 20
11.876758191
 30
0.0
 11
22.852050109
 21
11.90124173
 31
0.0
  0
LINE
  5
A5
330
1D
100
AcDbEntity
  8
1
100
AcDbLine
 10
22.852050109
 20
11.90124173
 30
0.0
 11
22.878142042
 21
11.922852139
 31
0.0
  0
LINE
  5
A6
330
1D
100
AcDbEntity
  8
1
100
AcDbLine
 10
22.878142042
 20
11.922852139
 30
0.0
 11
22.933788566
 21
11.94090769
 31
0.0
  0
LINE
  5
A7
330
1D
100
AcDbEntity
  8
1
100
AcDbLine
 10
22.933788566
 20
11.94090769
 30
0.0
 11
23.01722203
 21
11.955585334
 31
0.0
  0
LINE
  5
A8
330
1D
100
AcDbEntity
  8
1
100
AcDbLine
 10
23.01722203
 20
11.955585334
 30
0.0
 11
23.125324367
 21
11.96684223
 31
0.0
  0
LINE
  5
A9
330
1D
100
AcDbEntity
  8
1
100
AcDbLine
 10
23.125324367
 20
11.96684223
 30
0.0
 11
23.255404053
 21
11.975196193
 31
0.0
  0
LINE
  5
AA
330
1D
100
AcDbEntity
  8
1
100
AcDbLine
 10
23.255404053
 20
11.975196193
 30
0.0
 11
23.403428463
 21
11.981005784
 31
0.0
  0
LINE
  5
AB
330
1D
100
AcDbEntity
  8
1
100
AcDbLine
 10
23.403428463
 20
11.981005784
 30
0.0
 11
23.565445064
 21
11.984753426
 31
0.0
  0
LINE
  5
AC
330
1D
100
AcDbEntity
  8
1
100
AcDbLine
 10
23.565445064
 20
11.984753426
 30
0.0
 11
23.73700027
 21
11.986801404
 31
0.0
  0
LINE
  5
AD
330
1D
100
AcDbEntity
  8
1
100
AcDbLine
 10
23.73700027
 20
11.986801404
 30
0.0
 11
23.913145034
 21
11.987385343
 31
0.0
  0
LINE
  5
AE
330
1D
100
AcDbEntity
  8
1
100
AcDbLine
 10
23.913145034
 20
11.987385343
 30
0.0
 11
24.089004813
 21
11.986592788
 31
0.0
  0
LINE
  5
AF
330
1D
100
AcDbEntity
  8
1
100
AcDbLine
 10
24.089004813
 20
11.986592788
 30
0.0
 11
24.259535564
 21
11.984308253
 31
0.0
  0
LINE
  5
B0
330
1D
100
AcDbEntity
  8
1
100
AcDbLine
 10
24.259535564
 20
11.984308253
 30
0.0
 11
24.419786377
 21
11.980274695
 31
0.0
  0
LINE
  5
B1
330
1D
100
AcDbEntity
  8
1
100
AcDbLine
 10
24.419786377
 20
11.980274695
 30
0.0
 11
24.565380035
 21
11.974116791
 31
0.0
  0
LINE
  5
B2
330
1D
100
AcDbEntity
  8
1
100
AcDbLine
 10
24.565380035
 20
11.974116791
 30
0.0
 11
24.691885306
 21
11.965389367
 31
0.0
  0
LINE
  5
B3
330
1D
100
AcDbEntity
  8
1
100
AcDbLine
 10
24.691885306
 20
11.965389367
 30
0.0
 11
24.796111478
 21
11.953732933
 31
0.0
  0
LINE
  5
B4
330
1D
100
AcDbEntity
  8
1
100
AcDbLine
 10
24.796111478
 20
11.953732933
 30
0.0
 11
24.874830587
 21
11.938810352
 31
0.0
  0
LINE
  5
B5
330
1D
100
AcDbEntity
  8
1
100
AcDbLine
 10
24.874830587
 20
11.938810352
 30
0.0
 11
24.926289885
 21
11.920602995
 31
0.0
  0
LINE
  5
B6
330
1D
100
AcDbEntity
  8
1
100
AcDbLine
 10
24.926289885
 20
11.920602995
 30
0.0
 11
24.949999495
 21
11.892855171
 31
0.0
  0
ARC
  5
B7
330
1D
100
AcDbEntity
  8
1
100
AcDbCircle
 10
21.070509744
 20
8.202118087
 30
0.0
 40
0.671503954
100
AcDbArc
 50
148.1681476
 51
176.88068064
  0
ARC
  5
B8
330
1D
100
AcDbEntity
  8
1
100
AcDbCircle
 10
31.191072376
 20
-10.134029598
 30
0.0
 40
21.531999796
100
AcDbArc
 50
115.918532341
 51
119.770042751
  0
LINE
  5
B9
330
1D
100
AcDbEntity
  8
1
100
AcDbLine
 10
21.782532303
 20
9.226154539
 30
0.0
 11
21.835535733
 21
9.262903597
 31
0.0
  0
LINE
  5
BA
330
1D
100
AcDbEntity
  8
1
100
AcDbLine
 10
21.835535733
 20
9.262903597
 30
0.0
 11
21.872937648
 21
9.318167347
 31
0.0
  0
LINE
  5
BB
330
1D
100
AcDbEntity
  8
1
100
AcDbLine
 10
21.872937648
 20
9.318167347
 30
0.0
 11
21.882081373
 21
9.378212507
 31
0.0
  0
LINE
  5
BC
330
1D
100
AcDbEntity
  8
1
100
AcDbLine
 10
21.882081373
 20
9.378212507
 30
0.0
 11
21.857514946
 21
9.444228377
 31
0.0
  0
LINE
  5
BD
330
1D
100
AcDbEntity
  8
1
100
AcDbLine
 10
21.857514946
 20
9.444228377
 30
0.0
 11
21.814014731
 21
9.486193772
 31
0.0
  0
LINE
  5
BE
330
1D
100
AcDbEntity
  8
1
100
AcDbLine
 10
21.814014731
 20
9.486193772
 30
0.0
 11
21.782531723
 21
9.503582286
 31
0.0
  0
ARC
  5
BF
330
1D
100
AcDbEntity
  8
1
100
AcDbCircle
 10
12.973991071
 20
-10.134029598
 30
0.0
 40
21.522690095
100
AcDbArc
 50
65.841162402
 51
67.461812867
  0
ARC
  5
C0
330
1D
100
AcDbEntity
  8
1
100
AcDbCircle
 10
11.008893456
 20
-14.869265947
 30
0.0
 40
26.648560742
100
AcDbArc
 50
67.461812867
 51
68.23678951700002
  0
LINE
  5
C1
330
1D
100
AcDbEntity
  8
1
100
AcDbLine
 10
20.88934925
 20
9.879711087
 30
0.0
 11
21.773211627
 21
9.894963357
 31
0.0
  0
LINE
  5
C2
330
1D
100
AcDbEntity
  8
1
100
AcDbLine
 10
21.773211627
 20
9.894963357
 30
0.0
 11
22.653249992
 21
9.951472286
 31
0.0
  0
LINE
  5
C3
330
1D
100
AcDbEntity
  8
1
100
AcDbLine
 10
22.653249992
 20
9.951472286
 30
0.0
 11
23.519607229
 21
10.048435073
 31
0.0
  0
LINE
  5
C4
330
1D
100
AcDbEntity
  8
1
100
AcDbLine
 10
23.519607229
 20
10.048435073
 30
0.0
 11
24.005759476
 21
10.122253563
 31
0.0
  0
LINE
  5
C5
330
1D
100
AcDbEntity
  8
1
100
AcDbLine
 10
24.005759476
 20
10.122253563
 30
0.0
 11
24.48090349
 21
10.213344361
 31
0.0
  0
LINE
  5
C6
330
1D
100
AcDbEntity
  8
1
100
AcDbLine
 10
24.48090349
 20
10.213344361
 30
0.0
 11
24.934396116
 21
10.326119143
 31
0.0
  0
LINE
  5
C7
330
1D
100
AcDbEntity
  8
1
100
AcDbLine
 10
24.934396116
 20
10.326119143
 30
0.0
 11
25.19256991
 21
10.407745841
 31
0.0
  0
LINE
  5
C8
330
1D
100
AcDbEntity
  8
1
100
AcDbLine
 10
25.19256991
 20
10.407745841
 30
0.0
 11
25.424391
 21
10.504101406
 31
0.0
  0
LINE
  5
C9
330
1D
100
AcDbEntity
  8
1
100
AcDbLine
 10
25.424391
 20
10.504101406
 30
0.0
 11
25.572178854
 21
10.593089278
 31
0.0
  0
LINE
  5
CA
330
1D
100
AcDbEntity
  8
1
100
AcDbLine
 10
25.572178854
 20
10.593089278
 30
0.0
 11
25.626486136
 21
10.64336859
 31
0.0
  0
LINE
  5
CB
330
1D
100
AcDbEntity
  8
1
100
AcDbLine
 10
25.626486136
 20
10.64336859
 30
0.0
 11
25.660077079
 21
10.696346875
 31
0.0
  0
LINE
  5
CC
330
1D
100
AcDbEntity
  8
1
100
AcDbLine
 10
25.660077079
 20
10.696346875
 30
0.0
 11
25.661449848
 21
10.774283673
 31
0.0
  0
LINE
  5
CD
330
1D
100
AcDbEntity
  8
1
100
AcDbLine
 10
25.661449848
 20
10.774283673
 30
0.0
 11
25.606406821
 21
10.846016
 31
0.0
  0
LINE
  5
CE
330
1D
100
AcDbEntity
  8
1
100
AcDbLine
 10
25.606406821
 20
10.846016
 30
0.0
 11
25.449091537
 21
10.934814814
 31
0.0
  0
LINE
  5
CF
330
1D
100
AcDbEntity
  8
1
100
AcDbLine
 10
25.449091537
 20
10.934814814
 30
0.0
 11
25.263618646
 21
10.997801091
 31
0.0
  0
LINE
  5
D0
330
1D
100
AcDbEntity
  8
1
100
AcDbLine
 10
25.263618646
 20
10.997801091
 30
0.0
 11
25.057300894
 21
11.048104617
 31
0.0
  0
LINE
  5
D1
330
1D
100
AcDbEntity
  8
1
100
AcDbLine
 10
25.057300894
 20
11.048104617
 30
0.0
 11
24.628275974
 21
11.122879575
 31
0.0
  0
LINE
  5
D2
330
1D
100
AcDbEntity
  8
1
100
AcDbLine
 10
24.628275974
 20
11.122879575
 30
0.0
 11
24.176524921
 21
11.175504889
 31
0.0
  0
LINE
  5
D3
330
1D
100
AcDbEntity
  8
1
100
AcDbLine
 10
24.176524921
 20
11.175504889
 30
0.0
 11
23.714808716
 21
11.212795976
 31
0.0
  0
LINE
  5
D4
330
1D
100
AcDbEntity
  8
1
100
AcDbLine
 10
23.714808716
 20
11.212795976
 30
0.0
 11
23.382430909
 21
11.232960525
 31
0.0
  0
ARC
  5
D5
330
1D
100
AcDbEntity
  8
1
100
AcDbCircle
 10
-6.65471105
 20
-549.721529222
 30
0.0
 40
561.758105829
100
AcDbArc
 50
86.934939492
 51
87.22929682299998
  0
LINE
  5
D6
330
1D
100
AcDbEntity
  8
1
100
AcDbLine
 10
20.500000535
 20
11.376972313
 30
0.0
 11
20.400000705
 21
11.276194829
 31
0.0
  0
ARC
  5
D7
330
1D
100
AcDbEntity
  8
1
100
AcDbCircle
 10
20.801628978
 20
9.098971095
 30
0.0
 40
0.401716198
100
AcDbArc
 50
138.664066877
 51
178.801210208
  0
ARC
  5
D8
330
1D
100
AcDbEntity
  8
1
100
AcDbCircle
 10
17.805339566
 20
11.793249162
 30
0.0
 40
3.627811715
100
AcDbArc
 50
317.9686387740001
 51
325.262943815
  0
ARC
  5
D9
330
1D
100
AcDbEntity
  8
1
100
AcDbCircle
 10
19.131415533
 20
10.87376121
 30
0.0
 40
2.01765536
100
AcDbArc
 50
325.262943815
 51
330.513371132
  0
LINE
  5
DA
330
1D
100
AcDbEntity
  8
1
100
AcDbLine
 10
20.400000705
 20
3.255380088
 30
0.0
 11
25.699999969
 21
3.255380165
 31
0.0
  0
ARC
  5
DB
330
1D
100
AcDbEntity
  8
1
100
AcDbCircle
 10
6.282332914
 20
0.000000003
 30
0.0
 40
19.688659016
100
AcDbArc
 50
0.0
 51
9.517155341
  0
ARC
  5
DC
330
1D
100
AcDbEntity
  8
1
100
AcDbCircle
 10
6.282332914
 20
0.000000003
 30
0.0
 40
19.677474676
100
AcDbArc
 50
350.4828444889998
 51
0.0
  0
LINE
  5
DD
330
1D
100
AcDbEntity
  8
1
100
AcDbLine
 10
25.699999152
 20
-3.255380082
 30
0.0
 11
20.400000705
 21
-3.255380082
 31
0.0
  0
LINE
  5
DE
330
1D
100
AcDbEntity
  8
1
100
AcDbLine
 10
20.400000705
 20
-4.323319063
 30
0.0
 11
20.430339469
 21
-4.663809665
 31
0.0
  0
LINE
  5
DF
330
1D
100
AcDbEntity
  8
1
100
AcDbLine
 10
20.430339469
 20
-4.663809665
 30
0.0
 11
20.499999969
 21
-4.989157747
 31
0.0
  0
ARC
  5
E0
330
1D
100
AcDbEntity
  8
1
100
AcDbCircle
 10
28.250786333
 20
1.138801896
 30
0.0
 40
9.880616309
100
AcDbArc
 50
218.330751412
 51
218.787977819
  0
ARC
  5
E1
330
1D
100
AcDbEntity
  8
1
100
AcDbCircle
 10
30.254878447
 20
2.749441091
 30
0.0
 40
12.451685072
100
AcDbArc
 50
218.787977819
 51
227.089139634
  0
ARC
  5
E2
330
1D
100
AcDbEntity
  8
1
100
AcDbCircle
 10
21.513256307
 20
-6.625832987
 30
0.0
 40
0.37529201
100
AcDbArc
 50
315.849246753
 51
44.150668254
  0
ARC
  5
E3
330
1D
100
AcDbEntity
  8
1
100
AcDbCircle
 10
13.910184999
 20
2.749441091
 30
0.0
 40
12.443452207
100
AcDbArc
 50
305.4947965810001
 51
309.245886761
  0
ARC
  5
E4
330
1D
100
AcDbEntity
  8
1
100
AcDbCircle
 10
8.643864052
 20
10.134029604
 30
0.0
 40
21.521761358
100
AcDbArc
 50
303.092897861
 51
305.494703262
  0
ARC
  5
E5
330
1D
100
AcDbEntity
  8
1
100
AcDbCircle
 10
21.197801304
 20
-8.162042773
 30
0.0
 40
0.801470983
100
AcDbArc
 50
185.48548871
 51
209.465691629
  0
ARC
  5
E6
330
1D
100
AcDbEntity
  8
1
100
AcDbCircle
 10
31.191072376
 20
10.134029604
 30
0.0
 40
21.531999796
100
AcDbArc
 50
240.229957249
 51
244.08146766
  0
ARC
  5
E7
330
1D
100
AcDbEntity
  8
1
100
AcDbCircle
 10
21.730165866
 20
-9.364868511
 30
0.0
 40
0.148269388
100
AcDbArc
 50
290.682031235
 51
69.317787777
  0
ARC
  5
E8
330
1D
100
AcDbEntity
  8
1
100
AcDbCircle
 10
12.973991071
 20
10.134029604
 30
0.0
 40
21.522690095
100
AcDbArc
 50
292.538187133
 51
294.158837598
  0
ARC
  5
E9
330
1D
100
AcDbEntity
  8
1
100
AcDbCircle
 10
11.008893456
 20
14.869265953
 30
0.0
 40
26.648560742
100
AcDbArc
 50
290.635322675
 51
292.538187133
  0
ARC
  5
EA
330
1D
100
AcDbEntity
  8
1
100
AcDbCircle
 10
20.861558756
 20
-10.143214412
 30
0.0
 40
0.468827354
100
AcDbArc
 50
190.102765844
 51
219.538500822
  0
ARC
  5
EB
330
1D
100
AcDbEntity
  8
1
100
AcDbCircle
 10
28.826042972
 20
14.869265953
 30
0.0
 40
26.645194835
100
AcDbArc
 50
251.79135694
 51
254.671728072
  0
LINE
  5
EC
330
1D
100
AcDbEntity
  8
1
100
AcDbLine
 10
21.782532303
 20
-10.827647519
 30
0.0
 11
21.834770186
 21
-10.84832288
 31
0.0
  0
LINE
  5
ED
330
1D
100
AcDbEntity
  8
1
100
AcDbLine
 10
21.834770186
 20
-10.84832288
 30
0.0
 11
21.871831237
 21
-10.878896338
 31
0.0
  0
LINE
  5
EE
330
1D
100
AcDbEntity
  8
1
100
AcDbLine
 10
21.871831237
 20
-10.878896338
 30
0.0
 11
21.882401748
 21
-10.912011374
 31
0.0
  0
LINE
  5
EF
330
1D
100
AcDbEntity
  8
1
100
AcDbLine
 10
21.882401748
 20
-10.912011374
 30
0.0
 11
21.868305249
 21
-10.94236504
 31
0.0
  0
LINE
  5
F0
330
1D
100
AcDbEntity
  8
1
100
AcDbLine
 10
21.868305249
 20
-10.94236504
 30
0.0
 11
21.834485201
 21
-10.967382227
 31
0.0
  0
LINE
  5
F1
330
1D
100
AcDbEntity
  8
1
100
AcDbLine
 10
21.834485201
 20
-10.967382227
 30
0.0
 11
21.782531723
 21
-10.986448505
 31
0.0
  0
ARC
  5
F2
330
1D
100
AcDbEntity
  8
1
100
AcDbCircle
 10
15.339020475
 20
14.869265953
 30
0.0
 40
26.646515857
100
AcDbArc
 50
283.135797857
 51
283.993652502
  0
ARC
  5
F3
330
1D
100
AcDbEntity
  8
1
100
AcDbCircle
 10
13.422277685
 20
23.08201302
 30
0.0
 40
35.082013017
100
AcDbArc
 50
281.637809997
 51
283.136063108
  0
LINE
  5
F4
330
1D
100
AcDbEntity
  8
1
100
AcDbLine
 10
20.500000535
 20
-11.282816526
 30
0.0
 11
20.462341575
 21
-11.252936904
 31
0.0
  0
LINE
  5
F5
330
1D
100
AcDbEntity
  8
1
100
AcDbLine
 10
20.462341575
 20
-11.252936904
 30
0.0
 11
20.430633767
 21
-11.233152818
 31
0.0
  0
LINE
  5
F6
330
1D
100
AcDbEntity
  8
1
100
AcDbLine
 10
20.430633767
 20
-11.233152818
 30
0.0
 11
20.408399372
 21
-11.226991188
 31
0.0
  0
LINE
  5
F7
330
1D
100
AcDbEntity
  8
1
100
AcDbLine
 10
20.408399372
 20
-11.226991188
 30
0.0
 11
20.400000705
 21
-11.238215488
 31
0.0
  0
ARC
  5
F8
330
1D
100
AcDbEntity
  8
1
100
AcDbCircle
 10
20.829830506
 20
-11.184456109
 30
0.0
 40
0.459379481
100
AcDbArc
 50
200.662562632
 51
224.1111733
  0
ARC
  5
F9
330
1D
100
AcDbEntity
  8
1
100
AcDbCircle
 10
26.412658742
 20
23.08201302
 30
0.0
 40
35.087979127
100
AcDbArc
 50
260.29882888
 51
262.431017142
  0
LINE
  5
FA
330
1D
100
AcDbEntity
  8
1
100
AcDbLine
 10
21.79095891
 20
-11.699635532
 30
0.0
 11
21.841423555
 21
-11.710163203
 31
0.0
  0
LINE
  5
FB
330
1D
100
AcDbEntity
  8
1
100
AcDbLine
 10
21.841423555
 20
-11.710163203
 30
0.0
 11
21.873204006
 21
-11.723673899
 31
0.0
  0
LINE
  5
FC
330
1D
100
AcDbEntity
  8
1
100
AcDbLine
 10
21.873204006
 20
-11.723673899
 30
0.0
 11
21.882399885
 21
-11.73824351
 31
0.0
  0
LINE
  5
FD
330
1D
100
AcDbEntity
  8
1
100
AcDbLine
 10
21.882399885
 20
-11.73824351
 30
0.0
 11
21.868670328
 21
-11.752040122
 31
0.0
  0
LINE
  5
FE
330
1D
100
AcDbEntity
  8
1
100
AcDbLine
 10
21.868670328
 20
-11.752040122
 30
0.0
 11
21.834261684
 21
-11.763694693
 31
0.0
  0
LINE
  5
FF
330
1D
100
AcDbEntity
  8
1
100
AcDbLine
 10
21.834261684
 20
-11.763694693
 30
0.0
 11
21.782531723
 21
-11.772256595
 31
0.0
  0
ARC
  5
100
330
1D
100
AcDbEntity
  8
1
100
AcDbCircle
 10
17.752404704
 20
23.08201302
 30
0.0
 40
35.086493614
100
AcDbArc
 50
274.491647846
 51
276.595701963
  0
ARC
  5
101
330
1D
100
AcDbEntity
  8
1
100
AcDbCircle
 10
20.282597772
 20
-12.067443954
 30
0.0
 40
0.277684894
100
AcDbArc
 50
38.472049968
 51
64.98902023800001
  0
ARC
  5
102
330
1D
100
AcDbEntity
  8
1
100
AcDbCircle
 10
20.953726095
 20
-11.469328852
 30
0.0
 40
0.67210208
100
AcDbArc
 50
214.525808902
 51
227.539277348
  0
ARC
  5
103
330
1D
100
AcDbEntity
  8
1
100
AcDbCircle
 10
22.082531723
 20
23.08201302
 30
0.0
 40
35.082889915
100
AcDbArc
 50
267.41460386
 51
269.51003684
  0
ARC
  5
104
330
1D
100
AcDbEntity
  8
1
100
AcDbCircle
 10
21.682218222
 20
-24.037053149
 30
0.0
 40
12.03872083
100
AcDbArc
 50
89.174149179
 51
89.52257054
  0
LINE
  5
105
330
1D
100
AcDbEntity
  8
1
100
AcDbLine
 10
21.85573612
 20
-11.999582869
 30
0.0
 11
29.204689061
 21
-11.999583323
 31
0.0
  0
ARC
  5
106
330
1D
100
AcDbEntity
  8
1
100
AcDbCircle
 10
29.1932955
 20
-11.789283547
 30
0.0
 40
0.210608188
100
AcDbArc
 50
273.101122486
 51
296.349957785
  0
LINE
  5
107
330
1D
100
AcDbEntity
  8
1
100
AcDbLine
 10
29.284443675
 20
-11.97330374
 30
0.0
 11
29.284443675
 21
-11.848628518
 31
0.0
  0
ARC
  5
108
330
1D
100
AcDbEntity
  8
1
100
AcDbCircle
 10
29.36438488
 20
-12.022202522
 30
0.0
 40
0.191098224
100
AcDbArc
 50
83.974849828
 51
114.728896139
  0
LINE
  5
109
330
1D
100
AcDbEntity
  8
1
100
AcDbLine
 10
29.384443505
 20
-11.832159941
 30
0.0
 11
33.864613591
 21
-11.832159941
 31
0.0
  0
LINE
  5
10A
330
1D
100
AcDbEntity
  8
1
100
AcDbLine
 10
33.864613591
 20
-11.832159941
 30
0.0
 11
33.864613591
 21
-3.452775065000001
 31
0.0
  0
LINE
  5
10C
330
1D
100
AcDbEntity
  8
1
100
AcDbLine
 10
33.864613591
 20
-3.452775065
 30
0.0
 11
33.078107951
 21
-2.998685694
 31
0.0
  0
LINE
  5
10D
330
1D
100
AcDbEntity
  8
1
100
AcDbLine
 10
33.078107951
 20
-2.998685694
 30
0.0
 11
32.283585487
 21
-2.539967882
 31
0.0
  0
LINE
  5
10E
330
1D
100
AcDbEntity
  8
1
100
AcDbLine
 10
32.283585487
 20
-2.539967882
 30
0.0
 11
31.482271819
 21
-2.077329435
 31
0.0
  0
LINE
  5
10F
330
1D
100
AcDbEntity
  8
1
100
AcDbLine
 10
31.482271819
 20
-2.077329435
 30
0.0
 11
30.675405605
 21
-1.611484794
 31
0.0
  0
LINE
  5
110
330
1D
100
AcDbEntity
  8
1
100
AcDbLine
 10
30.675405605
 20
-1.611484794
 30
0.0
 11
29.864231093
 21
-1.143152706
 31
0.0
  0
LINE
  5
111
330
1D
100
AcDbEntity
  8
1
100
AcDbLine
 10
29.864231093
 20
-1.143152706
 30
0.0
 11
29.04999998
 21
-0.673056286
 31
0.0
  0
ARC
  5
112
330
1D
100
AcDbEntity
  8
1
100
AcDbCircle
 10
30.049996313
 20
1.058992594
 30
0.0
 40
1.999996497
100
AcDbArc
 50
179.999943589
 51
240.000063367
  0
LINE
  5
113
330
1D
100
AcDbEntity
  8
1
100
AcDbLine
 10
28.049999817
 20
1.058994563
 30
0.0
 11
28.049999817
 21
9.055513892
 31
0.0
  0
LINE
  5
114
330
1D
100
AcDbEntity
  8
1
100
AcDbLine
 10
28.049999817
 20
9.055513892
 30
0.0
 11
27.84151022
 21
9.416628632
 31
0.0
  0
LINE
  5
115
330
1D
100
AcDbEntity
  8
1
100
AcDbLine
 10
27.84151022
 20
9.416628632
 30
0.0
 11
27.64510919
 21
9.756805378
 31
0.0
  0
LINE
  5
116
330
1D
100
AcDbEntity
  8
1
100
AcDbLine
 10
27.64510919
 20
9.756805378
 30
0.0
 11
27.461232586
 21
10.075287897
 31
0.0
  0
LINE
  5
117
330
1D
100
AcDbEntity
  8
1
100
AcDbLine
 10
27.461232586
 20
10.075287897
 30
0.0
 11
27.290292053
 21
10.37136745
 31
0.0
  0
LINE
  5
118
330
1D
100
AcDbEntity
  8
1
100
AcDbLine
 10
27.290292053
 20
10.37136745
 30
0.0
 11
27.132663844
 21
10.644386526
 31
0.0
  0
LINE
  5
119
330
1D
100
AcDbEntity
  8
1
100
AcDbLine
 10
27.132663844
 20
10.644386526
 30
0.0
 11
26.988701863
 21
10.893736969
 31
0.0
  0
LINE
  5
11A
330
1D
100
AcDbEntity
  8
1
100
AcDbLine
 10
26.988701863
 20
10.893736969
 30
0.0
 11
26.85872276
 21
11.118865575
 31
0.0
  0
LINE
  5
11B
330
1D
100
AcDbEntity
  8
1
100
AcDbLine
 10
26.85872276
 20
11.118865575
 30
0.0
 11
26.743018968
 21
11.319271292
 31
0.0
  0
LINE
  5
11C
330
1D
100
AcDbEntity
  8
1
100
AcDbLine
 10
26.743018968
 20
11.319271292
 30
0.0
 11
26.641845672
 21
11.494508016
 31
0.0
  0
LINE
  5
11D
330
1D
100
AcDbEntity
  8
1
100
AcDbLine
 10
26.641845672
 20
11.494508016
 30
0.0
 11
26.55542825
 21
11.644186455
 31
0.0
  0
LINE
  5
11E
330
1D
100
AcDbEntity
  8
1
100
AcDbLine
 10
26.55542825
 20
11.644186455
 30
0.0
 11
26.483960418
 21
11.767974127
 31
0.0
  0
LINE
  5
11F
330
1D
100
AcDbEntity
  8
1
100
AcDbLine
 10
26.483960418
 20
11.767974127
 30
0.0
 11
26.427598639
 21
11.865595359
 31
0.0
  0
LINE
  5
120
330
1D
100
AcDbEntity
  8
1
100
AcDbLine
 10
26.427598639
 20
11.865595359
 30
0.0
 11
26.386469571
 21
11.936832223
 31
0.0
  0
LINE
  5
121
330
1D
100
AcDbEntity
  8
1
100
AcDbLine
 10
26.386469571
 20
11.936832223
 30
0.0
 11
26.360664485
 21
11.981528256
 31
0.0
  0
LINE
  5
122
330
1D
100
AcDbEntity
  8
1
100
AcDbLine
 10
26.360664485
 20
11.981528256
 30
0.0
 11
26.350241123
 21
11.999582875
 31
0.0
  0
LINE
  5
123
330
1D
100
AcDbEntity
  8
1
100
AcDbLine
 10
29.204688935
 20
11.999582875
 30
0.0
 11
21.85573612
 21
11.999582875
 31
0.0
  0
LINE
  5
124
330
1D
100
AcDbEntity
  8
1
100
AcDbLine
 10
21.85573612
 20
11.999582875
 30
0.0
 11
21.834228156
 21
11.999292302
 31
0.0
  0
LINE
  5
125
330
1D
100
AcDbEntity
  8
1
100
AcDbLine
 10
21.834228156
 20
11.999292302
 30
0.0
 11
21.782531723
 21
11.998749938
 31
0.0
  0
ARC
  5
126
330
1D
100
AcDbEntity
  8
1
100
AcDbCircle
 10
22.082531723
 20
-23.082013013
 30
0.0
 40
35.082045683
100
AcDbArc
 50
90.489964112
 51
92.585395229
  0
ARC
  5
127
330
1D
100
AcDbEntity
  8
1
100
AcDbCircle
 10
20.927943043
 20
11.491767457
 30
0.0
 40
0.638154235
100
AcDbArc
 50
132.112939521
 51
145.821948313
  0
ARC
  5
128
330
1D
100
AcDbEntity
  8
1
100
AcDbCircle
 10
20.226288289
 20
12.138822308
 30
0.0
 40
0.366770231
100
AcDbArc
 50
298.270015036
 51
318.268820211
  0
ARC
  5
129
330
1D
100
AcDbEntity
  8
1
100
AcDbCircle
 10
17.752404704
 20
-23.082013013
 30
0.0
 40
35.08445251
100
AcDbArc
 50
83.39142692399999
 51
85.508353037
  0
LINE
  5
12A
330
1D
100
AcDbEntity
  8
1
100
AcDbLine
 10
21.790357275
 20
11.771314781
 30
0.0
 11
21.840790255
 21
11.762077923
 31
0.0
  0
LINE
  5
12B
330
1D
100
AcDbEntity
  8
1
100
AcDbLine
 10
21.840790255
 20
11.762077923
 30
0.0
 11
21.872887356
 21
11.74959727
 31
0.0
  0
LINE
  5
12C
330
1D
100
AcDbEntity
  8
1
100
AcDbLine
 10
21.872887356
 20
11.74959727
 30
0.0
 11
21.882422237
 21
11.735285635
 31
0.0
  0
LINE
  5
12D
330
1D
100
AcDbEntity
  8
1
100
AcDbLine
 10
21.882422237
 20
11.735285635
 30
0.0
 11
21.868772773
 21
11.720930229
 31
0.0
  0
LINE
  5
12E
330
1D
100
AcDbEntity
  8
1
100
AcDbLine
 10
21.868772773
 20
11.720930229
 30
0.0
 11
21.834365992
 21
11.708209294
 31
0.0
  0
LINE
  5
12F
330
1D
100
AcDbEntity
  8
1
100
AcDbLine
 10
21.834365992
 20
11.708209294
 30
0.0
 11
21.782531723
 21
11.698460355
 31
0.0
  0
ARC
  5
130
330
1D
100
AcDbEntity
  8
1
100
AcDbCircle
 10
26.412658742
 20
-23.082013013
 30
0.0
 40
35.087311153
100
AcDbArc
 50
97.58287689199999
 51
99.70117026799998
  0
ARC
  5
131
330
1D
100
AcDbEntity
  8
1
100
AcDbCircle
 10
20.726816979
 20
11.24979741
 30
0.0
 40
0.340838363
100
AcDbArc
 50
131.718108586
 51
163.508125702
  0
LINE
  5
132
330
1D
100
AcDbEntity
  8
1
100
AcDbLine
 10
33.864613591
 20
-3.452775065
 30
0.0
 11
34.020226417
 21
-3.542618823
 31
0.0
  0
LINE
  5
133
330
1D
100
AcDbEntity
  8
1
100
AcDbLine
 10
34.020226417
 20
-3.542618823
 30
0.0
 11
34.137275039
 21
-3.610196753
 31
0.0
  0
LINE
  5
134
330
1D
100
AcDbEntity
  8
1
100
AcDbLine
 10
34.137275039
 20
-3.610196753
 30
0.0
 11
34.198094128
 21
-3.645310641
 31
0.0
  0
LINE
  5
135
330
1D
100
AcDbEntity
  8
1
100
AcDbLine
 10
34.198094128
 20
-3.645310641
 30
0.0
 11
34.23876588
 21
-3.668791668
 31
0.0
  0
ARC
  5
136
330
1D
100
AcDbEntity
  8
1
100
AcDbCircle
 10
73.187930961
 20
-1.099999997
 30
0.0
 40
39.033782178
100
AcDbArc
 50
183.773330633
 51
185.344722231
  0
ARC
  5
137
330
1D
100
AcDbEntity
  8
1
100
AcDbCircle
 10
40.69517633
 20
-4.139810228
 30
0.0
 40
6.390971581
100
AcDbArc
 50
185.345024151
 51
192.606993773
  0
ARC
  5
138
330
1D
100
AcDbEntity
  8
1
100
AcDbCircle
 10
36.216580209
 20
-5.141469074
 30
0.0
 40
1.801729415
100
AcDbArc
 50
192.606993773
 51
207.00288411
  0
ARC
  5
139
330
1D
100
AcDbEntity
  8
1
100
AcDbCircle
 10
34.677332863
 20
-5.925852748
 30
0.0
 40
0.074147249
100
AcDbArc
 50
207.002623801
 51
332.997376199
  0
ARC
  5
13B
330
1D
100
AcDbEntity
  8
1
100
AcDbCircle
 10
33.138085517
 20
-5.141469074
 30
0.0
 40
1.801729415
100
AcDbArc
 50
332.9971158899999
 51
347.393006227
  0
ARC
  5
13C
330
1D
100
AcDbEntity
  8
1
100
AcDbCircle
 10
28.659489395
 20
-4.139810228
 30
0.0
 40
6.390971581
100
AcDbArc
 50
347.393006227
 51
354.654975849
  0
ARC
  5
13D
330
1D
100
AcDbEntity
  8
1
100
AcDbCircle
 10
-3.833265236
 20
-1.099999997
 30
0.0
 40
39.025608851
100
AcDbArc
 50
354.655277769
 51
354.710681924
  0
ARC
  5
13E
330
1D
100
AcDbEntity
  8
1
100
AcDbCircle
 10
38.599999969
 20
-1.199999997
 30
0.0
 40
5.0
100
AcDbArc
 50
224.389293642
 51
229.458386829
  0
LINE
  5
13F
330
1D
100
AcDbEntity
  8
1
100
AcDbLine
 10
35.349998592
 20
-4.999671128
 30
0.0
 11
35.349998592
 21
-6.160059475
 31
0.0
  0
LINE
  5
140
330
1D
100
AcDbEntity
  8
1
100
AcDbLine
 10
35.349998592
 20
-6.160059475
 30
0.0
 11
35.276427834
 21
-6.228018083
 31
0.0
  0
LINE
  5
141
330
1D
100
AcDbEntity
  8
1
100
AcDbLine
 10
35.276427834
 20
-6.228018083
 30
0.0
 11
35.160812345
 21
-6.20752827
 31
0.0
  0
ARC
  5
142
330
1D
100
AcDbEntity
  8
1
100
AcDbCircle
 10
35.28628409
 20
-6.245600256
 30
0.0
 40
0.133188416
100
AcDbArc
 50
167.639176193
 51
174.834712783
  0
ARC
  5
143
330
1D
100
AcDbEntity
  8
1
100
AcDbCircle
 10
35.971405634
 20
-6.307531815
 30
0.0
 40
0.821103417
100
AcDbArc
 50
174.834774516
 51
179.978507624
  0
LINE
  5
144
330
1D
100
AcDbEntity
  8
1
100
AcDbLine
 10
35.15030068
 20
-6.307223809
 30
0.0
 11
35.15030068
 21
-11.578536589
 31
0.0
  0
ARC
  5
145
330
1D
100
AcDbEntity
  8
1
100
AcDbCircle
 10
34.74809775
 20
-11.581547604
 30
0.0
 40
0.4022142
100
AcDbArc
 50
260.374330265
 51
0.428925746
  0
LINE
  5
146
330
1D
100
AcDbEntity
  8
1
100
AcDbLine
 10
34.680843322
 20
-11.978099119
 30
0.0
 11
33.864613591
 21
-11.832159941
 31
0.0
  0
LINE
  5
147
330
1D
100
AcDbEntity
  8
1
100
AcDbLine
 10
20.400000705
 20
4.32331907
 30
0.0
 11
20.42679113
 21
4.640758041
 31
0.0
  0
LINE
  5
148
330
1D
100
AcDbEntity
  8
1
100
AcDbLine
 10
20.42679113
 20
4.640758041
 30
0.0
 11
20.499999969
 21
4.989157753
 31
0.0
  0
ARC
  5
149
330
1D
100
AcDbEntity
  8
1
100
AcDbCircle
 10
28.250786333
 20
-1.138801889
 30
0.0
 40
9.880616309
100
AcDbArc
 50
141.212022181
 51
141.669248588
  0
ARC
  5
14A
330
1D
100
AcDbEntity
  8
1
100
AcDbCircle
 10
30.254878447
 20
-2.749441084
 30
0.0
 40
12.451685072
100
AcDbArc
 50
132.910860366
 51
141.212022181
  0
LINE
  5
14B
330
1D
100
AcDbEntity
  8
1
100
AcDbLine
 10
21.782532303
 20
6.36442425
 30
0.0
 11
21.836752041
 21
6.437153093
 31
0.0
  0
LINE
  5
14C
330
1D
100
AcDbEntity
  8
1
100
AcDbLine
 10
21.836752041
 20
6.437153093
 30
0.0
 11
21.879795907
 21
6.565038118
 31
0.0
  0
LINE
  5
14D
330
1D
100
AcDbEntity
  8
1
100
AcDbLine
 10
21.879795907
 20
6.565038118
 30
0.0
 11
21.878397061
 21
6.675892047
 31
0.0
  0
LINE
  5
14E
330
1D
100
AcDbEntity
  8
1
100
AcDbLine
 10
21.878397061
 20
6.675892047
 30
0.0
 11
21.878153054
 21
6.695566236
 31
0.0
  0
ARC
  5
14F
330
1D
100
AcDbEntity
  8
1
100
AcDbCircle
 10
21.568168402
 20
6.660613658
 30
0.0
 40
0.311948982
100
AcDbArc
 50
6.433261323999999
 51
46.59311389
  0
ARC
  5
150
330
1D
100
AcDbEntity
  8
1
100
AcDbCircle
 10
13.910184999
 20
-2.749441084
 30
0.0
 40
12.443452207
100
AcDbArc
 50
50.75411323900001
 51
54.50520341899999
  0
ARC
  5
151
330
1D
100
AcDbEntity
  8
1
100
AcDbCircle
 10
8.643864052
 20
-10.134029598
 30
0.0
 40
21.521761358
100
AcDbArc
 50
54.505296738
 51
56.907102139
  0
ARC
  5
155
330
1D
100
AcDbEntity
  8
1
100
AcDbCircle
 10
29.549999969
 20
5.485767564
 30
0.0
 40
0.4
100
AcDbArc
 50
180.0
 51
279.999973927
  0
ARC
  5
157
330
1D
100
AcDbEntity
  8
1
100
AcDbCircle
 10
35.099999969
 20
6.464382307
 30
0.0
 40
0.4
100
AcDbArc
 50
280.0
 51
359.999980577
  0
LINE
  5
158
330
1D
100
AcDbEntity
  8
1
100
AcDbLine
 10
35.500001131
 20
6.464382171
 30
0.0
 11
35.499999969
 21
12.100000003
 31
0.0
  0
ARC
  5
159
330
1D
100
AcDbEntity
  8
1
100
AcDbCircle
 10
35.099999969
 20
12.100000003
 30
0.0
 40
0.4
100
AcDbArc
 50
0.0
 51
100.0
  0
ARC
  5
15A
330
1D
100
AcDbEntity
  8
1
100
AcDbCircle
 10
120.125863963
 20
-0.65357896
 30
0.0
 40
85.979835353
100
AcDbArc
 50
181.994051356
 51
183.767914619
  0
ARC
  5
15B
330
1D
100
AcDbEntity
  8
1
100
AcDbCircle
 10
128.014234768
 20
0.000000003
 30
0.0
 40
93.894198445
100
AcDbArc
 50
183.84954996
 51
185.345567256
  0
ARC
  5
15C
330
1D
100
AcDbEntity
  8
1
100
AcDbCircle
 10
49.855838763
 20
-7.31311435
 30
0.0
 40
15.374620795
100
AcDbArc
 50
185.346011244
 51
192.608482125
  0
ARC
  5
15D
330
1D
100
AcDbEntity
  8
1
100
AcDbCircle
 10
39.082249899
 20
-9.722971454
 30
0.0
 40
4.334800676
100
AcDbArc
 50
192.608482125
 51
205.351459395
  0
ARC
  5
15E
330
1D
100
AcDbEntity
  8
1
100
AcDbCircle
 10
30.049803851
 20
6.358962794
 30
0.0
 40
1.999804034
100
AcDbArc
 50
179.99908759
 51
198.195762894
  0
ARC
  5
15F
330
1D
100
AcDbEntity
  8
1
100
AcDbCircle
 10
30.049999969
 20
6.358994536
 30
0.0
 40
2.0
100
AcDbArc
 50
198.194872339
 51
240.000000223
  0
LINE
  5
160
330
1D
100
AcDbEntity
  8
1
100
AcDbLine
 10
29.04999998
 20
4.626943733
 30
0.0
 11
33.599998771
 21
2.000000098
 31
0.0
  0
LINE
  5
162
330
1D
100
AcDbEntity
  8
1
100
AcDbLine
 10
33.599998771
 20
2.000000098
 30
0.0
 11
33.599998771
 21
-1.200000054
 31
0.0
  0
ARC
  5
163
330
1D
100
AcDbEntity
  8
1
100
AcDbCircle
 10
38.600180266
 20
-1.199925444
 30
0.0
 40
5.000181496
100
AcDbArc
 50
180.000854933
 51
224.388455971
  0
ARC
  5
164
330
1D
100
AcDbEntity
  8
1
100
AcDbCircle
 10
29.36438488
 20
12.022202528
 30
0.0
 40
0.191098224
100
AcDbArc
 50
245.271103861
 51
276.025150172
  0
LINE
  5
165
330
1D
100
AcDbEntity
  8
1
100
AcDbLine
 10
29.384443505
 20
11.832159947
 30
0.0
 11
31.277492611
 21
11.832159947
 31
0.0
  0
ARC
  5
166
330
1D
100
AcDbEntity
  8
1
100
AcDbCircle
 10
53.406712972
 20
-6.379864951
 30
0.0
 40
19.542585545
100
AcDbArc
 50
180.404146503
 51
196.622882512
  0
LINE
  5
167
330
1D
100
AcDbEntity
  8
1
100
AcDbLine
 10
34.680843322
 20
-11.970433403
 30
0.0
 11
34.680843322
 21
-11.978099119
 31
0.0
  0
LINE
  5
168
330
1D
100
AcDbEntity
  8
CUT
100
AcDbLine
 10
31.277492611
 20
-11.832159941
 30
0.0
 11
35.030540697
 21
-12.493923097
 31
0.0
  0
ARC
  5
169
330
1D
100
AcDbEntity
  8
CUT
100
AcDbCircle
 10
35.099999969
 20
-12.099999996
 30
0.0
 40
0.4
100
AcDbArc
 50
260.0
 51
0.000009311
  0
LINE
  5
16A
330
1D
100
AcDbEntity
  8
CUT
100
AcDbLine
 10
35.500001131
 20
-12.099999931
 30
0.0
 11
35.499999969
 21
-6.4643823
 31
0.0
  0
ARC
  5
16B
330
1D
100
AcDbEntity
  8
CUT
100
AcDbCircle
 10
35.099999969
 20
-6.4643823
 30
0.0
 40
0.4
100
AcDbArc
 50
0.0
 51
51.317812547
  0
LINE
  5
16C
330
1D
100
AcDbEntity
  8
CUT
100
AcDbLine
 10
32.960362701
 20
-11.832159941
 30
0.0
 11
35.081285428
 21
-12.206135431
 31
0.0
  0
ARC
  5
16D
330
1D
100
AcDbEntity
  8
CUT
100
AcDbCircle
 10
35.099999969
 20
-12.099999996
 30
0.0
 40
0.107772745
100
AcDbArc
 50
260.0
 51
0.000034556
  0
LINE
  5
16E
330
1D
100
AcDbEntity
  8
CUT
100
AcDbLine
 10
35.207774459
 20
-12.099999931
 30
0.0
 11
35.207772714
 21
-6.4643823
 31
0.0
  0
ARC
  5
16F
330
1D
100
AcDbEntity
  8
CUT
100
AcDbCircle
 10
35.099999969
 20
-6.4643823
 30
0.0
 40
0.107772745
100
AcDbArc
 50
0.0
 51
62.177048599
  0
ARC
  5
170
330
1D
100
AcDbEntity
  8
1
100
AcDbCircle
 10
29.620581857
 20
5.569883783
 30
0.0
 40
1.6
100
AcDbArc
 50
286.47364857
 51
320.000001822
  0
LINE
  5
171
330
1D
100
AcDbEntity
  8
1
100
AcDbLine
 10
30.846253006
 20
4.541423641
 30
0.0
 11
31.601343272
 21
5.441303834
 31
0.0
  0
LINE
  5
172
330
1D
100
AcDbEntity
  8
1
100
AcDbLine
 10
29.149999811
 20
7.498224269
 30
0.0
 11
28.394910748
 21
6.598343959
 31
0.0
  0
ARC
  5
173
330
1D
100
AcDbEntity
  8
1
100
AcDbCircle
 10
29.620581857
 20
5.569883783
 30
0.0
 40
1.6
100
AcDbArc
 50
140.0
 51
164.164128282
  0
LINE
  5
174
330
1D
100
AcDbEntity
  8
1
100
AcDbLine
 10
35.349998592
 20
6.152132529
 30
0.0
 11
35.349999969
 21
4.999671042
 31
0.0
  0
ARC
  5
175
330
1D
100
AcDbEntity
  8
1
100
AcDbCircle
 10
38.599999969
 20
1.200000003
 30
0.0
 40
5.0
100
AcDbArc
 50
130.541601874
 51
180.0
  0
LINE
  5
176
330
1D
100
AcDbEntity
  8
1
100
AcDbLine
 10
29.284443675
 20
11.420517232
 30
0.0
 11
29.284443986
 21
11.973303641
 31
0.0
  0
ARC
  5
177
330
1D
100
AcDbEntity
  8
1
100
AcDbCircle
 10
29.1932955
 20
11.789283553
 30
0.0
 40
0.205356858
100
AcDbArc
 50
63.64995131900001
 51
86.89890498199999
  0
ARC
  5
179
330
1D
100
AcDbEntity
  8
1
100
AcDbCircle
 10
32.193999969
 20
7.746883783
 30
0.0
 40
0.15
100
AcDbArc
 50
185.992794362
 51
354.007205638
  0
ARC
  5
17A
330
1D
100
AcDbEntity
  8
1
100
AcDbCircle
 10
31.6470057
 20
7.689461919
 30
0.0
 40
0.4
100
AcDbArc
 50
5.992794361999998
 51
114.007205626
  0
ARC
  5
17B
330
1D
100
AcDbEntity
  8
1
100
AcDbCircle
 10
31.423237359
 20
8.191883783
 30
0.0
 40
0.15
100
AcDbArc
 50
125.992794369
 51
294.007205638
  0
ARC
  5
17C
330
1D
100
AcDbEntity
  8
1
100
AcDbCircle
 10
31.100011432
 20
8.636883783
 30
0.0
 40
0.4
100
AcDbArc
 50
305.992794362
 51
54.007205636
  0
ARC
  5
17D
330
1D
100
AcDbEntity
  8
1
100
AcDbCircle
 10
31.423237359
 20
9.081883783
 30
0.0
 40
0.15
100
AcDbArc
 50
65.992794395
 51
234.007205638
  0
ARC
  5
17E
330
1D
100
AcDbEntity
  8
1
100
AcDbCircle
 10
31.6470057
 20
9.584305647
 30
0.0
 40
0.4
100
AcDbArc
 50
245.992794362
 51
354.007205638
  0
ARC
  5
17F
330
1D
100
AcDbEntity
  8
1
100
AcDbCircle
 10
32.193999969
 20
9.526883783
 30
0.0
 40
0.15
100
AcDbArc
 50
5.992794361999998
 51
174.007205638
  0
ARC
  5
180
330
1D
100
AcDbEntity
  8
1
100
AcDbCircle
 10
32.740994237
 20
9.584305647
 30
0.0
 40
0.4
100
AcDbArc
 50
185.992794362
 51
294.007205639
  0
ARC
  5
181
330
1D
100
AcDbEntity
  8
1
100
AcDbCircle
 10
32.964762578
 20
9.081883783
 30
0.0
 40
0.15
100
AcDbArc
 50
305.992794369
 51
114.007205638
  0
ARC
  5
182
330
1D
100
AcDbEntity
  8
1
100
AcDbCircle
 10
33.287988505
 20
8.636883783
 30
0.0
 40
0.4
100
AcDbArc
 50
125.992794362
 51
234.007205636
  0
ARC
  5
183
330
1D
100
AcDbEntity
  8
1
100
AcDbCircle
 10
32.964762578
 20
8.191883783
 30
0.0
 40
0.15
100
AcDbArc
 50
245.992794361
 51
54.007205638
  0
ARC
  5
184
330
1D
100
AcDbEntity
  8
1
100
AcDbCircle
 10
32.740994237
 20
7.689461919
 30
0.0
 40
0.4
100
AcDbArc
 50
65.992794362
 51
174.007205638
  0
LINE
  5
185
330
1D
100
AcDbEntity
  8
1
100
AcDbLine
 10
25.699999152
 20
3.255380088
 30
0.0
 11
25.699999152
 21
-3.255380082
 31
0.0
  0
LINE
  5
186
330
1D
100
AcDbEntity
  8
1
100
AcDbLine
 10
20.400000705
 20
11.850261133
 30
0.0
 11
20.400000705
 21
-11.850261126
 31
0.0
  0
LINE
  5
187
330
1D
100
AcDbEntity
  8
CUT
100
AcDbLine
 10
35.207774459
 20
-12.099999931
 30
0.0
 11
35.500001131
 21
-12.099999931
 31
0.0
  0
LINE
  5
188
330
1D
100
AcDbEntity
  8
CUT
100
AcDbLine
 10
35.081285952
 20
-12.206135314
 30
0.0
 11
35.030540047
 21
-12.493923303
 31
0.0
  0
LINE
  5
189
330
1D
100
AcDbEntity
  8
CUT
100
AcDbLine
 10
35.207774459
 20
-6.464382165
 30
0.0
 11
35.500001131
 21
-6.464382165
 31
0.0
  0
LINE
  5
18B
330
1D
100
AcDbEntity
  8
SK2
100
AcDbLine
 10
47.099023406
 20
-12.499999996
 30
0.0
 11
35.099999969
 21
-12.499999996
 31
0.0
  0
LINE
  5
18C
330
1D
100
AcDbEntity
  8
SK2
100
AcDbLine
 10
45.099023406
 20
-12.499999996
 30
0.0
 11
44.649023406
 21
-8.999999996
 31
0.0
  0
LINE
  5
18D
330
1D
100
AcDbEntity
  8
SK2
100
AcDbLine
 10
44.649023406
 20
-8.999999996
 30
0.0
 11
45.549023406
 21
-8.999999996
 31
0.0
  0
LINE
  5
18E
330
1D
100
AcDbEntity
  8
SK2
100
AcDbLine
 10
45.549023406
 20
-8.999999996
 30
0.0
 11
45.099023406
 21
-12.499999996
 31
0.0
  0
LINE
  5
18F
330
1D
100
AcDbEntity
  8
SK2
100
AcDbLine
 10
47.099023406
 20
12.500000003
 30
0.0
 11
35.099999969
 21
12.500000003
 31
0.0
  0
LINE
  5
190
330
1D
100
AcDbEntity
  8
SK2
100
AcDbLine
 10
45.099023406
 20
12.500000003
 30
0.0
 11
45.549023406
 21
9.000000003
 31
0.0
  0
LINE
  5
191
330
1D
100
AcDbEntity
  8
SK2
100
AcDbLine
 10
45.549023406
 20
9.000000003
 30
0.0
 11
44.649023406
 21
9.000000003
 31
0.0
  0
LINE
  5
192
330
1D
100
AcDbEntity
  8
SK2
100
AcDbLine
 10
44.649023406
 20
9.000000003
 30
0.0
 11
45.099023406
 21
12.500000003
 31
0.0
  0
LINE
  5
193
330
1D
100
AcDbEntity
  8
SK2
100
AcDbLine
 10
45.099023406
 20
-8.999999996
 30
0.0
 11
45.099023406
 21
9.000000003
 31
0.0
  0
TEXT
  5
194
330
1D
100
AcDbEntity
  8
SK2
100
AcDbText
 10
43.599023406
 20
-2.848906526
 30
0.0
 40
3.5
  1
25
 50
90.0
  7
BMG_Text
100
AcDbText
  0
CIRCLE
  5
195
330
1D
100
AcDbEntity
  8
SK2
100
AcDbCircle
 10
42.349023406
 20
-5.098906526
 30
0.0
 40
1.25
  0
LINE
  5
196
330
1D
100
AcDbEntity
  8
SK2
100
AcDbLine
 10
43.599023406
 20
-6.348906526
 30
0.0
 11
41.099023406
 21
-3.848906526
 31
0.0
  0
TEXT
  5
197
330
1D
100
AcDbEntity
  8
SK2
100
AcDbText
 10
43.599023406
 20
1.761718474
 30
0.0
 40
3.5
  1
-33
 50
90.0
  7
BMG_Text
100
AcDbText
  0
LINE
  5
244
330
1D
100
AcDbEntity
  8
1
100
AcDbLine
 10
29.48054069793323
 20
11.51530836120488
 30
0.0
 11
31.277492611
 21
11.832159947
 31
0.0
  0
LINE
  5
245
330
1D
100
AcDbEntity
  8
3
100
AcDbLine
 10
31.277492611
 20
11.832159947
 30
0.0
 11
35.099999969
 21
12.100000003
 31
0.0
  0
LINE
  5
246
330
1D
100
AcDbEntity
  8
3
100
AcDbLine
 10
35.099999969
 20
12.100000003
 30
0.0
 11
35.099999969
 21
6.464382307
 31
0.0
  0
LINE
  5
247
330
1D
100
AcDbEntity
  8
3
100
AcDbLine
 10
35.099999969
 20
6.464382307
 30
0.0
 11
35.349998592
 21
6.152132529
 31
0.0
  0
LINE
  5
248
330
1D
100
AcDbEntity
  8
1
100
AcDbLine
 10
35.349998592
 20
6.152132529
 30
0.0
 11
35.349998592
 21
6.054836074043081
 31
0.0
  0
LINE
  5
249
330
1D
100
AcDbEntity
  8
1
100
AcDbLine
 10
35.349998592
 20
6.054836074043081
 30
0.0
 11
35.16945924006677
 21
6.070459205795117
 31
0.0
  0
LINE
  5
24A
330
1D
100
AcDbEntity
  8
1
100
AcDbLine
 10
35.16945924006677
 20
6.070459205795117
 30
0.0
 11
31.601343272
 21
5.441303834
 31
0.0
  0
LINE
  5
24B
330
1D
100
AcDbEntity
  8
1
100
AcDbLine
 10
29.149999811
 20
7.498224269
 30
0.0
 11
29.149999811
 21
11.13382592046673
 31
0.0
  0
LINE
  5
24D
330
1D
100
AcDbEntity
  8
1
100
AcDbLine
 10
35.03054069793323
 20
12.49392310420488
 30
0.0
 11
29.48054069793323
 21
11.51530836120488
 31
0.0
  0
LINE
  5
24E
330
1D
100
AcDbEntity
  8
1
100
AcDbLine
 10
35.16945924006677
 20
6.070459205795117
 30
0.0
 11
29.61945906080824
 21
5.091844431187043
 31
0.0
  0
ARC
  5
24F
330
1D
100
AcDbEntity
  8
1
100
AcDbCircle
 10
29.54999996900001
 20
11.12138526
 30
0.0
 40
0.400000000000003
100
AcDbArc
 50
100.0000000000005
 51
180.0000654749997
  0
LINE
  5
250
330
1D
100
AcDbEntity
  8
1
100
AcDbLine
 10
29.149999969
 20
5.485767564
 30
0.0
 11
29.14999996900026
 21
11.12138480289827
 31
0.0
  0
LINE
  5
254
330
1D
100
AcDbEntity
  8
NOCUT
100
AcDbLine
 10
0.0
 20
0.0
 30
0.0
 11
33.599998771
 21
0.0
 31
0.0
  0
LINE
  5
255
330
1D
100
AcDbEntity
  8
NOCUT
100
AcDbLine
 10
33.599998771
 20
0.0
 30
0.0
 11
33.599998771
 21
1.312637575470834
 31
0.0
  0
ARC
  5
256
330
1D
100
AcDbEntity
  8
NOCUT
100
AcDbCircle
 10
38.60611798745312
 20
1.195374024191755
 30
0.0
 40
5.00749242134222
100
AcDbArc
 50
130.5603942873449
 51
178.6581465855402
  0
LINE
  5
25A
330
1D
100
AcDbEntity
  8
NOCUT
100
AcDbLine
 10
35.34999996896714
 20
4.999671041364561
 30
0.0
 11
35.34999996896714
 21
6.151595790502894
 31
0.0
  0
LINE
  5
25C
330
1D
100
AcDbEntity
  8
NOCUT
100
AcDbLine
 10
31.277492611
 20
11.832159947
 30
0.0
 11
29.38444350543761
 21
11.83215994655703
 31
0.0
  0
LINE
  5
25D
330
1D
100
AcDbEntity
  8
NOCUT
100
AcDbLine
 10
29.38444350543761
 20
11.83215994655703
 30
0.0
 11
29.3369488131497
 21
11.83215994655703
 31
0.0
  0
LINE
  5
25E
330
1D
100
AcDbEntity
  8
NOCUT
100
AcDbLine
 10
29.3369488131497
 20
11.83215994655703
 30
0.0
 11
29.28444367510784
 21
11.84862852367808
 31
0.0
  0
LINE
  5
25F
330
1D
100
AcDbEntity
  8
NOCUT
100
AcDbLine
 10
29.28444367510784
 20
11.84862852367808
 30
0.0
 11
29.28444367510784
 21
11.97791326197196
 31
0.0
  0
LINE
  5
260
330
1D
100
AcDbEntity
  8
NOCUT
100
AcDbLine
 10
29.28444367510784
 20
11.97791326197196
 30
0.0
 11
29.24429683334136
 21
11.98820641022117
 31
0.0
  0
LINE
  5
261
330
1D
100
AcDbEntity
  8
NOCUT
100
AcDbLine
 10
29.24429683334136
 20
11.98820641022117
 30
0.0
 11
29.204688935
 21
11.999582875
 31
0.0
  0
LINE
  5
262
330
1D
100
AcDbEntity
  8
NOCUT
100
AcDbLine
 10
29.204688935
 20
11.999582875
 30
0.0
 11
21.39805457079772
 21
11.99335470185385
 31
0.0
  0
LINE
  5
263
330
1D
100
AcDbEntity
  8
NOCUT
100
AcDbLine
 10
21.39805457079772
 20
11.99335470185385
 30
0.0
 11
21.391113879
 21
12.000000104
 31
0.0
  0
LINE
  5
264
330
1D
100
AcDbEntity
  8
NOCUT
100
AcDbLine
 10
21.391113879
 20
12.000000104
 30
0.0
 11
0.750000007
 21
12.000000104
 31
0.0
  0
LINE
  5
265
330
1D
100
AcDbEntity
  8
NOCUT
100
AcDbLine
 10
0.750000007
 20
12.000000104
 30
0.0
 11
0.0
 21
11.250000447
 31
0.0
  0
LINE
  5
266
330
1D
100
AcDbEntity
  8
NOCUT
100
AcDbLine
 10
0.0
 20
11.250000447
 30
0.0
 11
0.0
 21
0.0
 31
0.0
  0
LWPOLYLINE
  5
275
330
1D
100
AcDbEntity
  8
INFTOTAL
100
AcDbPolyline
 90
        4
 70
     1
 43
0.0
 10
61.94911717055381
 20
45.88735712450534
 10
61.94911717055381
 20
-35.99836059418901
 10
-48.0983553191201
 20
-35.99836059418901
 10
-48.0983553191201
 20
45.88735712450534
  0
LINE
  5
27D
330
1D
100
AcDbEntity
  8
SK4
100
AcDbLine
 10
-17.618887607
 20
0.0
 30
0.0
 11
35.364277188
 21
0.0
 31
0.0
  0
LINE
  5
280
330
1D
100
AcDbEntity
  8
SK3
100
AcDbLine
 10
-0.243220228
 20
3.5
 30
0.0
 11
0.0
 21
3.594281036223252
 31
0.0
  0
LINE
  5
281
330
1D
100
AcDbEntity
  8
SK3
100
AcDbLine
 10
-0.243220599
 20
-3.5
 30
0.0
 11
-0.0000000000000002
 21
-3.594281178191447
 31
0.0
  0
LINE
  5
283
330
1D
100
AcDbEntity
  8
3
100
AcDbLine
 10
0.0
 20
-3.5
 30
0.0
 11
1.500000013
 21
-3.500049934
 31
0.0
  0
LINE
  5
284
330
1D
100
AcDbEntity
  8
3
100
AcDbLine
 10
1.500018188
 20
3.5
 30
0.0
 11
0.0
 21
3.5
 31
0.0
  0
LINE
  5
30F
330
1D
100
AcDbEntity
  8
NOCUT
100
AcDbLine
 10
35.349998592
 20
6.152132529
 30
0.0
 11
35.099999969
 21
6.464382307
 31
0.0
  0
LINE
  5
310
330
1D
100
AcDbEntity
  8
NOCUT
100
AcDbLine
 10
35.099999969
 20
6.464382307
 30
0.0
 11
35.099999969
 21
12.100000003
 31
0.0
  0
LINE
  5
311
330
1D
100
AcDbEntity
  8
NOCUT
100
AcDbLine
 10
35.099999969
 20
12.100000003
 30
0.0
 11
31.277492611
 21
11.832159947
 31
0.0
  0
LINE
  5
34E
330
1D
100
AcDbEntity
  8
SK4
100
AcDbLine
 10
0.212606816999994
 20
2.336066848
 30
0.0
 11
22.241628228
 21
10.875319524
 31
0.0
  0
LINE
  5
34F
330
1D
100
AcDbEntity
  8
SK4
100
AcDbLine
 10
0.212606816999994
 20
-2.336066848
 30
0.0
 11
22.241628228
 21
-10.875319524
 31
0.0
  0
LINE
  5
356
330
1D
100
AcDbEntity
  8
SK1
100
AcDbLine
 10
-0.0000005830479033
 20
6.900020162725978
 30
0.0
 11
0.0000070469520966
 21
-6.900035420725978
 31
0.0
  0
ARC
  5
35B
330
1D
100
AcDbEntity
  8
CUT
100
AcDbCircle
 10
29.549999969
 20
5.485767564
 30
0.0
 40
0.4
100
AcDbArc
 50
180.0
 51
279.9999739270004
  0
ARC
  5
35C
330
1D
100
AcDbEntity
  8
CUT
100
AcDbCircle
 10
35.099999969
 20
6.464382307
 30
0.0
 40
0.4
100
AcDbArc
 50
279.9999999999985
 51
359.999980577
  0
LINE
  5
35D
330
1D
100
AcDbEntity
  8
CUT
100
AcDbLine
 10
35.50000113099999
 20
6.464382171
 30
0.0
 11
35.499999969
 21
12.100000003
 31
0.0
  0
ARC
  5
35E
330
1D
100
AcDbEntity
  8
CUT
100
AcDbCircle
 10
35.099999969
 20
12.100000003
 30
0.0
 40
0.4
100
AcDbArc
 50
0.0
 51
99.99999999999852
  0
LINE
  5
362
330
1D
100
AcDbEntity
  8
CUT
100
AcDbLine
 10
29.48054069793322
 20
11.51530836120488
 30
0.0
 11
31.277492611
 21
11.832159947
 31
0.0
  0
LINE
  5
365
330
1D
100
AcDbEntity
  8
CUT
100
AcDbLine
 10
35.16945924006676
 20
6.070459205795117
 30
0.0
 11
31.60134327199999
 21
5.441303834
 31
0.0
  0
LINE
  5
366
330
1D
100
AcDbEntity
  8
CUT
100
AcDbLine
 10
29.149999811
 20
7.498224269
 30
0.0
 11
29.149999811
 21
11.13382592046673
 31
0.0
  0
LINE
  5
367
330
1D
100
AcDbEntity
  8
CUT
100
AcDbLine
 10
35.03054069793323
 20
12.49392310420488
 30
0.0
 11
29.48054069793322
 21
11.51530836120488
 31
0.0
  0
LINE
  5
368
330
1D
100
AcDbEntity
  8
CUT
100
AcDbLine
 10
35.16945924006676
 20
6.070459205795117
 30
0.0
 11
29.61945906080824
 21
5.091844431187043
 31
0.0
  0
ARC
  5
369
330
1D
100
AcDbEntity
  8
CUT
100
AcDbCircle
 10
29.549999969
 20
11.12138526
 30
0.0
 40
0.400000000000003
100
AcDbArc
 50
100.0000000000005
 51
180.0000654749997
  0
LINE
  5
36A
330
1D
100
AcDbEntity
  8
CUT
100
AcDbLine
 10
29.14999996899999
 20
5.485767564
 30
0.0
 11
29.14999996900026
 21
11.12138480289827
 31
0.0
  0
CIRCLE
  5
36B
330
1D
100
AcDbEntity
  8
1
100
AcDbCircle
 10
32.19399996899999
 20
8.636883783
 30
0.0
 40
1.6
  0
HATCH
  5
370
330
1D
100
AcDbEntity
  8
7
100
AcDbHatch
 10
0.0
 20
0.0
 30
0.0
210
0.0
220
0.0
230
1.0
  2
ANSI37
 70
     0
 71
     0
 91
        2
 92
        7
 72
     1
 73
     1
 93
        8
 10
35.50000025949997
 20
6.464382171301409
 42
0.0
 10
35.49999996899999
 20
12.10000005798361
 42
0.4663076163202944
 10
35.03054069793009
 20
12.49392310420433
 42
0.0
 10
29.48054069793008
 20
11.51530836120433
 42
0.363970342109396
 10
29.14999996900026
 20
11.12138510763279
 42
0.0
 10
29.14999996899998
 20
5.485767564
 42
0.4663076119899757
 10
29.61945918031704
 20
5.091844452259671
 42
0.0
 10
35.16945924006988
 20
6.070459205795666
 42
0.3639695732950505
 97
        0
 92
       22
 72
     1
 73
     1
 93
        2
 10
30.593999969
 20
8.636883783
 42
-1.0
 10
33.79399996899998
 20
8.636883783
 42
-1.0
 97
        0
 75
     0
 76
     1
 52
90.0
 41
5.0
 77
     0
 78
     2
 53
135.0
 43
-38.97458123989738
 44
-0.9075771014996175
 45
-0.4419417382415922
 46
-0.4419417382415922
 79
     0
 53
225.0
 43
-38.97458123989738
 44
-0.9075771014996175
 45
0.4419417382415922
 46
-0.4419417382415923
 79
     0
 47
0.0
 98
        2
 10
32.99692374133632
 20
10.72101995372314
 10
32.99692374133632
 20
10.72101995372314
1001
ACAD
1010
0.0
1020
0.0
1030
0.0
1001
PE_URL
1000

  0
ENDSEC
  0
SECTION
  2
OBJECTS
  0
DICTIONARY
  5
C
330
0
100
AcDbDictionary
281
     1
  3
ACAD_COLOR
350
33F
  3
ACAD_DETAILVIEWSTYLE
350
279
  3
ACAD_GROUP
350
D
  3
ACAD_LAYOUT
350
1A
  3
ACAD_MATERIAL
350
1D6
  3
ACAD_MLEADERSTYLE
350
1E4
  3
ACAD_MLINESTYLE
350
17
  3
ACAD_PLOTSETTINGS
350
19
  3
ACAD_PLOTSTYLENAME
350
E
  3
ACAD_SCALELIST
350
19F
  3
ACAD_SECTIONVIEWSTYLE
350
27A
  3
ACAD_TABLESTYLE
350
22D
  3
ACAD_VISUALSTYLE
350
1C5
  3
ACDB_RECOMPOSE_DATA
350
37D
  3
AcDbVariableDictionary
350
1E2
  3
APPDATA
350
230
  0
SUN
  5
27B
330
198
100
AcDbSun
 90
        1
290
     0
 63
     7
421
 16777215
 40
1.0
291
     1
 91
  2455826
 92
 54000000
292
     0
 70
     2
 71
   256
280
     1
  0
DICTIONARY
  5
231
330
2
100
AcDbDictionary
280
     1
281
     1
  3
ACAD_LAYERSTATES
360
232
  0
DICTIONARY
  5
36E
330
1D
100
AcDbDictionary
280
     1
281
     1
  3
ACAD_SORTENTS
360
36F
  0
DICTIONARY
  5
33F
102
{ACAD_REACTORS
330
C
102
}
330
C
100
AcDbDictionary
281
     1
  0
DICTIONARY
  5
279
102
{ACAD_REACTORS
330
C
102
}
330
C
100
AcDbDictionary
281
     1
  0
DICTIONARY
  5
D
102
{ACAD_REACTORS
330
C
102
}
330
C
100
AcDbDictionary
281
     1
  0
DICTIONARY
  5
1A
102
{ACAD_REACTORS
330
C
102
}
330
C
100
AcDbDictionary
281
     1
  3
Layout1
350
1C
  3
Model
350
1E
  0
DICTIONARY
  5
1D6
102
{ACAD_REACTORS
330
C
102
}
330
C
100
AcDbDictionary
281
     1
  3
ByBlock
350
1D8
  3
ByLayer
350
1D7
  3
Global
350
1D9
  0
DICTIONARY
  5
1E4
102
{ACAD_REACTORS
330
C
102
}
330
C
100
AcDbDictionary
281
     1
  3
Standard
350
22F
  0
DICTIONARY
  5
17
102
{ACAD_REACTORS
330
C
102
}
330
C
100
AcDbDictionary
281
     1
  3
Standard
350
18
  0
DICTIONARY
  5
19
102
{ACAD_REACTORS
330
C
102
}
330
C
100
AcDbDictionary
281
     1
  0
ACDBDICTIONARYWDFLT
  5
E
102
{ACAD_REACTORS
330
C
102
}
330
C
100
AcDbDictionary
281
     1
  3
Normal
350
F
100
AcDbDictionaryWithDefault
340
F
  0
DICTIONARY
  5
19F
102
{ACAD_REACTORS
330
C
102
}
330
C
100
AcDbDictionary
281
     1
  3
A0
350
1A0
  3
A1
350
1A1
  3
A2
350
1A2
  3
A3
350
1A3
  3
A4
350
1A4
  3
A5
350
1A5
  3
A6
350
1A6
  3
A7
350
1A7
  3
A8
350
1A8
  3
A9
350
1A9
  3
B0
350
1AA
  3
B1
350
1AB
  3
B2
350
1AC
  3
B3
350
1AD
  3
B4
350
1AE
  3
B5
350
1AF
  3
B6
350
1B0
  3
B7
350
1B1
  3
B8
350
1B2
  3
B9
350
1B3
  3
C0
350
1B4
  3
C1
350
1B5
  3
C2
350
1B6
  3
C3
350
1B7
  3
C4
350
1B8
  3
C5
350
1B9
  3
C6
350
1BA
  3
C7
350
1BB
  3
C8
350
1BC
  3
C9
350
1BD
  3
D0
350
1BE
  3
D1
350
1BF
  3
D2
350
1C0
  0
DICTIONARY
  5
27A
102
{ACAD_REACTORS
330
C
102
}
330
C
100
AcDbDictionary
281
     1
  0
DICTIONARY
  5
22D
102
{ACAD_REACTORS
330
C
102
}
330
C
100
AcDbDictionary
281
     1
  3
Standard
350
22E
  0
DICTIONARY
  5
1C5
102
{ACAD_REACTORS
330
C
102
}
330
C
100
AcDbDictionary
281
     1
  3
2dWireframe
350
1CA
  3
3D Hidden
350
1CC
  3
3dWireframe
350
1CB
  3
Basic
350
1CD
  3
Brighten
350
1D1
  3
ColorChange
350
1D5
  3
Conceptual
350
1CF
  3
Dim
350
1D0
  3
EdgeColorOff
350
227
  3
Facepattern
350
1D4
  3
Flat
350
1C6
  3
FlatWithEdges
350
1C7
  3
Gouraud
350
1C8
  3
GouraudWithEdges
350
1C9
  3
Hidden
350
224
  3
JitterOff
350
225
  3
Linepattern
350
1D3
  3
OverhangOff
350
226
  3
Realistic
350
1CE
  3
Shaded
350
22C
  3
Shaded with edges
350
22B
  3
Shades of Gray
350
228
  3
Sketchy
350
229
  3
Thicken
350
1D2
  3
Wireframe
350
223
  3
X-Ray
350
22A
  0
XRECORD
  5
37D
102
{ACAD_REACTORS
330
C
102
}
330
C
100
AcDbXrecord
280
     1
 90
        1
330
22E
  0
DICTIONARY
  5
1E2
102
{ACAD_REACTORS
330
C
102
}
330
C
100
AcDbDictionary
281
     1
  3
CANNOSCALE
350
276
  3
CMLEADERSTYLE
350
278
  3
CTABLESTYLE
350
277
  3
DIMASSOC
350
1E6
  3
HIDETEXT
350
1E7
  3
MSLTSCALE
350
1E5
  0
DICTIONARY
  5
230
102
{ACAD_REACTORS
330
C
102
}
330
C
100
AcDbDictionary
281
     1
  0
DICTIONARY
  5
232
102
{ACAD_REACTORS
330
231
102
}
330
231
100
AcDbDictionary
281
     1
  0
SORTENTSTABLE
  5
36F
102
{ACAD_REACTORS
330
36E
102
}
330
36E
100
AcDbSortentsTable
330
1D
331
35B
  5
35D
331
35C
  5
35E
331
35D
  5
35F
331
35E
  5
360
331
0
  5
361
331
0
  5
362
331
0
  5
363
331
362
  5
364
331
0
  5
365
331
0
  5
366
331
365
  5
367
331
366
  5
368
331
367
  5
369
331
368
  5
36A
331
369
  5
36B
331
36A
  5
36D
331
36B
  5
370
331
0
  5
35B
331
370
  5
35C
  0
LAYOUT
  5
1C
102
{ACAD_REACTORS
330
1A
102
}
330
1A
100
AcDbPlotSettings
  1

  2
none_device
  4

  6

 40
0.0
 41
0.0
 42
0.0
 43
0.0
 44
0.0
 45
0.0
 46
0.0
 47
0.0
 48
0.0
 49
0.0
140
0.0
141
0.0
142
1.0
143
1.0
 70
   688
 72
     0
 73
     0
 74
     5
  7

 75
    16
 76
     0
 77
     2
 78
   300
147
1.0
148
0.0
149
0.0
100
AcDbLayout
  1
Layout1
 70
     1
 71
     1
 10
0.0
 20
0.0
 11
12.0
 21
9.0
 12
0.0
 22
0.0
 32
0.0
 14
1.000000000000000E+20
 24
1.000000000000000E+20
 34
1.000000000000000E+20
 15
-1.000000000000000E+20
 25
-1.000000000000000E+20
 35
-1.000000000000000E+20
146
0.0
 13
0.0
 23
0.0
 33
0.0
 16
1.0
 26
0.0
 36
0.0
 17
0.0
 27
1.0
 37
0.0
 76
     0
330
1B
  0
LAYOUT
  5
1E
102
{ACAD_REACTORS
330
1A
102
}
330
1A
100
AcDbPlotSettings
  1

  2
none_device
  4

  6

 40
0.0
 41
0.0
 42
0.0
 43
0.0
 44
0.0
 45
0.0
 46
0.0
 47
0.0
 48
0.0
 49
0.0
140
0.0
141
0.0
142
1.0
143
1.0
 70
  1712
 72
     0
 73
     0
 74
     0
  7

 75
     0
 76
     0
 77
     2
 78
   300
147
1.0
148
0.0
149
0.0
100
AcDbLayout
  1
Model
 70
     1
 71
     0
 10
0.0
 20
0.0
 11
12.0
 21
9.0
 12
0.0
 22
0.0
 32
0.0
 14
-48.0983553191201
 24
-35.99836059418901
 34
0.0
 15
61.94911717055381
 25
45.88735712450534
 35
0.0
146
0.0
 13
0.0
 23
0.0
 33
0.0
 16
1.0
 26
0.0
 36
0.0
 17
0.0
 27
1.0
 37
0.0
 76
     0
330
1D
331
198
  0
MATERIAL
  5
1D8
102
{ACAD_REACTORS
330
1D6
102
}
330
1D6
100
AcDbMaterial
  1
ByBlock
 72
     1
 94
      127
  0
MATERIAL
  5
1D7
102
{ACAD_REACTORS
330
1D6
102
}
330
1D6
100
AcDbMaterial
  1
ByLayer
 72
     1
 94
      127
  0
MATERIAL
  5
1D9
102
{ACAD_REACTORS
330
1D6
102
}
330
1D6
100
AcDbMaterial
  1
Global
 72
     1
 94
      127
  0
MLEADERSTYLE
  5
22F
102
{ACAD_REACTORS
330
1E4
102
}
330
1E4
100
AcDbMLeaderStyle
179
     2
170
     2
171
     1
172
     0
 90
        2
 40
0.0
 41
0.0
173
     1
 91
-1056964608
340
14
 92
       -2
290
     1
 42
0.09
291
     1
 43
0.36
  3
Standard
341
0
 44
0.18
300

342
11
174
     1
178
     1
175
     1
176
     0
 93
-1056964608
 45
0.18
292
     0
297
     0
 46
0.18
343
0
 94
-1056964608
 47
1.0
 49
1.0
140
1.0
293
     1
141
0.0
294
     1
177
     0
142
1.0
295
     0
296
     0
143
0.125
271
     0
272
     9
273
     9
298
     0
  0
MLINESTYLE
  5
18
102
{ACAD_REACTORS
330
17
102
}
330
17
100
AcDbMlineStyle
  2
Standard
 70
     0
  3

 62
   256
 51
90.0
 52
90.0
 71
     2
 49
0.5
 62
   256
  6
BYLAYER
 49
-0.5
 62
   256
  6
BYLAYER
  0
ACDBPLACEHOLDER
  5
F
102
{ACAD_REACTORS
330
E
102
}
330
E
  0
SCALE
  5
1A0
102
{ACAD_REACTORS
330
19F
102
}
330
19F
100
AcDbScale
 70
     0
300
1:1
140
1.0
141
1.0
290
     1
  0
SCALE
  5
1A1
102
{ACAD_REACTORS
330
19F
102
}
330
19F
100
AcDbScale
 70
     0
300
1:2
140
1.0
141
2.0
290
     0
  0
SCALE
  5
1A2
102
{ACAD_REACTORS
330
19F
102
}
330
19F
100
AcDbScale
 70
     0
300
1:4
140
1.0
141
4.0
290
     0
  0
SCALE
  5
1A3
102
{ACAD_REACTORS
330
19F
102
}
330
19F
100
AcDbScale
 70
     0
300
1:5
140
1.0
141
5.0
290
     0
  0
SCALE
  5
1A4
102
{ACAD_REACTORS
330
19F
102
}
330
19F
100
AcDbScale
 70
     0
300
1:8
140
1.0
141
8.0
290
     0
  0
SCALE
  5
1A5
102
{ACAD_REACTORS
330
19F
102
}
330
19F
100
AcDbScale
 70
     0
300
1:10
140
1.0
141
10.0
290
     0
  0
SCALE
  5
1A6
102
{ACAD_REACTORS
330
19F
102
}
330
19F
100
AcDbScale
 70
     0
300
1:16
140
1.0
141
16.0
290
     0
  0
SCALE
  5
1A7
102
{ACAD_REACTORS
330
19F
102
}
330
19F
100
AcDbScale
 70
     0
300
1:20
140
1.0
141
20.0
290
     0
  0
SCALE
  5
1A8
102
{ACAD_REACTORS
330
19F
102
}
330
19F
100
AcDbScale
 70
     0
300
1:30
140
1.0
141
30.0
290
     0
  0
SCALE
  5
1A9
102
{ACAD_REACTORS
330
19F
102
}
330
19F
100
AcDbScale
 70
     0
300
1:40
140
1.0
141
40.0
290
     0
  0
SCALE
  5
1AA
102
{ACAD_REACTORS
330
19F
102
}
330
19F
100
AcDbScale
 70
     0
300
1:50
140
1.0
141
50.0
290
     0
  0
SCALE
  5
1AB
102
{ACAD_REACTORS
330
19F
102
}
330
19F
100
AcDbScale
 70
     0
300
1:100
140
1.0
141
100.0
290
     0
  0
SCALE
  5
1AC
102
{ACAD_REACTORS
330
19F
102
}
330
19F
100
AcDbScale
 70
     0
300
2:1
140
2.0
141
1.0
290
     0
  0
SCALE
  5
1AD
102
{ACAD_REACTORS
330
19F
102
}
330
19F
100
AcDbScale
 70
     0
300
4:1
140
4.0
141
1.0
290
     0
  0
SCALE
  5
1AE
102
{ACAD_REACTORS
330
19F
102
}
330
19F
100
AcDbScale
 70
     0
300
8:1
140
8.0
141
1.0
290
     0
  0
SCALE
  5
1AF
102
{ACAD_REACTORS
330
19F
102
}
330
19F
100
AcDbScale
 70
     0
300
10:1
140
10.0
141
1.0
290
     0
  0
SCALE
  5
1B0
102
{ACAD_REACTORS
330
19F
102
}
330
19F
100
AcDbScale
 70
     0
300
100:1
140
100.0
141
1.0
290
     0
  0
SCALE
  5
1B1
102
{ACAD_REACTORS
330
19F
102
}
330
19F
100
AcDbScale
 70
     0
300
1/128" = 1'-0"
140
0.0078125
141
12.0
290
     0
  0
SCALE
  5
1B2
102
{ACAD_REACTORS
330
19F
102
}
330
19F
100
AcDbScale
 70
     0
300
1/64" = 1'-0"
140
0.015625
141
12.0
290
     0
  0
SCALE
  5
1B3
102
{ACAD_REACTORS
330
19F
102
}
330
19F
100
AcDbScale
 70
     0
300
1/32" = 1'-0"
140
0.03125
141
12.0
290
     0
  0
SCALE
  5
1B4
102
{ACAD_REACTORS
330
19F
102
}
330
19F
100
AcDbScale
 70
     0
300
1/16" = 1'-0"
140
0.0625
141
12.0
290
     0
  0
SCALE
  5
1B5
102
{ACAD_REACTORS
330
19F
102
}
330
19F
100
AcDbScale
 70
     0
300
3/32" = 1'-0"
140
0.09375
141
12.0
290
     0
  0
SCALE
  5
1B6
102
{ACAD_REACTORS
330
19F
102
}
330
19F
100
AcDbScale
 70
     0
300
1/8" = 1'-0"
140
0.125
141
12.0
290
     0
  0
SCALE
  5
1B7
102
{ACAD_REACTORS
330
19F
102
}
330
19F
100
AcDbScale
 70
     0
300
3/16" = 1'-0"
140
0.1875
141
12.0
290
     0
  0
SCALE
  5
1B8
102
{ACAD_REACTORS
330
19F
102
}
330
19F
100
AcDbScale
 70
     0
300
1/4" = 1'-0"
140
0.25
141
12.0
290
     0
  0
SCALE
  5
1B9
102
{ACAD_REACTORS
330
19F
102
}
330
19F
100
AcDbScale
 70
     0
300
3/8" = 1'-0"
140
0.375
141
12.0
290
     0
  0
SCALE
  5
1BA
102
{ACAD_REACTORS
330
19F
102
}
330
19F
100
AcDbScale
 70
     0
300
1/2" = 1'-0"
140
0.5
141
12.0
290
     0
  0
SCALE
  5
1BB
102
{ACAD_REACTORS
330
19F
102
}
330
19F
100
AcDbScale
 70
     0
300
3/4" = 1'-0"
140
0.75
141
12.0
290
     0
  0
SCALE
  5
1BC
102
{ACAD_REACTORS
330
19F
102
}
330
19F
100
AcDbScale
 70
     0
300
1" = 1'-0"
140
1.0
141
12.0
290
     0
  0
SCALE
  5
1BD
102
{ACAD_REACTORS
330
19F
102
}
330
19F
100
AcDbScale
 70
     0
300
1-1/2" = 1'-0"
140
1.5
141
12.0
290
     0
  0
SCALE
  5
1BE
102
{ACAD_REACTORS
330
19F
102
}
330
19F
100
AcDbScale
 70
     0
300
3" = 1'-0"
140
3.0
141
12.0
290
     0
  0
SCALE
  5
1BF
102
{ACAD_REACTORS
330
19F
102
}
330
19F
100
AcDbScale
 70
     0
300
6" = 1'-0"
140
6.0
141
12.0
290
     0
  0
SCALE
  5
1C0
102
{ACAD_REACTORS
330
19F
102
}
330
19F
100
AcDbScale
 70
     0
300
1'-0" = 1'-0"
140
12.0
141
12.0
290
     0
  0
TABLESTYLE
  5
22E
102
{ACAD_REACTORS
330
22D
102
}
102
{ACAD_XDICTIONARY
360
37B
102
}
330
22D
100
AcDbTableStyle
  3
Standard
 70
     0
 71
     0
 40
0.06
 41
0.06
280
     0
281
     0
  7
Standard
140
0.18
170
     2
 62
     0
 63
   257
283
     0
 90
        4
 91
        0
  1

274
    -2
284
     1
 64
     0
275
    -2
285
     1
 65
     0
276
    -2
286
     1
 66
     0
277
    -2
287
     1
 67
     0
278
    -2
288
     1
 68
     0
279
    -2
289
     1
 69
     0
  7
Standard
140
0.25
170
     5
 62
     0
 63
   257
283
     0
 90
        4
 91
        0
  1

274
    -2
284
     1
 64
     0
275
    -2
285
     1
 65
     0
276
    -2
286
     1
 66
     0
277
    -2
287
     1
 67
     0
278
    -2
288
     1
 68
     0
279
    -2
289
     1
 69
     0
  7
Standard
140
0.18
170
     5
 62
     0
 63
   257
283
     0
 90
        4
 91
        0
  1

274
    -2
284
     1
 64
     0
275
    -2
285
     1
 65
     0
276
    -2
286
     1
 66
     0
277
    -2
287
     1
 67
     0
278
    -2
288
     1
 68
     0
279
    -2
289
     1
 69
     0
  0
VISUALSTYLE
  5
1CA
102
{ACAD_REACTORS
330
1C5
102
}
330
1C5
100
AcDbVisualStyle
  2
2dWireframe
 70
     4
177
     3
291
     0
 70
    58
 90
        0
176
     1
 90
        2
176
     1
 90
        0
176
     1
 90
        0
176
     1
 40
-0.6
176
     1
 40
-30.0
176
     1
 62
     7
176
     1
 90
        1
176
     1
 90
        4
176
     1
 62
     7
176
     1
 62
   257
176
     1
 90
        1
176
     1
 90
        1
176
     1
 40
1.0
176
     1
 90
        0
176
     1
 62
   257
176
     1
 40
1.0
176
     1
 90
        1
176
     1
 90
        6
176
     1
 90
        2
176
     1
 62
     7
176
     1
 90
        5
176
     1
 90
        0
176
     1
 90
        0
176
     1
290
     0
176
     1
 90
        1
176
     1
 40
0.0
176
     1
 90
        0
176
     1
290
     1
176
     1
290
     1
176
     1
290
     0
176
     1
290
     0
176
     1
290
     0
176
     1
290
     0
176
     1
290
     0
176
     1
290
     0
176
     1
290
     0
176
     1
 90
       50
176
     1
 40
0.0
176
     1
 40
1.0
176
     1
 90
        0
176
     1
 62
    18
420
        0
176
     1
 90
       50
176
     1
 90
        3
176
     1
 62
     5
420
      255
176
     1
290
     0
176
     1
 90
       50
176
     1
 90
       50
176
     1
 90
       50
176
     1
290
     0
176
     1
 90
       50
176
     1
 62
   256
176
     0
 40
1.0
176
     0
 90
        2
176
     1
  1
strokes_ogs.tif
176
     1
290
     0
176
     1
 40
1.0
176
     1
 40
1.0
176
     1
  0
VISUALSTYLE
  5
1CC
102
{ACAD_REACTORS
330
1C5
102
}
330
1C5
100
AcDbVisualStyle
  2
3D Hidden
 70
     6
177
     3
291
     0
 70
    58
 90
        1
176
     1
 90
        2
176
     1
 90
        2
176
     1
 90
        0
176
     1
 40
-0.6
176
     1
 40
-30.0
176
     1
 62
     7
176
     1
 90
        2
176
     1
 90
        2
176
     1
 62
     7
176
     1
 62
   257
176
     1
 90
        2
176
     1
 90
        1
176
     1
 40
40.0
176
     1
 90
        0
176
     1
 62
   257
176
     1
 40
1.0
176
     1
 90
        1
176
     1
 90
        6
176
     1
 90
        2
176
     1
 62
     7
176
     1
 90
        3
176
     1
 90
        0
176
     1
 90
        0
176
     1
290
     0
176
     1
 90
        1
176
     1
 40
0.0
176
     1
 90
        0
176
     1
290
     0
176
     1
290
     1
176
     1
290
     1
176
     1
290
     0
176
     1
290
     0
176
     1
290
     0
176
     1
290
     0
176
     1
290
     0
176
     1
290
     0
176
     1
 90
       50
176
     1
 40
0.0
176
     1
 40
1.0
176
     1
 90
        0
176
     1
 62
    18
420
        0
176
     1
 90
       50
176
     1
 90
        3
176
     1
 62
     5
420
      255
176
     1
290
     0
176
     1
 90
       50
176
     1
 90
       50
176
     1
 90
       50
176
     1
290
     0
176
     1
 90
       50
176
     1
 62
   256
176
     0
 40
1.0
176
     0
 90
        2
176
     1
  1
strokes_ogs.tif
176
     1
290
     0
176
     1
 40
1.0
176
     1
 40
1.0
176
     1
  0
VISUALSTYLE
  5
1CB
102
{ACAD_REACTORS
330
1C5
102
}
330
1C5
100
AcDbVisualStyle
  2
3dWireframe
 70
     5
177
     3
291
     0
 70
    58
 90
        0
176
     1
 90
        2
176
     1
 90
        0
176
     1
 90
        0
176
     1
 40
-0.6
176
     1
 40
-30.0
176
     1
 62
     7
176
     1
 90
        1
176
     1
 90
        4
176
     1
 62
     7
176
     1
 62
   257
176
     1
 90
        1
176
     1
 90
        1
176
     1
 40
1.0
176
     1
 90
        0
176
     1
 62
   257
176
     1
 40
1.0
176
     1
 90
        1
176
     1
 90
        6
176
     1
 90
        2
176
     1
 62
     7
176
     1
 90
        5
176
     1
 90
        0
176
     1
 90
        0
176
     1
290
     0
176
     1
 90
        1
176
     1
 40
0.0
176
     1
 90
        0
176
     1
290
     0
176
     1
290
     1
176
     1
290
     1
176
     1
290
     0
176
     1
290
     0
176
     1
290
     0
176
     1
290
     0
176
     1
290
     0
176
     1
290
     0
176
     1
 90
       50
176
     1
 40
0.0
176
     1
 40
1.0
176
     1
 90
        0
176
     1
 62
    18
420
        0
176
     1
 90
       50
176
     1
 90
        3
176
     1
 62
     5
420
      255
176
     1
290
     0
176
     1
 90
       50
176
     1
 90
       50
176
     1
 90
       50
176
     1
290
     0
176
     1
 90
       50
176
     1
 62
   256
176
     0
 40
1.0
176
     0
 90
        2
176
     1
  1
strokes_ogs.tif
176
     1
290
     0
176
     1
 40
1.0
176
     1
 40
1.0
176
     1
  0
VISUALSTYLE
  5
1CD
102
{ACAD_REACTORS
330
1C5
102
}
330
1C5
100
AcDbVisualStyle
  2
Basic
 70
     7
177
     3
291
     1
 70
    58
 90
        1
176
     1
 90
        0
176
     1
 90
        1
176
     1
 90
        0
176
     1
 40
-0.6
176
     1
 40
-30.0
176
     1
 62
     7
176
     1
 90
        0
176
     1
 90
        4
176
     1
 62
     7
176
     1
 62
   257
176
     1
 90
        1
176
     1
 90
        1
176
     1
 40
1.0
176
     1
 90
        8
176
     1
 62
     7
176
     1
 40
1.0
176
     1
 90
        1
176
     1
 90
        6
176
     1
 90
        2
176
     1
 62
     7
176
     1
 90
        5
176
     1
 90
        0
176
     1
 90
        0
176
     1
290
     0
176
     1
 90
        1
176
     1
 40
0.0
176
     1
 90
        0
176
     1
290
     0
176
     1
290
     1
176
     1
290
     1
176
     1
290
     0
176
     1
290
     0
176
     1
290
     0
176
     1
290
     0
176
     1
290
     0
176
     1
290
     0
176
     1
 90
       50
176
     1
 40
0.0
176
     1
 40
1.0
176
     1
 90
        0
176
     1
 62
    18
420
        0
176
     1
 90
       50
176
     1
 90
        3
176
     1
 62
     5
420
      255
176
     1
290
     0
176
     1
 90
       50
176
     1
 90
       50
176
     1
 90
       50
176
     1
290
     0
176
     1
 90
       50
176
     1
 62
   256
176
     0
 40
1.0
176
     0
 90
        2
176
     1
  1
strokes_ogs.tif
176
     1
290
     0
176
     1
 40
1.0
176
     1
 40
1.0
176
     1
  0
VISUALSTYLE
  5
1D1
102
{ACAD_REACTORS
330
1C5
102
}
330
1C5
100
AcDbVisualStyle
  2
Brighten
 70
    12
177
     3
291
     1
 70
    58
 90
        2
176
     1
 90
        2
176
     1
 90
        0
176
     1
 90
        0
176
     1
 40
-0.6
176
     1
 40
-30.0
176
     1
 62
     7
176
     1
 90
        1
176
     1
 90
        4
176
     1
 62
     7
176
     1
 62
   257
176
     1
 90
        1
176
     1
 90
        1
176
     1
 40
1.0
176
     1
 90
        8
176
     1
 62
     7
176
     1
 40
1.0
176
     1
 90
        1
176
     1
 90
        6
176
     1
 90
        2
176
     1
 62
     7
176
     1
 90
        5
176
     1
 90
        0
176
     1
 90
        0
176
     1
290
     0
176
     1
 90
        1
176
     1
 40
50.0
176
     1
 90
        0
176
     1
290
     0
176
     1
290
     1
176
     1
290
     1
176
     1
290
     0
176
     1
290
     0
176
     1
290
     0
176
     1
290
     0
176
     1
290
     0
176
     1
290
     0
176
     1
 90
       50
176
     1
 40
0.0
176
     1
 40
1.0
176
     1
 90
        0
176
     1
 62
    18
420
        0
176
     1
 90
       50
176
     1
 90
        3
176
     1
 62
     5
420
      255
176
     1
290
     0
176
     1
 90
       50
176
     1
 90
       50
176
     1
 90
       50
176
     1
290
     0
176
     1
 90
       50
176
     1
 62
   256
176
     0
 40
1.0
176
     0
 90
        2
176
     1
  1
strokes_ogs.tif
176
     1
290
     0
176
     1
 40
1.0
176
     1
 40
1.0
176
     1
  0
VISUALSTYLE
  5
1D5
102
{ACAD_REACTORS
330
1C5
102
}
330
1C5
100
AcDbVisualStyle
  2
ColorChange
 70
    16
177
     3
291
     1
 70
    58
 90
        2
176
     1
 90
        2
176
     1
 90
        3
176
     1
 90
        0
176
     1
 40
-0.6
176
     1
 40
-30.0
176
     1
 62
     8
176
     1
 90
        1
176
     1
 90
        4
176
     1
 62
     7
176
     1
 62
   257
176
     1
 90
        1
176
     1
 90
        1
176
     1
 40
1.0
176
     1
 90
        8
176
     1
 62
     8
176
     1
 40
1.0
176
     1
 90
        1
176
     1
 90
        6
176
     1
 90
        2
176
     1
 62
     7
176
     1
 90
        5
176
     1
 90
        0
176
     1
 90
        0
176
     1
290
     0
176
     1
 90
        1
176
     1
 40
0.0
176
     1
 90
        0
176
     1
290
     0
176
     1
290
     1
176
     1
290
     1
176
     1
290
     0
176
     1
290
     0
176
     1
290
     0
176
     1
290
     0
176
     1
290
     0
176
     1
290
     0
176
     1
 90
       50
176
     1
 40
0.0
176
     1
 40
1.0
176
     1
 90
        0
176
     1
 62
    18
420
        0
176
     1
 90
       50
176
     1
 90
        3
176
     1
 62
     5
420
      255
176
     1
290
     0
176
     1
 90
       50
176
     1
 90
       50
176
     1
 90
       50
176
     1
290
     0
176
     1
 90
       50
176
     1
 62
   256
176
     0
 40
1.0
176
     0
 90
        2
176
     1
  1
strokes_ogs.tif
176
     1
290
     0
176
     1
 40
1.0
176
     1
 40
1.0
176
     1
  0
VISUALSTYLE
  5
1CF
102
{ACAD_REACTORS
330
1C5
102
}
330
1C5
100
AcDbVisualStyle
  2
Conceptual
 70
     9
177
     3
291
     0
 70
    58
 90
        3
176
     1
 90
        2
176
     1
 90
        0
176
     1
 90
        0
176
     1
 40
-0.6
176
     1
 40
-30.0
176
     1
 62
     7
176
     1
 90
        2
176
     1
 90
        2
176
     1
 62
     7
176
     1
 62
   257
176
     1
 90
        1
176
     1
 90
        1
176
     1
 40
40.0
176
     1
 90
        8
176
     1
 62
     7
176
     1
 40
1.0
176
     1
 90
        1
176
     1
 90
        6
176
     1
 90
        2
176
     1
 62
     7
176
     1
 90
        3
176
     1
 90
        0
176
     1
 90
        0
176
     1
290
     0
176
     1
 90
        1
176
     1
 40
0.0
176
     1
 90
        0
176
     1
290
     0
176
     1
290
     1
176
     1
290
     1
176
     1
290
     0
176
     1
290
     0
176
     1
290
     0
176
     1
290
     0
176
     1
290
     0
176
     1
290
     0
176
     1
 90
       50
176
     1
 40
0.0
176
     1
 40
1.0
176
     1
 90
        0
176
     1
 62
    18
420
        0
176
     1
 90
       50
176
     1
 90
        3
176
     1
 62
     5
420
      255
176
     1
290
     0
176
     1
 90
       50
176
     1
 90
       50
176
     1
 90
       50
176
     1
290
     0
176
     1
 90
       50
176
     1
 62
   256
176
     0
 40
1.0
176
     0
 90
        2
176
     1
  1
strokes_ogs.tif
176
     1
290
     0
176
     1
 40
1.0
176
     1
 40
1.0
176
     1
  0
VISUALSTYLE
  5
1D0
102
{ACAD_REACTORS
330
1C5
102
}
330
1C5
100
AcDbVisualStyle
  2
Dim
 70
    11
177
     3
291
     1
 70
    58
 90
        2
176
     1
 90
        2
176
     1
 90
        0
176
     1
 90
        0
176
     1
 40
-0.6
176
     1
 40
-30.0
176
     1
 62
     7
176
     1
 90
        1
176
     1
 90
        4
176
     1
 62
     7
176
     1
 62
   257
176
     1
 90
        1
176
     1
 90
        1
176
     1
 40
1.0
176
     1
 90
        8
176
     1
 62
     7
176
     1
 40
1.0
176
     1
 90
        1
176
     1
 90
        6
176
     1
 90
        2
176
     1
 62
     7
176
     1
 90
        5
176
     1
 90
        0
176
     1
 90
        0
176
     1
290
     0
176
     1
 90
        1
176
     1
 40
-50.0
176
     1
 90
        0
176
     1
290
     0
176
     1
290
     1
176
     1
290
     1
176
     1
290
     0
176
     1
290
     0
176
     1
290
     0
176
     1
290
     0
176
     1
290
     0
176
     1
290
     0
176
     1
 90
       50
176
     1
 40
0.0
176
     1
 40
1.0
176
     1
 90
        0
176
     1
 62
    18
420
        0
176
     1
 90
       50
176
     1
 90
        3
176
     1
 62
     5
420
      255
176
     1
290
     0
176
     1
 90
       50
176
     1
 90
       50
176
     1
 90
       50
176
     1
290
     0
176
     1
 90
       50
176
     1
 62
   256
176
     0
 40
1.0
176
     0
 90
        2
176
     1
  1
strokes_ogs.tif
176
     1
290
     0
176
     1
 40
1.0
176
     1
 40
1.0
176
     1
  0
VISUALSTYLE
  5
227
102
{ACAD_REACTORS
330
1C5
102
}
330
1C5
100
AcDbVisualStyle
  2
EdgeColorOff
 70
    22
177
     3
291
     1
 70
    58
 90
        2
176
     0
 90
        2
176
     0
 90
        0
176
     0
 90
        0
176
     0
 40
0.6
176
     0
 40
30.0
176
     0
 62
     7
420
 16777215
176
     0
 90
        1
176
     0
 90
        4
176
     0
 62
     7
176
     0
 62
   257
176
     0
 90
        1
176
     0
 90
        1
176
     0
 40
1.0
176
     0
 90
        8
176
     2
 62
     7
176
     0
 40
1.0
176
     0
 90
        1
176
     0
 90
        6
176
     0
 90
        2
176
     0
 62
     7
176
     0
 90
        5
176
     0
 90
        0
176
     0
 90
        0
176
     0
290
     0
176
     0
 90
        1
176
     0
 40
0.0
176
     0
 90
        0
176
     0
290
     0
176
     0
290
     1
176
     0
290
     1
176
     0
290
     0
176
     0
290
     0
176
     0
290
     0
176
     0
290
     0
176
     0
290
     0
176
     0
290
     0
176
     0
 90
       50
176
     0
 40
0.0
176
     0
 40
1.0
176
     0
 90
        0
176
     0
 62
    18
420
        0
176
     0
 90
       50
176
     0
 90
        3
176
     0
 62
     5
420
      255
176
     0
290
     0
176
     0
 90
       50
176
     0
 90
       50
176
     0
 90
       50
176
     0
290
     0
176
     0
 90
       50
176
     0
 62
   256
176
     0
 40
1.0
176
     0
 90
        2
176
     0
  1
strokes_ogs.tif
176
     0
290
     0
176
     0
 40
1.0
176
     0
 40
1.0
176
     0
  0
VISUALSTYLE
  5
1D4
102
{ACAD_REACTORS
330
1C5
102
}
330
1C5
100
AcDbVisualStyle
  2
Facepattern
 70
    15
177
     3
291
     1
 70
    58
 90
        2
176
     1
 90
        2
176
     1
 90
        0
176
     1
 90
        0
176
     1
 40
-0.6
176
     1
 40
-30.0
176
     1
 62
     7
176
     1
 90
        1
176
     1
 90
        4
176
     1
 62
     7
176
     1
 62
   257
176
     1
 90
        1
176
     1
 90
        1
176
     1
 40
1.0
176
     1
 90
        8
176
     1
 62
     7
176
     1
 40
1.0
176
     1
 90
        1
176
     1
 90
        6
176
     1
 90
        2
176
     1
 62
     7
176
     1
 90
        5
176
     1
 90
        0
176
     1
 90
        0
176
     1
290
     0
176
     1
 90
        1
176
     1
 40
0.0
176
     1
 90
        0
176
     1
290
     0
176
     1
290
     1
176
     1
290
     1
176
     1
290
     0
176
     1
290
     0
176
     1
290
     0
176
     1
290
     0
176
     1
290
     0
176
     1
290
     0
176
     1
 90
       50
176
     1
 40
0.0
176
     1
 40
1.0
176
     1
 90
        0
176
     1
 62
    18
420
        0
176
     1
 90
       50
176
     1
 90
        3
176
     1
 62
     5
420
      255
176
     1
290
     0
176
     1
 90
       50
176
     1
 90
       50
176
     1
 90
       50
176
     1
290
     0
176
     1
 90
       50
176
     1
 62
   256
176
     0
 40
1.0
176
     0
 90
        2
176
     1
  1
strokes_ogs.tif
176
     1
290
     0
176
     1
 40
1.0
176
     1
 40
1.0
176
     1
  0
VISUALSTYLE
  5
1C6
102
{ACAD_REACTORS
330
1C5
102
}
330
1C5
100
AcDbVisualStyle
  2
Flat
 70
     0
177
     3
291
     1
 70
    58
 90
        2
176
     1
 90
        1
176
     1
 90
        1
176
     1
 90
        2
176
     1
 40
-0.6
176
     1
 40
30.0
176
     1
 62
     7
176
     1
 90
        0
176
     1
 90
        4
176
     1
 62
     7
176
     1
 62
   257
176
     1
 90
        1
176
     1
 90
        1
176
     1
 40
1.0
176
     1
 90
        8
176
     1
 62
     7
176
     1
 40
1.0
176
     1
 90
        1
176
     1
 90
        6
176
     1
 90
        2
176
     1
 62
     7
176
     1
 90
        5
176
     1
 90
        0
176
     1
 90
        0
176
     1
290
     0
176
     1
 90
       13
176
     1
 40
0.0
176
     1
 90
        0
176
     1
290
     0
176
     1
290
     1
176
     1
290
     1
176
     1
290
     0
176
     1
290
     0
176
     1
290
     0
176
     1
290
     0
176
     1
290
     0
176
     1
290
     0
176
     1
 90
       50
176
     1
 40
0.0
176
     1
 40
1.0
176
     1
 90
        0
176
     1
 62
    18
420
        0
176
     1
 90
       50
176
     1
 90
        3
176
     1
 62
     5
420
      255
176
     1
290
     0
176
     1
 90
       50
176
     1
 90
       50
176
     1
 90
       50
176
     1
290
     0
176
     1
 90
       50
176
     1
 62
   256
176
     0
 40
1.0
176
     0
 90
        2
176
     1
  1
strokes_ogs.tif
176
     1
290
     0
176
     1
 40
1.0
176
     1
 40
1.0
176
     1
  0
VISUALSTYLE
  5
1C7
102
{ACAD_REACTORS
330
1C5
102
}
330
1C5
100
AcDbVisualStyle
  2
FlatWithEdges
 70
     1
177
     3
291
     1
 70
    58
 90
        2
176
     1
 90
        1
176
     1
 90
        1
176
     1
 90
        2
176
     1
 40
-0.6
176
     1
 40
30.0
176
     1
 62
     7
176
     1
 90
        1
176
     1
 90
        4
176
     1
 62
     7
176
     1
 62
   257
176
     1
 90
        1
176
     1
 90
        1
176
     1
 40
1.0
176
     1
 90
        0
176
     1
 62
   257
176
     1
 40
1.0
176
     1
 90
        1
176
     1
 90
        6
176
     1
 90
        2
176
     1
 62
     7
176
     1
 90
        5
176
     1
 90
        0
176
     1
 90
        0
176
     1
290
     0
176
     1
 90
       13
176
     1
 40
0.0
176
     1
 90
        0
176
     1
290
     0
176
     1
290
     1
176
     1
290
     1
176
     1
290
     0
176
     1
290
     0
176
     1
290
     0
176
     1
290
     0
176
     1
290
     0
176
     1
290
     0
176
     1
 90
       50
176
     1
 40
0.0
176
     1
 40
1.0
176
     1
 90
        0
176
     1
 62
    18
420
        0
176
     1
 90
       50
176
     1
 90
        3
176
     1
 62
     5
420
      255
176
     1
290
     0
176
     1
 90
       50
176
     1
 90
       50
176
     1
 90
       50
176
     1
290
     0
176
     1
 90
       50
176
     1
 62
   256
176
     0
 40
1.0
176
     0
 90
        2
176
     1
  1
strokes_ogs.tif
176
     1
290
     0
176
     1
 40
1.0
176
     1
 40
1.0
176
     1
  0
VISUALSTYLE
  5
1C8
102
{ACAD_REACTORS
330
1C5
102
}
330
1C5
100
AcDbVisualStyle
  2
Gouraud
 70
     2
177
     3
291
     1
 70
    58
 90
        2
176
     1
 90
        2
176
     1
 90
        1
176
     1
 90
        2
176
     1
 40
-0.6
176
     1
 40
30.0
176
     1
 62
     7
176
     1
 90
        0
176
     1
 90
        4
176
     1
 62
     7
176
     1
 62
   257
176
     1
 90
        1
176
     1
 90
        1
176
     1
 40
1.0
176
     1
 90
        0
176
     1
 62
     7
176
     1
 40
1.0
176
     1
 90
        1
176
     1
 90
        6
176
     1
 90
        2
176
     1
 62
     7
176
     1
 90
        5
176
     1
 90
        0
176
     1
 90
        0
176
     1
290
     0
176
     1
 90
       13
176
     1
 40
0.0
176
     1
 90
        0
176
     1
290
     0
176
     1
290
     1
176
     1
290
     1
176
     1
290
     0
176
     1
290
     0
176
     1
290
     0
176
     1
290
     0
176
     1
290
     0
176
     1
290
     0
176
     1
 90
       50
176
     1
 40
0.0
176
     1
 40
1.0
176
     1
 90
        0
176
     1
 62
    18
420
        0
176
     1
 90
       50
176
     1
 90
        3
176
     1
 62
     5
420
      255
176
     1
290
     0
176
     1
 90
       50
176
     1
 90
       50
176
     1
 90
       50
176
     1
290
     0
176
     1
 90
       50
176
     1
 62
   256
176
     0
 40
1.0
176
     0
 90
        2
176
     1
  1
strokes_ogs.tif
176
     1
290
     0
176
     1
 40
1.0
176
     1
 40
1.0
176
     1
  0
VISUALSTYLE
  5
1C9
102
{ACAD_REACTORS
330
1C5
102
}
330
1C5
100
AcDbVisualStyle
  2
GouraudWithEdges
 70
     3
177
     3
291
     1
 70
    58
 90
        2
176
     1
 90
        2
176
     1
 90
        1
176
     1
 90
        2
176
     1
 40
-0.6
176
     1
 40
30.0
176
     1
 62
     7
176
     1
 90
        1
176
     1
 90
        4
176
     1
 62
     7
176
     1
 62
   257
176
     1
 90
        1
176
     1
 90
        1
176
     1
 40
1.0
176
     1
 90
        0
176
     1
 62
   257
176
     1
 40
1.0
176
     1
 90
        1
176
     1
 90
        6
176
     1
 90
        2
176
     1
 62
     7
176
     1
 90
        5
176
     1
 90
        0
176
     1
 90
        0
176
     1
290
     0
176
     1
 90
       13
176
     1
 40
0.0
176
     1
 90
        0
176
     1
290
     0
176
     1
290
     1
176
     1
290
     1
176
     1
290
     0
176
     1
290
     0
176
     1
290
     0
176
     1
290
     0
176
     1
290
     0
176
     1
290
     0
176
     1
 90
       50
176
     1
 40
0.0
176
     1
 40
1.0
176
     1
 90
        0
176
     1
 62
    18
420
        0
176
     1
 90
       50
176
     1
 90
        3
176
     1
 62
     5
420
      255
176
     1
290
     0
176
     1
 90
       50
176
     1
 90
       50
176
     1
 90
       50
176
     1
290
     0
176
     1
 90
       50
176
     1
 62
   256
176
     0
 40
1.0
176
     0
 90
        2
176
     1
  1
strokes_ogs.tif
176
     1
290
     0
176
     1
 40
1.0
176
     1
 40
1.0
176
     1
  0
VISUALSTYLE
  5
224
102
{ACAD_REACTORS
330
1C5
102
}
330
1C5
100
AcDbVisualStyle
  2
Hidden
 70
     6
177
     3
291
     0
 70
    58
 90
        1
176
     1
 90
        2
176
     1
 90
        2
176
     1
 90
        0
176
     1
 40
0.6
176
     1
 40
30.0
176
     1
 62
     7
420
 16777215
176
     1
 90
        2
176
     1
 90
        2
176
     1
 62
     7
176
     1
 62
   257
176
     1
 90
        2
176
     1
 90
        1
176
     1
 40
40.0
176
     1
 90
        0
176
     1
 62
   257
176
     1
 40
1.0
176
     1
 90
        1
176
     1
 90
        6
176
     1
 90
        2
176
     1
 62
     7
176
     1
 90
        3
176
     1
 90
        0
176
     1
 90
        0
176
     1
290
     0
176
     1
 90
        1
176
     1
 40
0.0
176
     1
 90
        0
176
     1
290
     0
176
     1
290
     1
176
     1
290
     1
176
     1
290
     0
176
     1
290
     0
176
     1
290
     0
176
     1
290
     0
176
     1
290
     0
176
     1
290
     0
176
     1
 90
       50
176
     1
 40
0.0
176
     1
 40
1.0
176
     1
 90
        0
176
     1
 62
    18
420
        0
176
     1
 90
       50
176
     1
 90
        3
176
     1
 62
     5
420
      255
176
     1
290
     0
176
     1
 90
       50
176
     1
 90
       50
176
     1
 90
       50
176
     1
290
     0
176
     1
 90
       50
176
     1
 62
   256
176
     0
 40
1.0
176
     0
 90
        2
176
     1
  1
strokes_ogs.tif
176
     1
290
     0
176
     1
 40
1.0
176
     1
 40
1.0
176
     1
  0
VISUALSTYLE
  5
225
102
{ACAD_REACTORS
330
1C5
102
}
330
1C5
100
AcDbVisualStyle
  2
JitterOff
 70
    20
177
     3
291
     1
 70
    58
 90
        2
176
     0
 90
        2
176
     0
 90
        0
176
     0
 90
        0
176
     0
 40
0.6
176
     0
 40
30.0
176
     0
 62
     7
420
 16777215
176
     0
 90
        1
176
     0
 90
        4
176
     0
 62
     7
176
     0
 62
   257
176
     0
 90
        1
176
     0
 90
        1
176
     0
 40
1.0
176
     0
 90
       10
176
     2
 62
     7
176
     0
 40
1.0
176
     0
 90
        1
176
     0
 90
        6
176
     0
 90
        2
176
     0
 62
     7
176
     0
 90
        5
176
     0
 90
        0
176
     0
 90
        0
176
     0
290
     0
176
     0
 90
        1
176
     0
 40
0.0
176
     0
 90
        0
176
     0
290
     0
176
     0
290
     1
176
     0
290
     1
176
     0
290
     0
176
     0
290
     0
176
     0
290
     0
176
     0
290
     0
176
     0
290
     0
176
     0
290
     0
176
     0
 90
       50
176
     0
 40
0.0
176
     0
 40
1.0
176
     0
 90
        0
176
     0
 62
    18
420
        0
176
     0
 90
       50
176
     0
 90
        3
176
     0
 62
     5
420
      255
176
     0
290
     0
176
     0
 90
       50
176
     0
 90
       50
176
     0
 90
       50
176
     0
290
     0
176
     0
 90
       50
176
     0
 62
   256
176
     0
 40
1.0
176
     0
 90
        2
176
     0
  1
strokes_ogs.tif
176
     0
290
     0
176
     0
 40
1.0
176
     0
 40
1.0
176
     0
  0
VISUALSTYLE
  5
1D3
102
{ACAD_REACTORS
330
1C5
102
}
330
1C5
100
AcDbVisualStyle
  2
Linepattern
 70
    14
177
     3
291
     1
 70
    58
 90
        2
176
     1
 90
        2
176
     1
 90
        0
176
     1
 90
        0
176
     1
 40
-0.6
176
     1
 40
-30.0
176
     1
 62
     7
176
     1
 90
        1
176
     1
 90
        4
176
     1
 62
     7
176
     1
 62
   257
176
     1
 90
        7
176
     1
 90
        7
176
     1
 40
1.0
176
     1
 90
        8
176
     1
 62
     7
176
     1
 40
1.0
176
     1
 90
        1
176
     1
 90
        6
176
     1
 90
        2
176
     1
 62
     7
176
     1
 90
        5
176
     1
 90
        0
176
     1
 90
        0
176
     1
290
     0
176
     1
 90
        1
176
     1
 40
0.0
176
     1
 90
        0
176
     1
290
     0
176
     1
290
     1
176
     1
290
     1
176
     1
290
     0
176
     1
290
     0
176
     1
290
     0
176
     1
290
     0
176
     1
290
     0
176
     1
290
     0
176
     1
 90
       50
176
     1
 40
0.0
176
     1
 40
1.0
176
     1
 90
        0
176
     1
 62
    18
420
        0
176
     1
 90
       50
176
     1
 90
        3
176
     1
 62
     5
420
      255
176
     1
290
     0
176
     1
 90
       50
176
     1
 90
       50
176
     1
 90
       50
176
     1
290
     0
176
     1
 90
       50
176
     1
 62
   256
176
     0
 40
1.0
176
     0
 90
        2
176
     1
  1
strokes_ogs.tif
176
     1
290
     0
176
     1
 40
1.0
176
     1
 40
1.0
176
     1
  0
VISUALSTYLE
  5
226
102
{ACAD_REACTORS
330
1C5
102
}
330
1C5
100
AcDbVisualStyle
  2
OverhangOff
 70
    21
177
     3
291
     1
 70
    58
 90
        2
176
     0
 90
        2
176
     0
 90
        0
176
     0
 90
        0
176
     0
 40
0.6
176
     0
 40
30.0
176
     0
 62
     7
420
 16777215
176
     0
 90
        1
176
     0
 90
        4
176
     0
 62
     7
176
     0
 62
   257
176
     0
 90
        1
176
     0
 90
        1
176
     0
 40
1.0
176
     0
 90
        9
176
     2
 62
     7
176
     0
 40
1.0
176
     0
 90
        1
176
     0
 90
        6
176
     0
 90
        2
176
     0
 62
     7
176
     0
 90
        5
176
     0
 90
        0
176
     0
 90
        0
176
     0
290
     0
176
     0
 90
        1
176
     0
 40
0.0
176
     0
 90
        0
176
     0
290
     0
176
     0
290
     1
176
     0
290
     1
176
     0
290
     0
176
     0
290
     0
176
     0
290
     0
176
     0
290
     0
176
     0
290
     0
176
     0
290
     0
176
     0
 90
       50
176
     0
 40
0.0
176
     0
 40
1.0
176
     0
 90
        0
176
     0
 62
    18
420
        0
176
     0
 90
       50
176
     0
 90
        3
176
     0
 62
     5
420
      255
176
     0
290
     0
176
     0
 90
       50
176
     0
 90
       50
176
     0
 90
       50
176
     0
290
     0
176
     0
 90
       50
176
     0
 62
   256
176
     0
 40
1.0
176
     0
 90
        2
176
     0
  1
strokes_ogs.tif
176
     0
290
     0
176
     0
 40
1.0
176
     0
 40
1.0
176
     0
  0
VISUALSTYLE
  5
1CE
102
{ACAD_REACTORS
330
1C5
102
}
330
1C5
100
AcDbVisualStyle
  2
Realistic
 70
     8
177
     3
291
     0
 70
    58
 90
        2
176
     1
 90
        2
176
     1
 90
        0
176
     1
 90
        0
176
     1
 40
-0.6
176
     1
 40
-30.0
176
     1
 62
     7
176
     1
 90
        1
176
     1
 90
        0
176
     1
 62
     7
176
     1
 62
   257
176
     1
 90
        1
176
     1
 90
        1
176
     1
 40
1.0
176
     1
 90
        8
176
     1
 62
     8
176
     1
 40
1.0
176
     1
 90
        1
176
     1
 90
        6
176
     1
 90
        2
176
     1
 62
     7
176
     1
 90
        5
176
     1
 90
        0
176
     1
 90
        0
176
     1
290
     0
176
     1
 90
       13
176
     1
 40
0.0
176
     1
 90
        0
176
     1
290
     0
176
     1
290
     1
176
     1
290
     1
176
     1
290
     0
176
     1
290
     0
176
     1
290
     0
176
     1
290
     0
176
     1
290
     0
176
     1
290
     0
176
     1
 90
       50
176
     1
 40
0.0
176
     1
 40
1.0
176
     1
 90
        0
176
     1
 62
    18
420
        0
176
     1
 90
       50
176
     1
 90
        3
176
     1
 62
     5
420
      255
176
     1
290
     0
176
     1
 90
       50
176
     1
 90
       50
176
     1
 90
       50
176
     1
290
     0
176
     1
 90
       50
176
     1
 62
   256
176
     0
 40
1.0
176
     0
 90
        2
176
     1
  1
strokes_ogs.tif
176
     1
290
     0
176
     1
 40
1.0
176
     1
 40
1.0
176
     1
  0
VISUALSTYLE
  5
22C
102
{ACAD_REACTORS
330
1C5
102
}
330
1C5
100
AcDbVisualStyle
  2
Shaded
 70
    27
177
     3
291
     0
 70
    58
 90
        2
176
     1
 90
        2
176
     1
 90
        1
176
     1
 90
        2
176
     1
 40
0.6
176
     1
 40
30.0
176
     1
 62
     7
420
 16777215
176
     1
 90
        0
176
     1
 90
        4
176
     1
 62
     7
176
     1
 62
   257
176
     1
 90
        1
176
     1
 90
        1
176
     1
 40
1.0
176
     1
 90
        8
176
     1
 62
   257
176
     1
 40
1.0
176
     1
 90
        1
176
     1
 90
        6
176
     1
 90
        2
176
     1
 62
     8
420
  7895160
176
     1
 90
        3
176
     1
 90
        0
176
     1
 90
        0
176
     1
290
     0
176
     1
 90
        5
176
     1
 40
0.0
176
     1
 90
        0
176
     1
290
     0
176
     1
290
     1
176
     1
290
     1
176
     1
290
     0
176
     1
290
     0
176
     1
290
     0
176
     1
290
     0
176
     1
290
     0
176
     1
290
     0
176
     1
 90
       50
176
     1
 40
0.0
176
     1
 40
1.0
176
     1
 90
        0
176
     1
 62
    18
420
        0
176
     1
 90
       50
176
     1
 90
        3
176
     1
 62
     5
420
      255
176
     1
290
     0
176
     1
 90
       50
176
     1
 90
       50
176
     1
 90
       50
176
     1
290
     0
176
     1
 90
       50
176
     1
 62
   256
176
     0
 40
1.0
176
     0
 90
        2
176
     1
  1
strokes_ogs.tif
176
     1
290
     0
176
     1
 40
1.0
176
     1
 40
1.0
176
     1
  0
VISUALSTYLE
  5
22B
102
{ACAD_REACTORS
330
1C5
102
}
330
1C5
100
AcDbVisualStyle
  2
Shaded with edges
 70
    26
177
     3
291
     0
 70
    58
 90
        2
176
     1
 90
        2
176
     1
 90
        1
176
     1
 90
        2
176
     1
 40
0.6
176
     1
 40
30.0
176
     1
 62
     7
420
 16777215
176
     1
 90
        1
176
     1
 90
       10
176
     1
 62
     7
176
     1
 62
   257
176
     1
 90
        2
176
     1
 90
        1
176
     1
 40
1.0
176
     1
 90
        8
176
     1
 62
   257
176
     1
 40
1.0
176
     1
 90
        1
176
     1
 90
        6
176
     1
 90
        2
176
     1
 62
     7
176
     1
 90
        3
176
     1
 90
        0
176
     1
 90
        0
176
     1
290
     0
176
     1
 90
        5
176
     1
 40
0.0
176
     1
 90
        0
176
     1
290
     0
176
     1
290
     1
176
     1
290
     1
176
     1
290
     0
176
     1
290
     0
176
     1
290
     0
176
     1
290
     0
176
     1
290
     0
176
     1
290
     0
176
     1
 90
       50
176
     1
 40
0.0
176
     1
 40
1.0
176
     1
 90
        0
176
     1
 62
    18
420
        0
176
     1
 90
       50
176
     1
 90
        3
176
     1
 62
     5
420
      255
176
     1
290
     0
176
     1
 90
       50
176
     1
 90
       50
176
     1
 90
       50
176
     1
290
     0
176
     1
 90
       50
176
     1
 62
   256
176
     0
 40
1.0
176
     0
 90
        2
176
     1
  1
strokes_ogs.tif
176
     1
290
     0
176
     1
 40
1.0
176
     1
 40
1.0
176
     1
  0
VISUALSTYLE
  5
228
102
{ACAD_REACTORS
330
1C5
102
}
330
1C5
100
AcDbVisualStyle
  2
Shades of Gray
 70
    23
177
     3
291
     0
 70
    58
 90
        2
176
     1
 90
        2
176
     1
 90
        3
176
     1
 90
        0
176
     1
 40
0.6
176
     1
 40
30.0
176
     1
 62
     7
420
 16777215
176
     1
 90
        2
176
     1
 90
        2
176
     1
 62
     7
176
     1
 62
     7
176
     1
 90
        1
176
     1
 90
        1
176
     1
 40
40.0
176
     1
 90
        8
176
     1
 62
     7
176
     1
 40
1.0
176
     1
 90
        1
176
     1
 90
        6
176
     1
 90
        2
176
     1
 62
     7
176
     1
 90
        3
176
     1
 90
        0
176
     1
 90
        0
176
     1
290
     0
176
     1
 90
        1
176
     1
 40
0.0
176
     1
 90
        0
176
     1
290
     0
176
     1
290
     1
176
     1
290
     1
176
     1
290
     0
176
     1
290
     0
176
     1
290
     0
176
     1
290
     0
176
     1
290
     0
176
     1
290
     0
176
     1
 90
       50
176
     1
 40
0.0
176
     1
 40
1.0
176
     1
 90
        0
176
     1
 62
    18
420
        0
176
     1
 90
       50
176
     1
 90
        3
176
     1
 62
     5
420
      255
176
     1
290
     0
176
     1
 90
       50
176
     1
 90
       50
176
     1
 90
       50
176
     1
290
     0
176
     1
 90
       50
176
     1
 62
   256
176
     0
 40
1.0
176
     0
 90
        2
176
     1
  1
strokes_ogs.tif
176
     1
290
     0
176
     1
 40
1.0
176
     1
 40
1.0
176
     1
  0
VISUALSTYLE
  5
229
102
{ACAD_REACTORS
330
1C5
102
}
330
1C5
100
AcDbVisualStyle
  2
Sketchy
 70
    24
177
     3
291
     0
 70
    58
 90
        1
176
     1
 90
        2
176
     1
 90
        2
176
     1
 90
        0
176
     1
 40
0.6
176
     1
 40
30.0
176
     1
 62
     7
420
 16777215
176
     1
 90
        2
176
     1
 90
        2
176
     1
 62
     7
176
     1
 62
     7
176
     1
 90
        1
176
     1
 90
        1
176
     1
 40
40.0
176
     1
 90
       11
176
     1
 62
     7
176
     1
 40
1.0
176
     1
 90
        1
176
     1
 90
        6
176
     1
 90
        2
176
     1
 62
     7
176
     1
 90
        6
176
     1
 90
        0
176
     1
 90
        0
176
     1
290
     0
176
     1
 90
        1
176
     1
 40
0.0
176
     1
 90
        0
176
     1
290
     0
176
     1
290
     1
176
     1
290
     1
176
     1
290
     0
176
     1
290
     0
176
     1
290
     0
176
     1
290
     0
176
     1
290
     0
176
     1
290
     0
176
     1
 90
       50
176
     1
 40
0.0
176
     1
 40
1.0
176
     1
 90
        0
176
     1
 62
    18
420
        0
176
     1
 90
       50
176
     1
 90
        3
176
     1
 62
     5
420
      255
176
     1
290
     0
176
     1
 90
       50
176
     1
 90
       50
176
     1
 90
       50
176
     1
290
     0
176
     1
 90
       50
176
     1
 62
   256
176
     0
 40
1.0
176
     0
 90
        2
176
     1
  1
strokes_ogs.tif
176
     1
290
     0
176
     1
 40
1.0
176
     1
 40
1.0
176
     1
  0
VISUALSTYLE
  5
1D2
102
{ACAD_REACTORS
330
1C5
102
}
330
1C5
100
AcDbVisualStyle
  2
Thicken
 70
    13
177
     3
291
     1
 70
    58
 90
        2
176
     1
 90
        2
176
     1
 90
        0
176
     1
 90
        0
176
     1
 40
-0.6
176
     1
 40
-30.0
176
     1
 62
     7
176
     1
 90
        1
176
     1
 90
        4
176
     1
 62
     7
176
     1
 62
   257
176
     1
 90
        1
176
     1
 90
        1
176
     1
 40
1.0
176
     1
 90
       12
176
     1
 62
     7
176
     1
 40
1.0
176
     1
 90
        1
176
     1
 90
        6
176
     1
 90
        2
176
     1
 62
     7
176
     1
 90
        5
176
     1
 90
        0
176
     1
 90
        0
176
     1
290
     0
176
     1
 90
        1
176
     1
 40
0.0
176
     1
 90
        0
176
     1
290
     0
176
     1
290
     1
176
     1
290
     1
176
     1
290
     0
176
     1
290
     0
176
     1
290
     0
176
     1
290
     0
176
     1
290
     0
176
     1
290
     0
176
     1
 90
       50
176
     1
 40
0.0
176
     1
 40
1.0
176
     1
 90
        0
176
     1
 62
    18
420
        0
176
     1
 90
       50
176
     1
 90
        3
176
     1
 62
     5
420
      255
176
     1
290
     0
176
     1
 90
       50
176
     1
 90
       50
176
     1
 90
       50
176
     1
290
     0
176
     1
 90
       50
176
     1
 62
   256
176
     0
 40
1.0
176
     0
 90
        2
176
     1
  1
strokes_ogs.tif
176
     1
290
     0
176
     1
 40
1.0
176
     1
 40
1.0
176
     1
  0
VISUALSTYLE
  5
223
102
{ACAD_REACTORS
330
1C5
102
}
330
1C5
100
AcDbVisualStyle
  2
Wireframe
 70
     5
177
     3
291
     0
 70
    58
 90
        0
176
     1
 90
        2
176
     1
 90
        0
176
     1
 90
        0
176
     1
 40
0.6
176
     1
 40
30.0
176
     1
 62
     7
420
 16777215
176
     1
 90
        1
176
     1
 90
        4
176
     1
 62
     7
176
     1
 62
   257
176
     1
 90
        1
176
     1
 90
        1
176
     1
 40
1.0
176
     1
 90
        0
176
     1
 62
   257
176
     1
 40
1.0
176
     1
 90
        1
176
     1
 90
        6
176
     1
 90
        2
176
     1
 62
     7
176
     1
 90
        3
176
     1
 90
        0
176
     1
 90
        0
176
     1
290
     0
176
     1
 90
        1
176
     1
 40
0.0
176
     1
 90
        0
176
     1
290
     0
176
     1
290
     1
176
     1
290
     1
176
     1
290
     0
176
     1
290
     0
176
     1
290
     0
176
     1
290
     0
176
     1
290
     0
176
     1
290
     0
176
     1
 90
       50
176
     1
 40
0.0
176
     1
 40
1.0
176
     1
 90
        0
176
     1
 62
    18
420
        0
176
     1
 90
       50
176
     1
 90
        3
176
     1
 62
     5
420
      255
176
     1
290
     0
176
     1
 90
       50
176
     1
 90
       50
176
     1
 90
       50
176
     1
290
     0
176
     1
 90
       50
176
     1
 62
   256
176
     0
 40
1.0
176
     0
 90
        2
176
     1
  1
strokes_ogs.tif
176
     1
290
     0
176
     1
 40
1.0
176
     1
 40
1.0
176
     1
  0
VISUALSTYLE
  5
22A
102
{ACAD_REACTORS
330
1C5
102
}
330
1C5
100
AcDbVisualStyle
  2
X-Ray
 70
    25
177
     3
291
     0
 70
    58
 90
        2
176
     1
 90
        2
176
     1
 90
        1
176
     1
 90
        1
176
     1
 40
0.5
176
     1
 40
30.0
176
     1
 62
     7
420
 16777215
176
     1
 90
        1
176
     1
 90
        0
176
     1
 62
     7
176
     1
 62
   257
176
     1
 90
        1
176
     1
 90
        1
176
     1
 40
1.0
176
     1
 90
        8
176
     1
 62
     7
176
     1
 40
1.0
176
     1
 90
        1
176
     1
 90
        6
176
     1
 90
        2
176
     1
 62
     7
176
     1
 90
        3
176
     1
 90
        0
176
     1
 90
        0
176
     1
290
     0
176
     1
 90
       13
176
     1
 40
0.0
176
     1
 90
        0
176
     1
290
     0
176
     1
290
     1
176
     1
290
     1
176
     1
290
     0
176
     1
290
     0
176
     1
290
     0
176
     1
290
     0
176
     1
290
     0
176
     1
290
     0
176
     1
 90
       50
176
     1
 40
0.0
176
     1
 40
1.0
176
     1
 90
        0
176
     1
 62
    18
420
        0
176
     1
 90
       50
176
     1
 90
        3
176
     1
 62
     5
420
      255
176
     1
290
     0
176
     1
 90
       50
176
     1
 90
       50
176
     1
 90
       50
176
     1
290
     0
176
     1
 90
       50
176
     1
 62
   256
176
     0
 40
1.0
176
     0
 90
        2
176
     1
  1
strokes_ogs.tif
176
     1
290
     0
176
     1
 40
1.0
176
     1
 40
1.0
176
     1
  0
DICTIONARYVAR
  5
276
102
{ACAD_REACTORS
330
1E2
102
}
330
1E2
100
DictionaryVariables
280
     0
  1
1:1
  0
DICTIONARYVAR
  5
278
102
{ACAD_REACTORS
330
1E2
102
}
330
1E2
100
DictionaryVariables
280
     0
  1
Standard
  0
DICTIONARYVAR
  5
277
102
{ACAD_REACTORS
330
1E2
102
}
330
1E2
100
DictionaryVariables
280
     0
  1
Standard
  0
DICTIONARYVAR
  5
1E6
102
{ACAD_REACTORS
330
1E2
102
}
330
1E2
100
DictionaryVariables
280
     0
  1
2
  0
DICTIONARYVAR
  5
1E7
102
{ACAD_REACTORS
330
1E2
102
}
330
1E2
100
DictionaryVariables
280
     0
  1
1
  0
DICTIONARYVAR
  5
1E5
102
{ACAD_REACTORS
330
1E2
102
}
330
1E2
100
DictionaryVariables
280
     0
  1
0
  0
DICTIONARY
  5
37B
330
22E
100
AcDbDictionary
280
     1
281
     1
  3
ACAD_ROUNDTRIP_2008_TABLESTYLE_CELLSTYLEMAP
360
37C
  0
CELLSTYLEMAP
  5
37C
102
{ACAD_REACTORS
330
37B
102
}
330
37B
100
AcDbCellStyleMap
 90
        3
300
CELLSTYLE
  1
TABLEFORMAT_BEGIN
 90
        5
170
     1
 91
        0
 92
    32768
 62
   257
 93
        1
300
CONTENTFORMAT
  1
CONTENTFORMAT_BEGIN
 90
        0
 91
        0
 92
        4
 93
        0
300

 40
0.0
140
1.0
 94
        5
 62
     0
340
11
144
0.25
309
CONTENTFORMAT_END
171
     1
301
MARGIN
  1
CELLMARGIN_BEGIN
 40
0.06
 40
0.06
 40
0.06
 40
0.06
 40
0.06
 40
0.06
309
CELLMARGIN_END
 94
        6
 95
        1
302
GRIDFORMAT
  1
GRIDFORMAT_BEGIN
 90
        0
 91
        1
 62
     0
 92
       -2
340
14
 93
        0
 40
0.045
309
GRIDFORMAT_END
 95
        2
302
GRIDFORMAT
  1
GRIDFORMAT_BEGIN
 90
        0
 91
        1
 62
     0
 92
       -2
340
14
 93
        0
 40
0.045
309
GRIDFORMAT_END
 95
        4
302
GRIDFORMAT
  1
GRIDFORMAT_BEGIN
 90
        0
 91
        1
 62
     0
 92
       -2
340
14
 93
        0
 40
0.045
309
GRIDFORMAT_END
 95
        8
302
GRIDFORMAT
  1
GRIDFORMAT_BEGIN
 90
        0
 91
        1
 62
     0
 92
       -2
340
14
 93
        0
 40
0.045
309
GRIDFORMAT_END
 95
       16
302
GRIDFORMAT
  1
GRIDFORMAT_BEGIN
 90
        0
 91
        1
 62
     0
 92
       -2
340
14
 93
        0
 40
0.045
309
GRIDFORMAT_END
 95
       32
302
GRIDFORMAT
  1
GRIDFORMAT_BEGIN
 90
        0
 91
        1
 62
     0
 92
       -2
340
14
 93
        0
 40
0.045
309
GRIDFORMAT_END
309
TABLEFORMAT_END
  1
CELLSTYLE_BEGIN
 90
        1
 91
        1
300
_TITLE
309
CELLSTYLE_END
300
CELLSTYLE
  1
TABLEFORMAT_BEGIN
 90
        5
170
     1
 91
        0
 92
        0
 62
   257
 93
        1
300
CONTENTFORMAT
  1
CONTENTFORMAT_BEGIN
 90
        0
 91
        0
 92
        4
 93
        0
300

 40
0.0
140
1.0
 94
        5
 62
     0
340
11
144
0.18
309
CONTENTFORMAT_END
171
     1
301
MARGIN
  1
CELLMARGIN_BEGIN
 40
0.06
 40
0.06
 40
0.06
 40
0.06
 40
0.06
 40
0.06
309
CELLMARGIN_END
 94
        6
 95
        1
302
GRIDFORMAT
  1
GRIDFORMAT_BEGIN
 90
        0
 91
        1
 62
     0
 92
       -2
340
14
 93
        0
 40
0.045
309
GRIDFORMAT_END
 95
        2
302
GRIDFORMAT
  1
GRIDFORMAT_BEGIN
 90
        0
 91
        1
 62
     0
 92
       -2
340
14
 93
        0
 40
0.045
309
GRIDFORMAT_END
 95
        4
302
GRIDFORMAT
  1
GRIDFORMAT_BEGIN
 90
        0
 91
        1
 62
     0
 92
       -2
340
14
 93
        0
 40
0.045
309
GRIDFORMAT_END
 95
        8
302
GRIDFORMAT
  1
GRIDFORMAT_BEGIN
 90
        0
 91
        1
 62
     0
 92
       -2
340
14
 93
        0
 40
0.045
309
GRIDFORMAT_END
 95
       16
302
GRIDFORMAT
  1
GRIDFORMAT_BEGIN
 90
        0
 91
        1
 62
     0
 92
       -2
340
14
 93
        0
 40
0.045
309
GRIDFORMAT_END
 95
       32
302
GRIDFORMAT
  1
GRIDFORMAT_BEGIN
 90
        0
 91
        1
 62
     0
 92
       -2
340
14
 93
        0
 40
0.045
309
GRIDFORMAT_END
309
TABLEFORMAT_END
  1
CELLSTYLE_BEGIN
 90
        2
 91
        1
300
_HEADER
309
CELLSTYLE_END
300
CELLSTYLE
  1
TABLEFORMAT_BEGIN
 90
        5
170
     1
 91
        0
 92
        0
 62
   257
 93
        1
300
CONTENTFORMAT
  1
CONTENTFORMAT_BEGIN
 90
        0
 91
        0
 92
        4
 93
        0
300

 40
0.0
140
1.0
 94
        2
 62
     0
340
11
144
0.18
309
CONTENTFORMAT_END
171
     1
301
MARGIN
  1
CELLMARGIN_BEGIN
 40
0.06
 40
0.06
 40
0.06
 40
0.06
 40
0.06
 40
0.06
309
CELLMARGIN_END
 94
        6
 95
        1
302
GRIDFORMAT
  1
GRIDFORMAT_BEGIN
 90
        0
 91
        1
 62
     0
 92
       -2
340
14
 93
        0
 40
0.045
309
GRIDFORMAT_END
 95
        2
302
GRIDFORMAT
  1
GRIDFORMAT_BEGIN
 90
        0
 91
        1
 62
     0
 92
       -2
340
14
 93
        0
 40
0.045
309
GRIDFORMAT_END
 95
        4
302
GRIDFORMAT
  1
GRIDFORMAT_BEGIN
 90
        0
 91
        1
 62
     0
 92
       -2
340
14
 93
        0
 40
0.045
309
GRIDFORMAT_END
 95
        8
302
GRIDFORMAT
  1
GRIDFORMAT_BEGIN
 90
        0
 91
        1
 62
     0
 92
       -2
340
14
 93
        0
 40
0.045
309
GRIDFORMAT_END
 95
       16
302
GRIDFORMAT
  1
GRIDFORMAT_BEGIN
 90
        0
 91
        1
 62
     0
 92
       -2
340
14
 93
        0
 40
0.045
309
GRIDFORMAT_END
 95
       32
302
GRIDFORMAT
  1
GRIDFORMAT_BEGIN
 90
        0
 91
        1
 62
     0
 92
       -2
340
14
 93
        0
 40
0.045
309
GRIDFORMAT_END
309
TABLEFORMAT_END
  1
CELLSTYLE_BEGIN
 90
        3
 91
        2
300
_DATA
309
CELLSTYLE_END
  0
ENDSEC
  0
EOF
