  0
SECTION
  2
HEADER
  9
$ACADVER
  1
AC1027
  9
$ACADMAINTVER
 70
   105
  9
$DWGCODEPAGE
  3
ANSI_1252
  9
$REQUIREDVERSIONS
160
                 0
  9
$LASTSAVEDBY
  1
matthias.ochs
  9
$INSBASE
 10
0.0
 20
0.0
 30
0.0
  9
$EXTMIN
 10
-23.99999999999996
 20
-48.0
 30
0.0
  9
$EXTMAX
 10
73.50000000000011
 20
67.0
 30
0.0
  9
$LIMMIN
 10
-97.158382895
 20
-94.80344233
  9
$LIMMAX
 10
148.936104598
 20
12.647563271
  9
$ORTHOMODE
 70
     0
  9
$REGENMODE
 70
     1
  9
$FILLMODE
 70
     1
  9
$QTEXTMODE
 70
     0
  9
$MIRRTEXT
 70
     1
  9
$LTSCALE
 40
1.0
  9
$ATTMODE
 70
     1
  9
$TEXTSIZE
 40
0.2
  9
$TRACEWID
 40
0.05
  9
$TEXTSTYLE
  7
Standard
  9
$CLAYER
  8
SK3
  9
$CELTYPE
  6
ByLayer
  9
$CECOLOR
 62
   256
  9
$CELTSCALE
 40
1.0
  9
$DISPSILH
 70
     0
  9
$DIMSCALE
 40
1.0
  9
$DIMASZ
 40
0.18
  9
$DIMEXO
 40
0.0625
  9
$DIMDLI
 40
0.38
  9
$DIMRND
 40
0.0
  9
$DIMDLE
 40
0.0
  9
$DIMEXE
 40
0.18
  9
$DIMTP
 40
0.0
  9
$DIMTM
 40
0.0
  9
$DIMTXT
 40
0.18
  9
$DIMCEN
 40
0.09
  9
$DIMTSZ
 40
0.0
  9
$DIMTOL
 70
     0
  9
$DIMLIM
 70
     0
  9
$DIMTIH
 70
     1
  9
$DIMTOH
 70
     1
  9
$DIMSE1
 70
     0
  9
$DIMSE2
 70
     0
  9
$DIMTAD
 70
     0
  9
$DIMZIN
 70
     0
  9
$DIMBLK
  1

  9
$DIMASO
 70
     1
  9
$DIMSHO
 70
     1
  9
$DIMPOST
  1

  9
$DIMAPOST
  1

  9
$DIMALT
 70
     0
  9
$DIMALTD
 70
     2
  9
$DIMALTF
 40
25.4
  9
$DIMLFAC
 40
1.0
  9
$DIMTOFL
 70
     0
  9
$DIMTVP
 40
0.0
  9
$DIMTIX
 70
     0
  9
$DIMSOXD
 70
     0
  9
$DIMSAH
 70
     0
  9
$DIMBLK1
  1

  9
$DIMBLK2
  1

  9
$DIMSTYLE
  2
Standard
  9
$DIMCLRD
 70
     0
  9
$DIMCLRE
 70
     0
  9
$DIMCLRT
 70
     0
  9
$DIMTFAC
 40
1.0
  9
$DIMGAP
 40
0.09
  9
$DIMJUST
 70
     0
  9
$DIMSD1
 70
     0
  9
$DIMSD2
 70
     0
  9
$DIMTOLJ
 70
     1
  9
$DIMTZIN
 70
     0
  9
$DIMALTZ
 70
     0
  9
$DIMALTTZ
 70
     0
  9
$DIMUPT
 70
     0
  9
$DIMDEC
 70
     4
  9
$DIMTDEC
 70
     4
  9
$DIMALTU
 70
     2
  9
$DIMALTTD
 70
     2
  9
$DIMTXSTY
  7
Standard
  9
$DIMAUNIT
 70
     0
  9
$DIMADEC
 70
     0
  9
$DIMALTRND
 40
0.0
  9
$DIMAZIN
 70
     0
  9
$DIMDSEP
 70
    46
  9
$DIMATFIT
 70
     3
  9
$DIMFRAC
 70
     0
  9
$DIMLDRBLK
  1

  9
$DIMLUNIT
 70
     2
  9
$DIMLWD
 70
    -2
  9
$DIMLWE
 70
    -2
  9
$DIMTMOVE
 70
     2
  9
$DIMFXL
 40
1.0
  9
$DIMFXLON
 70
     0
  9
$DIMJOGANG
 40
0.7853981633974483
  9
$DIMTFILL
 70
     0
  9
$DIMTFILLCLR
 70
     0
  9
$DIMARCSYM
 70
     0
  9
$DIMLTYPE
  6

  9
$DIMLTEX1
  6

  9
$DIMLTEX2
  6

  9
$DIMTXTDIRECTION
 70
     0
  9
$LUNITS
 70
     2
  9
$LUPREC
 70
     4
  9
$SKETCHINC
 40
0.1
  9
$FILLETRAD
 40
0.5
  9
$AUNITS
 70
     2
  9
$AUPREC
 70
     0
  9
$MENU
  1
.
  9
$ELEVATION
 40
0.0
  9
$PELEVATION
 40
0.0
  9
$THICKNESS
 40
0.0
  9
$LIMCHECK
 70
     0
  9
$CHAMFERA
 40
0.5
  9
$CHAMFERB
 40
0.5
  9
$CHAMFERC
 40
1.0
  9
$CHAMFERD
 40
0.0
  9
$SKPOLY
 70
     0
  9
$TDCREATE
 40
2458327.544400243
  9
$TDUCREATE
 40
2458327.46106691
  9
$TDUPDATE
 40
2458677.334634919
  9
$TDUUPDATE
 40
2458677.251301586
  9
$TDINDWG
 40
0.0136221644
  9
$TDUSRTIMER
 40
0.0008580324
  9
$USRTIMER
 70
     1
  9
$ANGBASE
 50
0.0
  9
$ANGDIR
 70
     0
  9
$PDMODE
 70
     0
  9
$PDSIZE
 40
0.0
  9
$PLINEWID
 40
0.0
  9
$SPLFRAME
 70
     0
  9
$SPLINETYPE
 70
     6
  9
$SPLINESEGS
 70
     8
  9
$HANDSEED
  5
3AF
  9
$SURFTAB1
 70
     6
  9
$SURFTAB2
 70
     6
  9
$SURFTYPE
 70
     6
  9
$SURFU
 70
     6
  9
$SURFV
 70
     6
  9
$UCSBASE
  2

  9
$UCSNAME
  2

  9
$UCSORG
 10
0.0
 20
0.0
 30
0.0
  9
$UCSXDIR
 10
1.0
 20
0.0
 30
0.0
  9
$UCSYDIR
 10
0.0
 20
1.0
 30
0.0
  9
$UCSORTHOREF
  2

  9
$UCSORTHOVIEW
 70
     0
  9
$UCSORGTOP
 10
0.0
 20
0.0
 30
0.0
  9
$UCSORGBOTTOM
 10
0.0
 20
0.0
 30
0.0
  9
$UCSORGLEFT
 10
0.0
 20
0.0
 30
0.0
  9
$UCSORGRIGHT
 10
0.0
 20
0.0
 30
0.0
  9
$UCSORGFRONT
 10
0.0
 20
0.0
 30
0.0
  9
$UCSORGBACK
 10
0.0
 20
0.0
 30
0.0
  9
$PUCSBASE
  2

  9
$PUCSNAME
  2

  9
$PUCSORG
 10
0.0
 20
0.0
 30
0.0
  9
$PUCSXDIR
 10
1.0
 20
0.0
 30
0.0
  9
$PUCSYDIR
 10
0.0
 20
1.0
 30
0.0
  9
$PUCSORTHOREF
  2

  9
$PUCSORTHOVIEW
 70
     0
  9
$PUCSORGTOP
 10
0.0
 20
0.0
 30
0.0
  9
$PUCSORGBOTTOM
 10
0.0
 20
0.0
 30
0.0
  9
$PUCSORGLEFT
 10
0.0
 20
0.0
 30
0.0
  9
$PUCSORGRIGHT
 10
0.0
 20
0.0
 30
0.0
  9
$PUCSORGFRONT
 10
0.0
 20
0.0
 30
0.0
  9
$PUCSORGBACK
 10
0.0
 20
0.0
 30
0.0
  9
$USERI1
 70
     0
  9
$USERI2
 70
     0
  9
$USERI3
 70
     0
  9
$USERI4
 70
     0
  9
$USERI5
 70
     0
  9
$USERR1
 40
0.0
  9
$USERR2
 40
0.0
  9
$USERR3
 40
0.0
  9
$USERR4
 40
0.0
  9
$USERR5
 40
0.0
  9
$WORLDVIEW
 70
     1
  9
$SHADEDGE
 70
     3
  9
$SHADEDIF
 70
    70
  9
$TILEMODE
 70
     1
  9
$MAXACTVP
 70
    64
  9
$PINSBASE
 10
0.0
 20
0.0
 30
0.0
  9
$PLIMCHECK
 70
     0
  9
$PEXTMIN
 10
1.000000000000000E+20
 20
1.000000000000000E+20
 30
1.000000000000000E+20
  9
$PEXTMAX
 10
-1.000000000000000E+20
 20
-1.000000000000000E+20
 30
-1.000000000000000E+20
  9
$PLIMMIN
 10
0.0
 20
0.0
  9
$PLIMMAX
 10
0.0
 20
0.0
  9
$UNITMODE
 70
     0
  9
$VISRETAIN
 70
     1
  9
$PLINEGEN
 70
     0
  9
$PSLTSCALE
 70
     1
  9
$TREEDEPTH
 70
  3020
  9
$CMLSTYLE
  2
Standard
  9
$CMLJUST
 70
     0
  9
$CMLSCALE
 40
1.0
  9
$PROXYGRAPHICS
 70
     1
  9
$MEASUREMENT
 70
     0
  9
$CELWEIGHT
370
    -1
  9
$ENDCAPS
280
     0
  9
$JOINSTYLE
280
     0
  9
$LWDISPLAY
290
     0
  9
$INSUNITS
 70
     0
  9
$HYPERLINKBASE
  1

  9
$STYLESHEET
  1

  9
$XEDIT
290
     1
  9
$CEPSNTYPE
380
     0
  9
$PSTYLEMODE
290
     1
  9
$FINGERPRINTGUID
  2
{ED7982B8-B206-4EF0-A049-68CEB042AC6C}
  9
$VERSIONGUID
  2
{FAEB1C32-E019-11D5-929B-00C0DF256EC4}
  9
$EXTNAMES
290
     1
  9
$PSVPSCALE
 40
0.0
  9
$OLESTARTUP
290
     0
  9
$SORTENTS
280
   127
  9
$INDEXCTL
280
     0
  9
$HIDETEXT
280
     1
  9
$XCLIPFRAME
280
     2
  9
$HALOGAP
280
     0
  9
$OBSCOLOR
 70
   257
  9
$OBSLTYPE
280
     0
  9
$INTERSECTIONDISPLAY
280
     0
  9
$INTERSECTIONCOLOR
 70
   257
  9
$DIMASSOC
280
     2
  9
$PROJECTNAME
  1

  9
$CAMERADISPLAY
290
     0
  9
$LENSLENGTH
 40
50.0
  9
$CAMERAHEIGHT
 40
0.0
  9
$STEPSPERSEC
 40
2.0
  9
$STEPSIZE
 40
6.0
  9
$3DDWFPREC
 40
2.0
  9
$PSOLWIDTH
 40
0.25
  9
$PSOLHEIGHT
 40
4.0
  9
$LOFTANG1
 40
1.570796326794897
  9
$LOFTANG2
 40
1.570796326794897
  9
$LOFTMAG1
 40
0.0
  9
$LOFTMAG2
 40
0.0
  9
$LOFTPARAM
 70
     7
  9
$LOFTNORMALS
280
     1
  9
$LATITUDE
 40
37.795
  9
$LONGITUDE
 40
-122.394
  9
$NORTHDIRECTION
 40
0.0
  9
$TIMEZONE
 70
 -8000
  9
$LIGHTGLYPHDISPLAY
280
     1
  9
$TILEMODELIGHTSYNCH
280
     1
  9
$SOLIDHIST
280
     0
  9
$SHOWHIST
280
     1
  9
$DWFFRAME
280
     2
  9
$DGNFRAME
280
     2
  9
$REALWORLDSCALE
290
     1
  9
$INTERFERECOLOR
 62
   256
  9
$CSHADOW
280
     0
  9
$SHADOWPLANELOCATION
 40
0.0
  0
ENDSEC
  0
SECTION
  2
CLASSES
  0
CLASS
  1
ACDBDICTIONARYWDFLT
  2
AcDbDictionaryWithDefault
  3
ObjectDBX Classes
 90
        0
 91
       13
280
     0
281
     0
  0
CLASS
  1
SCALE
  2
AcDbScale
  3
ObjectDBX Classes
 90
     1153
 91
       13
280
     0
281
     0
  0
CLASS
  1
VISUALSTYLE
  2
AcDbVisualStyle
  3
ObjectDBX Classes
 90
     4095
 91
       13
280
     0
281
     0
  0
CLASS
  1
MATERIAL
  2
AcDbMaterial
  3
ObjectDBX Classes
 90
     1153
 91
       13
280
     0
281
     0
  0
CLASS
  1
DICTIONARYVAR
  2
AcDbDictionaryVar
  3
ObjectDBX Classes
 90
        0
 91
       13
280
     0
281
     0
  0
CLASS
  1
ACDBPLACEHOLDER
  2
AcDbPlaceHolder
  3
ObjectDBX Classes
 90
        0
 91
        1
280
     0
281
     0
  0
CLASS
  1
LAYOUT
  2
AcDbLayout
  3
ObjectDBX Classes
 90
        0
 91
        1
280
     0
281
     0
  0
CLASS
  1
TABLESTYLE
  2
AcDbTableStyle
  3
ObjectDBX Classes
 90
     4095
 91
       13
280
     0
281
     0
  0
CLASS
  1
MLEADERSTYLE
  2
AcDbMLeaderStyle
  3
ACDB_MLEADERSTYLE_CLASS
 90
     4095
 91
       13
280
     0
281
     0
  0
CLASS
  1
SUN
  2
AcDbSun
  3
SCENEOE
 90
     1153
 91
       13
280
     0
281
     0
  0
CLASS
  1
SORTENTSTABLE
  2
AcDbSortentsTable
  3
ObjectDBX Classes
 90
        0
 91
        4
280
     0
281
     0
  0
CLASS
  1
CELLSTYLEMAP
  2
AcDbCellStyleMap
  3
ObjectDBX Classes
 90
     1152
 91
        5
280
     0
281
     0
  0
ENDSEC
  0
SECTION
  2
TABLES
  0
TABLE
  2
VPORT
  5
8
330
0
100
AcDbSymbolTable
 70
     1
  0
VPORT
  5
1DF
330
8
100
AcDbSymbolTableRecord
100
AcDbViewportTableRecord
  2
*Active
 70
     0
 10
0.0
 20
0.0
 11
1.0
 21
1.0
 12
17.49877547337363
 22
-11.19939013886366
 13
0.0
 23
0.0
 14
0.5
 24
0.5
 15
0.5
 25
0.5
 16
0.0
 26
0.0
 36
1.0
 17
0.0
 27
0.0
 37
0.0
 40
234.7302875067431
 41
1.831002331002331
 42
50.0
 43
0.0
 44
0.0
 50
0.0
 51
0.0
 71
    16
 72
   100
 73
     1
 74
     3
 75
     0
 76
     0
 77
     0
 78
     0
281
     0
 65
     1
110
0.0
120
0.0
130
0.0
111
1.0
121
0.0
131
0.0
112
0.0
122
1.0
132
0.0
 79
     0
146
0.0
348
211
 60
     3
 61
     5
292
     1
282
     1
141
0.0
142
0.0
 63
   256
361
2B9
  0
ENDTAB
  0
TABLE
  2
LTYPE
  5
5
330
0
100
AcDbSymbolTable
 70
     8
  0
LTYPE
  5
14
330
5
100
AcDbSymbolTableRecord
100
AcDbLinetypeTableRecord
  2
ByBlock
 70
     0
  3

 72
    65
 73
     0
 40
0.0
  0
LTYPE
  5
15
330
5
100
AcDbSymbolTableRecord
100
AcDbLinetypeTableRecord
  2
ByLayer
 70
     0
  3

 72
    65
 73
     0
 40
0.0
  0
LTYPE
  5
16
330
5
100
AcDbSymbolTableRecord
100
AcDbLinetypeTableRecord
  2
Continuous
 70
     0
  3
Solid line
 72
    65
 73
     0
 40
0.0
  0
LTYPE
  5
20
330
5
100
AcDbSymbolTableRecord
100
AcDbLinetypeTableRecord
  2
PUNKT
 70
     0
  3
..............
 72
    65
 73
     2
 40
1.5
 49
0.7
 74
     0
 49
-0.8
 74
     0
  0
LTYPE
  5
21
330
5
100
AcDbSymbolTableRecord
100
AcDbLinetypeTableRecord
  2
GESTRICHELT
 70
     0
  3
-- -- -- -- --
 72
    65
 73
     7
 40
2.8
 49
0.9
 74
     0
 49
0.0
 74
     0
 49
0.9
 74
     0
 49
0.0
 74
     0
 49
0.2
 74
     0
 49
0.0
 74
     0
 49
-0.8
 74
     0
  0
LTYPE
  5
22
330
5
100
AcDbSymbolTableRecord
100
AcDbLinetypeTableRecord
  2
STRICHPUNKT
 70
     0
  3
--.--.--.--.--
 72
    65
 73
     4
 40
8.8
 49
5.5
 74
     0
 49
-1.3
 74
     0
 49
0.7
 74
     0
 49
-1.3
 74
     0
  0
LTYPE
  5
25
330
5
100
AcDbSymbolTableRecord
100
AcDbLinetypeTableRecord
  2
PHANTOM
 70
     0
  3
--..--..--..--
 72
    65
 73
     6
 40
14.2
 49
7.0
 74
     0
 49
-1.8
 74
     0
 49
0.9
 74
     0
 49
-1.8
 74
     0
 49
0.9
 74
     0
 49
-1.8
 74
     0
  0
LTYPE
  5
259
330
5
100
AcDbSymbolTableRecord
100
AcDbLinetypeTableRecord
  2
DASH
 70
     0
  3
DASH _ _ _ _ _
 72
    65
 73
     2
 40
0.75
 49
0.4
 74
     0
 49
-0.35
 74
     0
  0
LTYPE
  5
25A
330
5
100
AcDbSymbolTableRecord
100
AcDbLinetypeTableRecord
  2
LONGDASH_DASH
 70
     0
  3
LONGDASH_DASH __ . __ . __
 72
    65
 73
     4
 40
0.85
 49
0.4
 74
     0
 49
-0.2
 74
     0
 49
0.05
 74
     0
 49
-0.2
 74
     0
  0
LTYPE
  5
25B
330
5
100
AcDbSymbolTableRecord
100
AcDbLinetypeTableRecord
  2
LONGDASH_DASH_DASH
 70
     0
  3
LONGDASH_DASH_DASH __ . . __ . . __
 72
    65
 73
     6
 40
1.1
 49
0.4
 74
     0
 49
-0.2
 74
     0
 49
0.05
 74
     0
 49
-0.2
 74
     0
 49
0.05
 74
     0
 49
-0.2
 74
     0
  0
ENDTAB
  0
TABLE
  2
LAYER
  5
2
102
{ACAD_XDICTIONARY
360
278
102
}
330
0
100
AcDbSymbolTable
 70
    16
  0
LAYER
  5
222
330
2
100
AcDbSymbolTableRecord
100
AcDbLayerTableRecord
  2
200
 70
     0
 62
     2
  6
Continuous
370
    50
390
F
347
220
348
0
  0
LAYER
  5
25C
330
2
100
AcDbSymbolTableRecord
100
AcDbLayerTableRecord
  2
0
 70
     0
 62
     1
  6
Continuous
370
    -3
390
F
347
220
348
0
  0
LAYER
  5
25D
330
2
100
AcDbSymbolTableRecord
100
AcDbLayerTableRecord
  2
1
 70
     0
 62
     4
  6
Continuous
370
    50
390
F
347
220
348
0
  0
LAYER
  5
25E
330
2
100
AcDbSymbolTableRecord
100
AcDbLayerTableRecord
  2
2
 70
     0
 62
     7
  6
Continuous
370
    25
390
F
347
220
348
0
  0
LAYER
  5
25F
330
2
100
AcDbSymbolTableRecord
100
AcDbLayerTableRecord
  2
3
 70
     0
 62
     1
  6
DASH
370
    35
390
F
347
220
348
0
  0
LAYER
  5
260
330
2
100
AcDbSymbolTableRecord
100
AcDbLayerTableRecord
  2
4
 70
     0
 62
     2
  6
LONGDASH_DASH
370
    25
390
F
347
220
348
0
  0
LAYER
  5
261
330
2
100
AcDbSymbolTableRecord
100
AcDbLayerTableRecord
  2
6
 70
     0
 62
     5
  6
Continuous
370
    -3
390
F
347
220
348
0
  0
LAYER
  5
262
330
2
100
AcDbSymbolTableRecord
100
AcDbLayerTableRecord
  2
CUT
 70
     0
 62
     1
  6
Continuous
370
    25
390
F
347
220
348
0
  0
LAYER
  5
263
330
2
100
AcDbSymbolTableRecord
100
AcDbLayerTableRecord
  2
NOCUT
 70
     0
 62
     7
  6
Continuous
370
    25
390
F
347
220
348
0
  0
LAYER
  5
264
330
2
100
AcDbSymbolTableRecord
100
AcDbLayerTableRecord
  2
SK1
 70
     0
 62
     4
  6
Continuous
370
    50
390
F
347
220
348
0
  0
LAYER
  5
265
330
2
100
AcDbSymbolTableRecord
100
AcDbLayerTableRecord
  2
SK2
 70
     0
 62
     7
  6
Continuous
370
    25
390
F
347
220
348
0
  0
LAYER
  5
266
330
2
100
AcDbSymbolTableRecord
100
AcDbLayerTableRecord
  2
SK3
 70
     0
 62
     1
  6
DASH
370
    35
390
F
347
220
348
0
  0
LAYER
  5
267
330
2
100
AcDbSymbolTableRecord
100
AcDbLayerTableRecord
  2
SK4
 70
     0
 62
     2
  6
LONGDASH_DASH
370
    25
390
F
347
220
348
0
  0
LAYER
  5
268
330
2
100
AcDbSymbolTableRecord
100
AcDbLayerTableRecord
  2
SK6
 70
     0
 62
     5
  6
Continuous
370
    -3
390
F
347
220
348
0
  0
LAYER
  5
269
330
2
100
AcDbSymbolTableRecord
100
AcDbLayerTableRecord
  2
INFTOTAL
 70
     0
 62
     9
  6
Continuous
370
    18
390
F
347
220
348
0
  0
LAYER
  5
2E0
330
2
100
AcDbSymbolTableRecord
100
AcDbLayerTableRecord
  2
7
 70
     0
 62
     5
  6
Continuous
370
    18
390
F
347
220
348
0
1001
AcAecLayerStandard
1000

1000

  0
ENDTAB
  0
TABLE
  2
STYLE
  5
3
330
0
100
AcDbSymbolTable
 70
     3
  0
STYLE
  5
11
330
3
100
AcDbSymbolTableRecord
100
AcDbTextStyleTableRecord
  2
Standard
 70
     0
 40
0.0
 41
1.0
 50
0.0
 71
     0
 42
0.2
  3
txt
  4

  0
STYLE
  5
221
330
3
100
AcDbSymbolTableRecord
100
AcDbTextStyleTableRecord
  2
BMG_Text
 70
     0
 40
3.5
 41
1.0
 50
0.0
 71
     0
 42
0.2
  3
monos.ttf
  4

1001
ACAD
1000
Monospac821 BT
1071
       49
  0
STYLE
  5
2E6
330
3
100
AcDbSymbolTableRecord
100
AcDbTextStyleTableRecord
  2
SLDTEXTSTYLE0
 70
     0
 40
0.0
 41
0.605
 50
0.0
 71
     0
 42
0.2
  3
TXT
  4

  0
ENDTAB
  0
TABLE
  2
VIEW
  5
6
330
0
100
AcDbSymbolTable
 70
     0
  0
ENDTAB
  0
TABLE
  2
UCS
  5
7
330
0
100
AcDbSymbolTable
 70
     0
  0
ENDTAB
  0
TABLE
  2
APPID
  5
9
330
0
100
AcDbSymbolTable
 70
     3
  0
APPID
  5
12
330
9
100
AcDbSymbolTableRecord
100
AcDbRegAppTableRecord
  2
ACAD
 70
     0
  0
APPID
  5
2E1
330
9
100
AcDbSymbolTableRecord
100
AcDbRegAppTableRecord
  2
AcAecLayerStandard
 70
     0
  0
APPID
  5
2E9
330
9
100
AcDbSymbolTableRecord
100
AcDbRegAppTableRecord
  2
PE_URL
 70
     0
  0
ENDTAB
  0
TABLE
  2
DIMSTYLE
  5
A
330
0
100
AcDbSymbolTable
 70
     6
100
AcDbDimStyleTable
  0
DIMSTYLE
105
28
330
A
100
AcDbSymbolTableRecord
100
AcDbDimStyleTableRecord
  2
Standard
 70
     0
178
     0
340
11
  0
DIMSTYLE
105
2E2
330
A
100
AcDbSymbolTableRecord
100
AcDbDimStyleTableRecord
  2
Matthias
 70
     0
 41
3.0
 44
2.0
 73
     0
 77
     1
140
3.0
147
2.0
178
     0
340
11
  0
DIMSTYLE
105
2E4
330
A
100
AcDbSymbolTableRecord
100
AcDbDimStyleTableRecord
  2
ISO-25
 70
     0
 41
2.5
 42
0.625
 43
3.75
 44
1.25
 73
     0
 74
     0
 77
     1
 78
     8
140
2.5
141
2.5
143
0.0393700787
147
0.625
171
     3
172
     1
178
     0
271
     2
272
     2
274
     3
278
    44
283
     0
284
     8
340
11
  0
DIMSTYLE
105
2E5
330
A
100
AcDbSymbolTableRecord
100
AcDbDimStyleTableRecord
  2
SLDDIMSTYLE0
 70
     0
 41
3.5
 44
0.0
 45
0.000000001
 73
     0
 74
     0
 77
     1
 78
    12
 79
     3
140
3.5
144
0.5
147
0.875
173
     1
178
     0
271
     2
272
     1
276
     2
284
    12
340
2E6
  0
DIMSTYLE
105
2E7
330
A
100
AcDbSymbolTableRecord
100
AcDbDimStyleTableRecord
  2
SLDDIMSTYLE1
 70
     0
 41
3.5
 44
0.0
 45
0.000000001
 73
     0
 74
     0
 77
     1
 78
    12
 79
     3
140
3.5
144
0.5
147
0.875
173
     1
178
     0
271
     2
272
     3
276
     2
284
    12
340
2E6
  0
DIMSTYLE
105
2E8
330
A
100
AcDbSymbolTableRecord
100
AcDbDimStyleTableRecord
  2
SLDDIMSTYLE2
 70
     0
 41
3.5
 44
0.0
 45
0.000000001
 73
     0
 74
     0
 77
     1
 78
    12
 79
     3
140
3.5
147
0.875
173
     1
178
     0
271
     2
272
     0
276
     2
284
    12
340
2E6
  0
ENDTAB
  0
TABLE
  2
BLOCK_RECORD
  5
1
330
0
100
AcDbSymbolTable
 70
     0
  0
BLOCK_RECORD
  5
1D
102
{ACAD_XDICTIONARY
360
2F9
102
}
330
1
100
AcDbSymbolTableRecord
100
AcDbBlockTableRecord
  2
*Model_Space
340
1E
 70
     0
280
     1
281
     0
  0
BLOCK_RECORD
  5
1B
330
1
100
AcDbSymbolTableRecord
100
AcDbBlockTableRecord
  2
*Paper_Space
340
1C
 70
     0
280
     1
281
     0
  0
ENDTAB
  0
ENDSEC
  0
SECTION
  2
BLOCKS
  0
BLOCK
  5
20A
330
1D
100
AcDbEntity
  8
0
100
AcDbBlockBegin
  2
*Model_Space
 70
     0
 10
0.0
 20
0.0
 30
0.0
  3
*Model_Space
  1

  0
ENDBLK
  5
20B
330
1D
100
AcDbEntity
  8
0
100
AcDbBlockEnd
  0
BLOCK
  5
208
330
1B
100
AcDbEntity
 67
     1
  8
0
100
AcDbBlockBegin
  2
*Paper_Space
 70
     0
 10
0.0
 20
0.0
 30
0.0
  3
*Paper_Space
  1

  0
ENDBLK
  5
209
330
1B
100
AcDbEntity
 67
     1
  8
0
100
AcDbBlockEnd
  0
ENDSEC
  0
SECTION
  2
ENTITIES
  0
LINE
  5
29
330
1D
100
AcDbEntity
  8
SK3
100
AcDbLine
 10
39.488558188
 20
42.658107578
 30
0.0
 11
39.488558188
 21
-24.292339295
 31
0.0
  0
LINE
  5
2A
330
1D
100
AcDbEntity
  8
SK3
100
AcDbLine
 10
11.789489537
 20
-30.78234009400001
 30
0.0
 11
10.35188511
 21
-28.292339295
 31
0.0
  0
LINE
  5
2B
330
1D
100
AcDbEntity
  8
SK3
100
AcDbLine
 10
19.999999553
 20
-32.98234008200001
 30
0.0
 11
11.789489537
 21
-30.78234009400001
 31
0.0
  0
LINE
  5
2C
330
1D
100
AcDbEntity
  8
1
100
AcDbLine
 10
41.873756796
 20
-17.292341217
 30
0.0
 11
41.832540184
 21
-16.625905409
 31
0.0
  0
LINE
  5
2D
330
1D
100
AcDbEntity
  8
1
100
AcDbLine
 10
41.832540184
 20
-16.625905409
 30
0.0
 11
41.709627956
 21
-15.97136445300001
 31
0.0
  0
LINE
  5
2E
330
1D
100
AcDbEntity
  8
1
100
AcDbLine
 10
41.709627956
 20
-15.97136445300001
 30
0.0
 11
41.507206857
 21
-15.340393409
 31
0.0
  0
LINE
  5
2F
330
1D
100
AcDbEntity
  8
1
100
AcDbLine
 10
41.507206857
 20
-15.340393409
 30
0.0
 11
41.22889787
 21
-14.744257554
 31
0.0
  0
LINE
  5
30
330
1D
100
AcDbEntity
  8
1
100
AcDbLine
 10
41.22889787
 20
-14.744257554
 30
0.0
 11
40.879659355
 21
-14.193588867
 31
0.0
  0
LINE
  5
31
330
1D
100
AcDbEntity
  8
1
100
AcDbLine
 10
40.879659355
 20
-14.193588867
 30
0.0
 11
40.465731174
 21
-13.698222115
 31
0.0
  0
LINE
  5
32
330
1D
100
AcDbEntity
  8
1
100
AcDbLine
 10
40.465731174
 20
-13.698222115
 30
0.0
 11
39.994493127
 21
-13.266989961
 31
0.0
  0
LINE
  5
33
330
1D
100
AcDbEntity
  8
1
100
AcDbLine
 10
39.994493127
 20
-13.266989961
 30
0.0
 11
39.474356919
 21
-12.907588854
 31
0.0
  0
LINE
  5
34
330
1D
100
AcDbEntity
  8
1
100
AcDbLine
 10
39.474356919
 20
-12.907588854
 30
0.0
 11
38.914605975
 21
-12.62643747
 31
0.0
  0
LINE
  5
35
330
1D
100
AcDbEntity
  8
1
100
AcDbLine
 10
38.914605975
 20
-12.62643747
 30
0.0
 11
38.325227797
 21
-12.428546324
 31
0.0
  0
LINE
  5
36
330
1D
100
AcDbEntity
  8
1
100
AcDbLine
 10
38.325227797
 20
-12.428546324
 30
0.0
 11
37.716742605
 21
-12.317450717
 31
0.0
  0
LINE
  5
37
330
1D
100
AcDbEntity
  8
1
100
AcDbLine
 10
37.716742605
 20
-12.317450717
 30
0.0
 11
37.10000217
 21
-12.295132503
 31
0.0
  0
LINE
  5
38
330
1D
100
AcDbEntity
  8
1
100
AcDbLine
 10
37.10000217
 20
-12.295132503
 30
0.0
 11
36.486018449
 21
-12.361990288
 31
0.0
  0
LINE
  5
39
330
1D
100
AcDbEntity
  8
1
100
AcDbLine
 10
36.486018449
 20
-12.361990288
 30
0.0
 11
35.885743797
 21
-12.516828254
 31
0.0
  0
LINE
  5
3A
330
1D
100
AcDbEntity
  8
1
100
AcDbLine
 10
35.885743797
 20
-12.516828254
 30
0.0
 11
35.309895873
 21
-12.75688596000001
 31
0.0
  0
LINE
  5
3B
330
1D
100
AcDbEntity
  8
1
100
AcDbLine
 10
35.309895873
 20
-12.75688596000001
 30
0.0
 11
34.768745303
 21
-13.077879324
 31
0.0
  0
LINE
  5
3C
330
1D
100
AcDbEntity
  8
1
100
AcDbLine
 10
34.768745303
 20
-13.077879324
 30
0.0
 11
34.271948039
 21
-13.474078849
 31
0.0
  0
LINE
  5
3D
330
1D
100
AcDbEntity
  8
1
100
AcDbLine
 10
34.271948039
 20
-13.474078849
 30
0.0
 11
33.828373998
 21
-13.93841765800001
 31
0.0
  0
LINE
  5
3E
330
1D
100
AcDbEntity
  8
1
100
AcDbLine
 10
33.828373998
 20
-13.93841765800001
 30
0.0
 11
33.445935696
 21
-14.46260325600001
 31
0.0
  0
LINE
  5
3F
330
1D
100
AcDbEntity
  8
1
100
AcDbLine
 10
33.445935696
 20
-14.46260325600001
 30
0.0
 11
33.131461591
 21
-15.037288889
 31
0.0
  0
LINE
  5
40
330
1D
100
AcDbEntity
  8
1
100
AcDbLine
 10
33.131461591
 20
-15.037288889
 30
0.0
 11
32.890558243
 21
-15.65221510800001
 31
0.0
  0
LINE
  5
41
330
1D
100
AcDbEntity
  8
1
100
AcDbLine
 10
32.890558243
 20
-15.65221510800001
 30
0.0
 11
32.727528363
 21
-16.296410933
 31
0.0
  0
LINE
  5
42
330
1D
100
AcDbEntity
  8
1
100
AcDbLine
 10
32.727528363
 20
-16.296410933
 30
0.0
 11
32.645277679
 21
-16.95837639200001
 31
0.0
  0
LINE
  5
43
330
1D
100
AcDbEntity
  8
1
100
AcDbLine
 10
32.645277679
 20
-16.95837639200001
 30
0.0
 11
32.645277679
 21
-17.62630231600001
 31
0.0
  0
LINE
  5
44
330
1D
100
AcDbEntity
  8
1
100
AcDbLine
 10
32.645277679
 20
-17.62630231600001
 30
0.0
 11
32.727528363
 21
-18.288271501
 31
0.0
  0
LINE
  5
45
330
1D
100
AcDbEntity
  8
1
100
AcDbLine
 10
32.727528363
 20
-18.288271501
 30
0.0
 11
32.890558243
 21
-18.93246360100001
 31
0.0
  0
LINE
  5
46
330
1D
100
AcDbEntity
  8
1
100
AcDbLine
 10
32.890558243
 20
-18.93246360100001
 30
0.0
 11
33.131461591
 21
-19.54738982000001
 31
0.0
  0
LINE
  5
47
330
1D
100
AcDbEntity
  8
1
100
AcDbLine
 10
33.131461591
 20
-19.54738982000001
 30
0.0
 11
33.445935696
 21
-20.12207545300001
 31
0.0
  0
LINE
  5
48
330
1D
100
AcDbEntity
  8
1
100
AcDbLine
 10
33.445935696
 20
-20.12207545300001
 30
0.0
 11
33.828373998
 21
-20.646262914
 31
0.0
  0
LINE
  5
49
330
1D
100
AcDbEntity
  8
1
100
AcDbLine
 10
33.828373998
 20
-20.646262914
 30
0.0
 11
34.271948039
 21
-21.110601723
 31
0.0
  0
LINE
  5
4A
330
1D
100
AcDbEntity
  8
1
100
AcDbLine
 10
34.271948039
 20
-21.110601723
 30
0.0
 11
34.768745303
 21
-21.506801247
 31
0.0
  0
LINE
  5
4B
330
1D
100
AcDbEntity
  8
1
100
AcDbLine
 10
34.768745303
 20
-21.506801247
 30
0.0
 11
35.309895873
 21
-21.827794611
 31
0.0
  0
LINE
  5
4C
330
1D
100
AcDbEntity
  8
1
100
AcDbLine
 10
35.309895873
 20
-21.827794611
 30
0.0
 11
35.885743797
 21
-22.06785231800001
 31
0.0
  0
LINE
  5
4D
330
1D
100
AcDbEntity
  8
1
100
AcDbLine
 10
35.885743797
 20
-22.06785231800001
 30
0.0
 11
36.486018449
 21
-22.222692147
 31
0.0
  0
LINE
  5
4E
330
1D
100
AcDbEntity
  8
1
100
AcDbLine
 10
36.486018449
 20
-22.222692147
 30
0.0
 11
37.10000217
 21
-22.28954806900001
 31
0.0
  0
LINE
  5
4F
330
1D
100
AcDbEntity
  8
1
100
AcDbLine
 10
37.10000217
 20
-22.28954806900001
 30
0.0
 11
37.716742605
 21
-22.267229855
 31
0.0
  0
LINE
  5
50
330
1D
100
AcDbEntity
  8
1
100
AcDbLine
 10
37.716742605
 20
-22.267229855
 30
0.0
 11
38.325227797
 21
-22.156134247
 31
0.0
  0
LINE
  5
51
330
1D
100
AcDbEntity
  8
1
100
AcDbLine
 10
38.325227797
 20
-22.156134247
 30
0.0
 11
38.914605975
 21
-21.958243102
 31
0.0
  0
LINE
  5
52
330
1D
100
AcDbEntity
  8
1
100
AcDbLine
 10
38.914605975
 20
-21.958243102
 30
0.0
 11
39.474356919
 21
-21.67708985500001
 31
0.0
  0
LINE
  5
53
330
1D
100
AcDbEntity
  8
1
100
AcDbLine
 10
39.474356919
 20
-21.67708985500001
 30
0.0
 11
39.994493127
 21
-21.317690611
 31
0.0
  0
LINE
  5
54
330
1D
100
AcDbEntity
  8
1
100
AcDbLine
 10
39.994493127
 20
-21.317690611
 30
0.0
 11
40.465731174
 21
-20.886458456
 31
0.0
  0
LINE
  5
55
330
1D
100
AcDbEntity
  8
1
100
AcDbLine
 10
40.465731174
 20
-20.886458456
 30
0.0
 11
40.879659355
 21
-20.391089841
 31
0.0
  0
LINE
  5
56
330
1D
100
AcDbEntity
  8
1
100
AcDbLine
 10
40.879659355
 20
-20.391089841
 30
0.0
 11
41.22889787
 21
-19.84042301700001
 31
0.0
  0
LINE
  5
57
330
1D
100
AcDbEntity
  8
1
100
AcDbLine
 10
41.22889787
 20
-19.84042301700001
 30
0.0
 11
41.507206857
 21
-19.244287163
 31
0.0
  0
LINE
  5
58
330
1D
100
AcDbEntity
  8
1
100
AcDbLine
 10
41.507206857
 20
-19.244287163
 30
0.0
 11
41.709627956
 21
-18.613316119
 31
0.0
  0
LINE
  5
59
330
1D
100
AcDbEntity
  8
1
100
AcDbLine
 10
41.709627956
 20
-18.613316119
 30
0.0
 11
41.832540184
 21
-17.9587733
 31
0.0
  0
LINE
  5
5A
330
1D
100
AcDbEntity
  8
1
100
AcDbLine
 10
41.832540184
 20
-17.9587733
 30
0.0
 11
41.873756796
 21
-17.292341217
 31
0.0
  0
LINE
  5
5B
330
1D
100
AcDbEntity
  8
1
100
AcDbLine
 10
16.368655488
 20
35.18457152
 30
0.0
 11
16.476862133
 21
34.947583452
 31
0.0
  0
LINE
  5
5C
330
1D
100
AcDbEntity
  8
1
100
AcDbLine
 10
16.476862133
 20
34.947583452
 30
0.0
 11
16.499871388
 21
34.874105826
 31
0.0
  0
LINE
  5
5D
330
1D
100
AcDbEntity
  8
1
100
AcDbLine
 10
16.499871388
 20
34.874105826
 30
0.0
 11
16.617970541
 21
34.61943008
 31
0.0
  0
LINE
  5
5E
330
1D
100
AcDbEntity
  8
1
100
AcDbLine
 10
16.617970541
 20
34.61943008
 30
0.0
 11
16.658280045
 21
34.51135940899999
 31
0.0
  0
LINE
  5
5F
330
1D
100
AcDbEntity
  8
1
100
AcDbLine
 10
16.658280045
 20
34.51135940899999
 30
0.0
 11
16.783865169
 21
34.24456156799999
 31
0.0
  0
LINE
  5
60
330
1D
100
AcDbEntity
  8
1
100
AcDbLine
 10
16.783865169
 20
34.24456156799999
 30
0.0
 11
16.838785261
 21
34.10799987599999
 31
0.0
  0
LINE
  5
61
330
1D
100
AcDbEntity
  8
1
100
AcDbLine
 10
16.838785261
 20
34.10799987599999
 30
0.0
 11
17.035590485
 21
33.676983789
 31
0.0
  0
LINE
  5
62
330
1D
100
AcDbEntity
  8
1
100
AcDbLine
 10
17.035590485
 20
33.676983789
 30
0.0
 11
17.242366448
 21
33.232169226
 31
0.0
  0
LINE
  5
63
330
1D
100
AcDbEntity
  8
1
100
AcDbLine
 10
17.242366448
 20
33.232169226
 30
0.0
 11
17.452469096
 21
32.787861303
 31
0.0
  0
LINE
  5
64
330
1D
100
AcDbEntity
  8
1
100
AcDbLine
 10
17.452469096
 20
32.787861303
 30
0.0
 11
17.659144476
 21
32.35832043
 31
0.0
  0
LINE
  5
65
330
1D
100
AcDbEntity
  8
1
100
AcDbLine
 10
17.659144476
 20
32.35832043
 30
0.0
 11
17.855752259
 21
31.957367435
 31
0.0
  0
LINE
  5
66
330
1D
100
AcDbEntity
  8
1
100
AcDbLine
 10
17.855752259
 20
31.957367435
 30
0.0
 11
18.035970628
 21
31.597891823
 31
0.0
  0
LINE
  5
67
330
1D
100
AcDbEntity
  8
1
100
AcDbLine
 10
18.035970628
 20
31.597891823
 30
0.0
 11
18.194008619
 21
31.291434542
 31
0.0
  0
LINE
  5
68
330
1D
100
AcDbEntity
  8
1
100
AcDbLine
 10
18.194008619
 20
31.291434542
 30
0.0
 11
18.324786797
 21
31.04785271
 31
0.0
  0
LINE
  5
69
330
1D
100
AcDbEntity
  8
1
100
AcDbLine
 10
18.324786797
 20
31.04785271
 30
0.0
 11
18.424101174
 21
30.874976889
 31
0.0
  0
LINE
  5
6A
330
1D
100
AcDbEntity
  8
1
100
AcDbLine
 10
18.424101174
 20
30.874976889
 30
0.0
 11
18.488759175
 21
30.778357759
 31
0.0
  0
LINE
  5
6B
330
1D
100
AcDbEntity
  8
1
100
AcDbLine
 10
18.488759175
 20
30.778357759
 30
0.0
 11
18.516683951
 21
30.761102215
 31
0.0
  0
LINE
  5
6C
330
1D
100
AcDbEntity
  8
1
100
AcDbLine
 10
18.516683951
 20
30.761102215
 30
0.0
 11
18.506977707
 21
30.823769048
 31
0.0
  0
LINE
  5
6D
330
1D
100
AcDbEntity
  8
1
100
AcDbLine
 10
18.506977707
 20
30.823769048
 30
0.0
 11
18.459951505
 21
30.964346603
 31
0.0
  0
LINE
  5
6E
330
1D
100
AcDbEntity
  8
1
100
AcDbLine
 10
18.459951505
 20
30.964346603
 30
0.0
 11
18.377117813
 21
31.178304926
 31
0.0
  0
LINE
  5
6F
330
1D
100
AcDbEntity
  8
1
100
AcDbLine
 10
18.377117813
 20
31.178304926
 30
0.0
 11
18.261140212
 21
31.458774582
 31
0.0
  0
LINE
  5
70
330
1D
100
AcDbEntity
  8
1
100
AcDbLine
 10
18.261140212
 20
31.458774582
 30
0.0
 11
18.115742132
 21
31.796740368
 31
0.0
  0
LINE
  5
71
330
1D
100
AcDbEntity
  8
1
100
AcDbLine
 10
18.115742132
 20
31.796740368
 30
0.0
 11
17.945600674
 21
32.181346789
 31
0.0
  0
LINE
  5
72
330
1D
100
AcDbEntity
  8
1
100
AcDbLine
 10
17.945600674
 20
32.181346789
 30
0.0
 11
17.7561827
 21
32.60021843
 31
0.0
  0
LINE
  5
73
330
1D
100
AcDbEntity
  8
1
100
AcDbLine
 10
17.7561827
 20
32.60021843
 30
0.0
 11
17.5535772
 21
33.039899543
 31
0.0
  0
LINE
  5
74
330
1D
100
AcDbEntity
  8
1
100
AcDbLine
 10
17.5535772
 20
33.039899543
 30
0.0
 11
17.344295978
 21
33.486256376
 31
0.0
  0
LINE
  5
75
330
1D
100
AcDbEntity
  8
1
100
AcDbLine
 10
17.344295978
 20
33.486256376
 30
0.0
 11
17.135063186
 21
33.924946562
 31
0.0
  0
LINE
  5
76
330
1D
100
AcDbEntity
  8
1
100
AcDbLine
 10
17.135063186
 20
33.924946562
 30
0.0
 11
16.932606697
 21
34.341873601
 31
0.0
  0
LINE
  5
77
330
1D
100
AcDbEntity
  8
1
100
AcDbLine
 10
16.932606697
 20
34.341873601
 30
0.0
 11
16.74343273
 21
34.72362645
 31
0.0
  0
LINE
  5
78
330
1D
100
AcDbEntity
  8
1
100
AcDbLine
 10
16.74343273
 20
34.72362645
 30
0.0
 11
16.57362096
 21
35.05794145199999
 31
0.0
  0
LINE
  5
79
330
1D
100
AcDbEntity
  8
1
100
AcDbLine
 10
16.57362096
 20
35.05794145199999
 30
0.0
 11
16.428628936
 21
35.334067419
 31
0.0
  0
LINE
  5
7A
330
1D
100
AcDbEntity
  8
1
100
AcDbLine
 10
16.428628936
 20
35.334067419
 30
0.0
 11
16.313116998
 21
35.543145612
 31
0.0
  0
LINE
  5
7B
330
1D
100
AcDbEntity
  8
1
100
AcDbLine
 10
16.313116998
 20
35.543145612
 30
0.0
 11
16.230799258
 21
35.678433255
 31
0.0
  0
LINE
  5
7C
330
1D
100
AcDbEntity
  8
1
100
AcDbLine
 10
16.230799258
 20
35.678433255
 30
0.0
 11
16.184320673
 21
35.735601559
 31
0.0
  0
LINE
  5
7D
330
1D
100
AcDbEntity
  8
1
100
AcDbLine
 10
16.184320673
 20
35.735601559
 30
0.0
 11
16.175175086
 21
35.712802783
 31
0.0
  0
LINE
  5
7E
330
1D
100
AcDbEntity
  8
1
100
AcDbLine
 10
16.175175086
 20
35.712802783
 30
0.0
 11
16.20365493
 21
35.610767082
 31
0.0
  0
LINE
  5
7F
330
1D
100
AcDbEntity
  8
1
100
AcDbLine
 10
16.20365493
 20
35.610767082
 30
0.0
 11
16.26884751
 21
35.432787612
 31
0.0
  0
LINE
  5
80
330
1D
100
AcDbEntity
  8
1
100
AcDbLine
 10
16.26884751
 20
35.432787612
 30
0.0
 11
16.368655488
 21
35.18457152
 31
0.0
  0
LINE
  5
81
330
1D
100
AcDbEntity
  8
1
100
AcDbLine
 10
34.597527236
 20
-17.292341217
 30
0.0
 11
34.639634192
 21
-17.813285812
 31
0.0
  0
LINE
  5
82
330
1D
100
AcDbEntity
  8
1
100
AcDbLine
 10
34.639634192
 20
-17.813285812
 30
0.0
 11
34.764677286
 21
-18.31840164900001
 31
0.0
  0
LINE
  5
83
330
1D
100
AcDbEntity
  8
1
100
AcDbLine
 10
34.764677286
 20
-18.31840164900001
 30
0.0
 11
34.968856722
 21
-18.792340532
 31
0.0
  0
LINE
  5
84
330
1D
100
AcDbEntity
  8
1
100
AcDbLine
 10
34.968856722
 20
-18.792340532
 30
0.0
 11
35.245966166
 21
-19.22070235
 31
0.0
  0
LINE
  5
85
330
1D
100
AcDbEntity
  8
1
100
AcDbLine
 10
35.245966166
 20
-19.22070235
 30
0.0
 11
35.587590188
 21
-19.59047280200001
 31
0.0
  0
LINE
  5
86
330
1D
100
AcDbEntity
  8
1
100
AcDbLine
 10
35.587590188
 20
-19.59047280200001
 30
0.0
 11
35.983346403
 21
-19.890416413
 31
0.0
  0
LINE
  5
87
330
1D
100
AcDbEntity
  8
1
100
AcDbLine
 10
35.983346403
 20
-19.890416413
 30
0.0
 11
36.421209574
 21
-20.111417398
 31
0.0
  0
LINE
  5
88
330
1D
100
AcDbEntity
  8
1
100
AcDbLine
 10
36.421209574
 20
-20.111417398
 30
0.0
 11
36.887876689
 21
-20.246762782
 31
0.0
  0
LINE
  5
89
330
1D
100
AcDbEntity
  8
1
100
AcDbLine
 10
36.887876689
 20
-20.246762782
 30
0.0
 11
37.36916557
 21
-20.292339846
 31
0.0
  0
LINE
  5
8A
330
1D
100
AcDbEntity
  8
1
100
AcDbLine
 10
37.36916557
 20
-20.292339846
 30
0.0
 11
37.85045445
 21
-20.246762782
 31
0.0
  0
LINE
  5
8B
330
1D
100
AcDbEntity
  8
1
100
AcDbLine
 10
37.85045445
 20
-20.246762782
 30
0.0
 11
38.317121565
 21
-20.111417398
 31
0.0
  0
LINE
  5
8C
330
1D
100
AcDbEntity
  8
1
100
AcDbLine
 10
38.317121565
 20
-20.111417398
 30
0.0
 11
38.754984736
 21
-19.890416413
 31
0.0
  0
LINE
  5
8D
330
1D
100
AcDbEntity
  8
1
100
AcDbLine
 10
38.754984736
 20
-19.890416413
 30
0.0
 11
39.150740951
 21
-19.59047280200001
 31
0.0
  0
LINE
  5
8E
330
1D
100
AcDbEntity
  8
1
100
AcDbLine
 10
39.150740951
 20
-19.59047280200001
 30
0.0
 11
39.492364973
 21
-19.22070235
 31
0.0
  0
LINE
  5
8F
330
1D
100
AcDbEntity
  8
1
100
AcDbLine
 10
39.492364973
 20
-19.22070235
 30
0.0
 11
39.769474417
 21
-18.792340532
 31
0.0
  0
LINE
  5
90
330
1D
100
AcDbEntity
  8
1
100
AcDbLine
 10
39.769474417
 20
-18.792340532
 30
0.0
 11
39.973653853
 21
-18.31840164900001
 31
0.0
  0
LINE
  5
91
330
1D
100
AcDbEntity
  8
1
100
AcDbLine
 10
39.973653853
 20
-18.31840164900001
 30
0.0
 11
40.098696947
 21
-17.813285812
 31
0.0
  0
LINE
  5
92
330
1D
100
AcDbEntity
  8
1
100
AcDbLine
 10
40.098696947
 20
-17.813285812
 30
0.0
 11
40.140803903
 21
-17.292341217
 31
0.0
  0
LINE
  5
93
330
1D
100
AcDbEntity
  8
1
100
AcDbLine
 10
40.140803903
 20
-17.292341217
 30
0.0
 11
40.098696947
 21
-16.771396622
 31
0.0
  0
LINE
  5
94
330
1D
100
AcDbEntity
  8
1
100
AcDbLine
 10
40.098696947
 20
-16.771396622
 30
0.0
 11
39.973653853
 21
-16.26628078500001
 31
0.0
  0
LINE
  5
95
330
1D
100
AcDbEntity
  8
1
100
AcDbLine
 10
39.973653853
 20
-16.26628078500001
 30
0.0
 11
39.769474417
 21
-15.792338177
 31
0.0
  0
LINE
  5
96
330
1D
100
AcDbEntity
  8
1
100
AcDbLine
 10
39.769474417
 20
-15.792338177
 30
0.0
 11
39.492364973
 21
-15.363978222
 31
0.0
  0
LINE
  5
97
330
1D
100
AcDbEntity
  8
1
100
AcDbLine
 10
39.492364973
 20
-15.363978222
 30
0.0
 11
39.150740951
 21
-14.99420590700001
 31
0.0
  0
LINE
  5
98
330
1D
100
AcDbEntity
  8
1
100
AcDbLine
 10
39.150740951
 20
-14.99420590700001
 30
0.0
 11
38.754984736
 21
-14.694264158
 31
0.0
  0
LINE
  5
99
330
1D
100
AcDbEntity
  8
1
100
AcDbLine
 10
38.754984736
 20
-14.694264158
 30
0.0
 11
38.317121565
 21
-14.473261311
 31
0.0
  0
LINE
  5
9A
330
1D
100
AcDbEntity
  8
1
100
AcDbLine
 10
38.317121565
 20
-14.473261311
 30
0.0
 11
37.85045445
 21
-14.33791779000001
 31
0.0
  0
LINE
  5
9B
330
1D
100
AcDbEntity
  8
1
100
AcDbLine
 10
37.85045445
 20
-14.33791779000001
 30
0.0
 11
37.36916557
 21
-14.292338863
 31
0.0
  0
LINE
  5
9C
330
1D
100
AcDbEntity
  8
1
100
AcDbLine
 10
37.36916557
 20
-14.292338863
 30
0.0
 11
36.887876689
 21
-14.33791779000001
 31
0.0
  0
LINE
  5
9D
330
1D
100
AcDbEntity
  8
1
100
AcDbLine
 10
36.887876689
 20
-14.33791779000001
 30
0.0
 11
36.421209574
 21
-14.473261311
 31
0.0
  0
LINE
  5
9E
330
1D
100
AcDbEntity
  8
1
100
AcDbLine
 10
36.421209574
 20
-14.473261311
 30
0.0
 11
35.983346403
 21
-14.694264158
 31
0.0
  0
LINE
  5
9F
330
1D
100
AcDbEntity
  8
1
100
AcDbLine
 10
35.983346403
 20
-14.694264158
 30
0.0
 11
35.587590188
 21
-14.99420590700001
 31
0.0
  0
LINE
  5
A0
330
1D
100
AcDbEntity
  8
1
100
AcDbLine
 10
35.587590188
 20
-14.99420590700001
 30
0.0
 11
35.245966166
 21
-15.363978222
 31
0.0
  0
LINE
  5
A1
330
1D
100
AcDbEntity
  8
1
100
AcDbLine
 10
35.245966166
 20
-15.363978222
 30
0.0
 11
34.968856722
 21
-15.792338177
 31
0.0
  0
LINE
  5
A2
330
1D
100
AcDbEntity
  8
1
100
AcDbLine
 10
34.968856722
 20
-15.792338177
 30
0.0
 11
34.764677286
 21
-16.26628078500001
 31
0.0
  0
LINE
  5
A3
330
1D
100
AcDbEntity
  8
1
100
AcDbLine
 10
34.764677286
 20
-16.26628078500001
 30
0.0
 11
34.639634192
 21
-16.771396622
 31
0.0
  0
LINE
  5
A4
330
1D
100
AcDbEntity
  8
1
100
AcDbLine
 10
34.639634192
 20
-16.771396622
 30
0.0
 11
34.597527236
 21
-17.292341217
 31
0.0
  0
LINE
  5
A5
330
1D
100
AcDbEntity
  8
1
100
AcDbLine
 10
14.511441812
 20
42.705440894
 30
0.0
 11
14.611291699
 21
42.692000047
 31
0.0
  0
LINE
  5
A6
330
1D
100
AcDbEntity
  8
1
100
AcDbLine
 10
14.611291699
 20
42.692000047
 30
0.0
 11
14.800698496
 21
42.66683198499999
 31
0.0
  0
LINE
  5
A7
330
1D
100
AcDbEntity
  8
1
100
AcDbLine
 10
14.800698496
 20
42.66683198499999
 30
0.0
 11
15.416557901
 21
42.58758761
 31
0.0
  0
LINE
  5
A8
330
1D
100
AcDbEntity
  8
1
100
AcDbLine
 10
15.416557901
 20
42.58758761
 30
0.0
 11
15.856698155
 21
42.53342934
 31
0.0
  0
LINE
  5
A9
330
1D
100
AcDbEntity
  8
1
100
AcDbLine
 10
15.856698155
 20
42.53342934
 30
0.0
 11
16.376374289
 21
42.47214831399999
 31
0.0
  0
LINE
  5
AA
330
1D
100
AcDbEntity
  8
1
100
AcDbLine
 10
16.376374289
 20
42.47214831399999
 30
0.0
 11
17.608441412
 21
42.33841784299999
 31
0.0
  0
LINE
  5
AB
330
1D
100
AcDbEntity
  8
1
100
AcDbLine
 10
17.608441412
 20
42.33841784299999
 30
0.0
 11
18.344430253
 21
42.266311124
 31
0.0
  0
LINE
  5
AC
330
1D
100
AcDbEntity
  8
1
100
AcDbLine
 10
18.344430253
 20
42.266311124
 30
0.0
 11
19.143002108
 21
42.194658891
 31
0.0
  0
LINE
  5
AD
330
1D
100
AcDbEntity
  8
1
100
AcDbLine
 10
19.143002108
 20
42.194658891
 30
0.0
 11
19.979652017
 21
42.12698526699999
 31
0.0
  0
LINE
  5
AE
330
1D
100
AcDbEntity
  8
1
100
AcDbLine
 10
19.979652017
 20
42.12698526699999
 30
0.0
 11
20.865127444
 21
42.06358827699999
 31
0.0
  0
LINE
  5
AF
330
1D
100
AcDbEntity
  8
1
100
AcDbLine
 10
20.865127444
 20
42.06358827699999
 30
0.0
 11
21.821284667
 21
42.004706338
 31
0.0
  0
LINE
  5
B0
330
1D
100
AcDbEntity
  8
1
100
AcDbLine
 10
21.821284667
 20
42.004706338
 30
0.0
 11
22.815840319
 21
41.95395298299999
 31
0.0
  0
LINE
  5
B1
330
1D
100
AcDbEntity
  8
1
100
AcDbLine
 10
22.815840319
 20
41.95395298299999
 30
0.0
 11
23.808935657
 21
41.914047674
 31
0.0
  0
LINE
  5
B2
330
1D
100
AcDbEntity
  8
1
100
AcDbLine
 10
23.808935657
 20
41.914047674
 30
0.0
 11
24.824371561
 21
41.884312406
 31
0.0
  0
LINE
  5
B3
330
1D
100
AcDbEntity
  8
1
100
AcDbLine
 10
24.824371561
 20
41.884312406
 30
0.0
 11
25.885747746
 21
41.865291074
 31
0.0
  0
LINE
  5
B4
330
1D
100
AcDbEntity
  8
1
100
AcDbLine
 10
25.885747746
 20
41.865291074
 30
0.0
 11
26.955422014
 21
41.858503595
 31
0.0
  0
LINE
  5
B5
330
1D
100
AcDbEntity
  8
1
100
AcDbLine
 10
26.955422014
 20
41.858503595
 30
0.0
 11
29.010813683
 21
41.880549863
 31
0.0
  0
LINE
  5
B6
330
1D
100
AcDbEntity
  8
1
100
AcDbLine
 10
29.010813683
 20
41.880549863
 30
0.0
 11
30.050283298
 21
41.90925695
 31
0.0
  0
LINE
  5
B7
330
1D
100
AcDbEntity
  8
1
100
AcDbLine
 10
30.050283298
 20
41.90925695
 30
0.0
 11
31.06749244
 21
41.948707775
 31
0.0
  0
LINE
  5
B8
330
1D
100
AcDbEntity
  8
1
100
AcDbLine
 10
31.06749244
 20
41.948707775
 30
0.0
 11
32.952655107
 21
42.051600293
 31
0.0
  0
LINE
  5
B9
330
1D
100
AcDbEntity
  8
1
100
AcDbLine
 10
32.952655107
 20
42.051600293
 30
0.0
 11
33.861920237
 21
42.115019635
 31
0.0
  0
LINE
  5
BA
330
1D
100
AcDbEntity
  8
1
100
AcDbLine
 10
33.861920237
 20
42.115019635
 30
0.0
 11
34.721814096
 21
42.183207348
 31
0.0
  0
LINE
  5
BB
330
1D
100
AcDbEntity
  8
1
100
AcDbLine
 10
34.721814096
 20
42.183207348
 30
0.0
 11
36.240585148
 21
42.323151604
 31
0.0
  0
LINE
  5
BC
330
1D
100
AcDbEntity
  8
1
100
AcDbLine
 10
36.240585148
 20
42.323151604
 30
0.0
 11
36.925293505
 21
42.394356802
 31
0.0
  0
LINE
  5
BD
330
1D
100
AcDbEntity
  8
1
100
AcDbLine
 10
36.925293505
 20
42.394356802
 30
0.0
 11
37.537943572
 21
42.462328449
 31
0.0
  0
LINE
  5
BE
330
1D
100
AcDbEntity
  8
1
100
AcDbLine
 10
37.537943572
 20
42.462328449
 30
0.0
 11
38.426700979
 21
42.568067089
 31
0.0
  0
LINE
  5
BF
330
1D
100
AcDbEntity
  8
1
100
AcDbLine
 10
38.426700979
 20
42.568067089
 30
0.0
 11
39.070189137
 21
42.649882153
 31
0.0
  0
ARC
  5
C0
330
1D
100
AcDbEntity
  8
1
100
AcDbCircle
 10
44.732050808
 20
-230.637129133
 30
0.0
 40
273.345655197
100
AcDbArc
 50
90.782297858
 51
91.186863493
  0
LINE
  5
C1
330
1D
100
AcDbEntity
  8
1
100
AcDbLine
 10
41.000001133
 20
42.682560161
 30
0.0
 11
41.000001133
 21
41.092561558
 31
0.0
  0
ARC
  5
C2
330
1D
100
AcDbEntity
  8
1
100
AcDbCircle
 10
47.304420324
 20
45.674218382
 30
0.0
 40
7.793412641
100
AcDbArc
 50
216.007304827
 51
238.780386849
  0
LINE
  5
C3
330
1D
100
AcDbEntity
  8
1
100
AcDbLine
 10
43.264940381
 20
39.009394124
 30
0.0
 11
45.5
 21
37.313890769
 31
0.0
  0
ARC
  5
C4
330
1D
100
AcDbEntity
  8
1
100
AcDbCircle
 10
-35.591495804
 20
-139.867542528
 30
0.0
 40
194.856590849
100
AcDbArc
 50
65.24603688500001
 51
65.40761897999998
  0
LINE
  5
C5
330
1D
100
AcDbEntity
  8
1
100
AcDbLine
 10
46.0
 20
37.085899836
 30
0.0
 11
46.000000089
 21
39.455020801
 31
0.0
  0
LINE
  5
C6
330
1D
100
AcDbEntity
  8
1
100
AcDbLine
 10
46.000000089
 20
39.455020801
 30
0.0
 11
45.608177781
 21
39.70948792999999
 31
0.0
  0
LINE
  5
C7
330
1D
100
AcDbEntity
  8
1
100
AcDbLine
 10
45.608177781
 20
39.70948792999999
 30
0.0
 11
43.00000146
 21
41.403362528
 31
0.0
  0
LINE
  5
C8
330
1D
100
AcDbEntity
  8
1
100
AcDbLine
 10
43.00000146
 20
41.403362528
 30
0.0
 11
41.000001133
 21
42.682560161
 31
0.0
  0
ARC
  5
C9
330
1D
100
AcDbEntity
  8
1
100
AcDbCircle
 10
20.307567598
 20
27.861239924
 30
0.0
 40
0.400015015
100
AcDbArc
 50
220.001921733
 51
283.3601348779998
  0
ARC
  5
CA
330
1D
100
AcDbEntity
  8
1
100
AcDbCircle
 10
20.307565344
 20
27.861221607
 30
0.0
 40
0.4
100
AcDbArc
 50
283.3610552910001
 51
310.0001163169997
  0
LINE
  5
CB
330
1D
100
AcDbEntity
  8
1
100
AcDbLine
 10
20.564680919
 20
27.55480446
 30
0.0
 11
23.94542869
 21
30.391588482
 31
0.0
  0
ARC
  5
CC
330
1D
100
AcDbEntity
  8
1
100
AcDbCircle
 10
-27.864665129
 20
92.559698236
 30
0.0
 40
80.926878674
100
AcDbArc
 50
309.807385363
 51
310.861659899
  0
ARC
  5
CD
330
1D
100
AcDbEntity
  8
1
100
AcDbCircle
 10
-4.830125861
 20
65.931815217
 30
0.0
 40
45.710111781
100
AcDbArc
 50
310.8617417089999
 51
317.297407456
  0
ARC
  5
CE
330
1D
100
AcDbEntity
  8
1
100
AcDbCircle
 10
7.262671014
 20
54.77189027999999
 30
0.0
 40
29.254727833
100
AcDbArc
 50
317.297407456
 51
326.927018133
  0
ARC
  5
CF
330
1D
100
AcDbEntity
  8
1
100
AcDbCircle
 10
24.228960166
 20
43.723099683
 30
0.0
 40
9.007981397
100
AcDbArc
 50
326.9270331729999
 51
328.424319352
  0
LINE
  5
D0
330
1D
100
AcDbEntity
  8
1
100
AcDbLine
 10
31.898271292
 20
39.009394124
 30
0.0
 11
32.087888569
 21
39.415644482
 31
0.0
  0
LINE
  5
D1
330
1D
100
AcDbEntity
  8
1
100
AcDbLine
 10
32.087888569
 20
39.415644482
 30
0.0
 11
32.149635255
 21
39.774427191
 31
0.0
  0
LINE
  5
D2
330
1D
100
AcDbEntity
  8
1
100
AcDbLine
 10
32.149635255
 20
39.774427191
 30
0.0
 11
32.059036195
 21
40.126459673
 31
0.0
  0
LINE
  5
D3
330
1D
100
AcDbEntity
  8
1
100
AcDbLine
 10
32.059036195
 20
40.126459673
 30
0.0
 11
31.815696508
 21
40.399650112
 31
0.0
  0
LINE
  5
D4
330
1D
100
AcDbEntity
  8
1
100
AcDbLine
 10
31.815696508
 20
40.399650112
 30
0.0
 11
31.452648342
 21
40.606627241
 31
0.0
  0
LINE
  5
D5
330
1D
100
AcDbEntity
  8
1
100
AcDbLine
 10
31.452648342
 20
40.606627241
 30
0.0
 11
31.026467681
 21
40.752621368
 31
0.0
  0
LINE
  5
D6
330
1D
100
AcDbEntity
  8
1
100
AcDbLine
 10
31.026467681
 20
40.752621368
 30
0.0
 11
30.100233853
 21
40.931196884
 31
0.0
  0
LINE
  5
D7
330
1D
100
AcDbEntity
  8
1
100
AcDbLine
 10
30.100233853
 20
40.931196884
 30
0.0
 11
28.953827918
 21
41.040258482
 31
0.0
  0
LINE
  5
D8
330
1D
100
AcDbEntity
  8
1
100
AcDbLine
 10
28.953827918
 20
41.040258482
 30
0.0
 11
27.772337198
 21
41.092561558
 31
0.0
  0
LINE
  5
D9
330
1D
100
AcDbEntity
  8
1
100
AcDbLine
 10
27.772337198
 20
41.092561558
 30
0.0
 11
26.424927637
 21
41.122520343
 31
0.0
  0
LINE
  5
DA
330
1D
100
AcDbEntity
  8
1
100
AcDbLine
 10
26.424927637
 20
41.122520343
 30
0.0
 11
25.077518076
 21
41.132079438
 31
0.0
  0
LINE
  5
DB
330
1D
100
AcDbEntity
  8
1
100
AcDbLine
 10
25.077518076
 20
41.132079438
 30
0.0
 11
1.000000047
 21
41.132079438
 31
0.0
  0
LINE
  5
DC
330
1D
100
AcDbEntity
  8
1
100
AcDbLine
 10
1.000000047
 20
41.132079438
 30
0.0
 11
0.0
 21
40.13207939
 31
0.0
  0
LINE
  5
DD
330
1D
100
AcDbEntity
  8
1
100
AcDbLine
 10
37.473760545
 20
45.207658783
 30
0.0
 11
32.481387258
 21
45.204194263
 31
0.0
  0
LINE
  5
DE
330
1D
100
AcDbEntity
  8
1
100
AcDbLine
 10
32.481387258
 20
45.204194263
 30
0.0
 11
32.468128949
 21
45.201735571
 31
0.0
  0
LINE
  5
DF
330
1D
100
AcDbEntity
  8
1
100
AcDbLine
 10
32.468128949
 20
45.201735571
 30
0.0
 11
32.298885286
 21
45.170823112
 31
0.0
  0
LINE
  5
E0
330
1D
100
AcDbEntity
  8
1
100
AcDbLine
 10
32.298885286
 20
45.170823112
 30
0.0
 11
31.97773546
 21
45.114764944
 31
0.0
  0
LINE
  5
E1
330
1D
100
AcDbEntity
  8
1
100
AcDbLine
 10
31.97773546
 20
45.114764944
 30
0.0
 11
31.528729945
 21
45.042099431
 31
0.0
  0
LINE
  5
E2
330
1D
100
AcDbEntity
  8
1
100
AcDbLine
 10
31.528729945
 20
45.042099431
 30
0.0
 11
30.940948054
 21
44.95712555999999
 31
0.0
  0
LINE
  5
E3
330
1D
100
AcDbEntity
  8
1
100
AcDbLine
 10
30.940948054
 20
44.95712555999999
 30
0.0
 11
30.251229182
 21
44.872203842
 31
0.0
  0
LINE
  5
E4
330
1D
100
AcDbEntity
  8
1
100
AcDbLine
 10
30.251229182
 20
44.872203842
 30
0.0
 11
29.447358102
 21
44.793562964
 31
0.0
  0
LINE
  5
E5
330
1D
100
AcDbEntity
  8
1
100
AcDbLine
 10
29.447358102
 20
44.793562964
 30
0.0
 11
28.594994917
 21
44.73427124299999
 31
0.0
  0
LINE
  5
E6
330
1D
100
AcDbEntity
  8
1
100
AcDbLine
 10
28.594994917
 20
44.73427124299999
 30
0.0
 11
27.669757605
 21
44.698150829
 31
0.0
  0
LINE
  5
E7
330
1D
100
AcDbEntity
  8
1
100
AcDbLine
 10
27.669757605
 20
44.698150829
 30
0.0
 11
26.765197515
 21
44.69136335
 31
0.0
  0
LINE
  5
E8
330
1D
100
AcDbEntity
  8
1
100
AcDbLine
 10
26.765197515
 20
44.69136335
 30
0.0
 11
25.841023773
 21
44.71357353099999
 31
0.0
  0
LINE
  5
E9
330
1D
100
AcDbEntity
  8
1
100
AcDbLine
 10
25.841023773
 20
44.71357353099999
 30
0.0
 11
24.982322007
 21
44.760556892
 31
0.0
  0
LINE
  5
EA
330
1D
100
AcDbEntity
  8
1
100
AcDbLine
 10
24.982322007
 20
44.760556892
 30
0.0
 11
24.15653877
 21
44.82956416899999
 31
0.0
  0
LINE
  5
EB
330
1D
100
AcDbEntity
  8
1
100
AcDbLine
 10
24.15653877
 20
44.82956416899999
 30
0.0
 11
23.422822356
 21
44.910335914
 31
0.0
  0
LINE
  5
EC
330
1D
100
AcDbEntity
  8
1
100
AcDbLine
 10
23.422822356
 20
44.910335914
 30
0.0
 11
22.769801319
 21
44.997500256
 31
0.0
  0
LINE
  5
ED
330
1D
100
AcDbEntity
  8
1
100
AcDbLine
 10
22.769801319
 20
44.997500256
 30
0.0
 11
22.244662046
 21
45.077936724
 31
0.0
  0
LINE
  5
EE
330
1D
100
AcDbEntity
  8
1
100
AcDbLine
 10
22.244662046
 20
45.077936724
 30
0.0
 11
21.841838956
 21
45.14584131599999
 31
0.0
  0
LINE
  5
EF
330
1D
100
AcDbEntity
  8
1
100
AcDbLine
 10
21.841838956
 20
45.14584131599999
 30
0.0
 11
21.596927196
 21
45.189740137
 31
0.0
  0
LINE
  5
F0
330
1D
100
AcDbEntity
  8
1
100
AcDbLine
 10
21.596927196
 20
45.189740137
 30
0.0
 11
21.506689489
 21
45.207658783
 31
0.0
  0
LINE
  5
F1
330
1D
100
AcDbEntity
  8
1
100
AcDbLine
 10
21.506689489
 20
45.207658783
 30
0.0
 11
16.031501815
 21
45.207658783
 31
0.0
  0
ARC
  5
F2
330
1D
100
AcDbEntity
  8
1
100
AcDbCircle
 10
9.043141288
 20
40.485497565
 30
0.0
 40
0.659295839
100
AcDbArc
 50
78.72962445999997
 51
120.0144180029999
  0
LINE
  5
F3
330
1D
100
AcDbEntity
  8
1
100
AcDbLine
 10
8.7133497
 20
41.056381539
 30
0.0
 11
9.207944386
 21
40.466943756
 31
0.0
  0
LINE
  5
F4
330
1D
100
AcDbEntity
  8
1
100
AcDbLine
 10
9.207944386
 20
40.466943756
 30
0.0
 11
9.776826017
 21
39.788978175
 31
0.0
  0
LINE
  5
F5
330
1D
100
AcDbEntity
  8
1
100
AcDbLine
 10
9.776826017
 20
39.788978175
 30
0.0
 11
10.419437662
 21
39.023147896
 31
0.0
  0
LINE
  5
F6
330
1D
100
AcDbEntity
  8
1
100
AcDbLine
 10
10.419437662
 20
39.023147896
 30
0.0
 11
11.135147885
 21
38.170190528
 31
0.0
  0
LINE
  5
F7
330
1D
100
AcDbEntity
  8
1
100
AcDbLine
 10
11.135147885
 20
38.170190528
 30
0.0
 11
11.923254468
 21
37.23096288799999
 31
0.0
  0
LINE
  5
F8
330
1D
100
AcDbEntity
  8
1
100
AcDbLine
 10
11.923254468
 20
37.23096288799999
 30
0.0
 11
12.106836773
 21
37.012176588
 31
0.0
  0
LINE
  5
F9
330
1D
100
AcDbEntity
  8
1
100
AcDbLine
 10
12.106836773
 20
37.012176588
 30
0.0
 11
12.34542951
 21
36.72783262999999
 31
0.0
  0
LINE
  5
FA
330
1D
100
AcDbEntity
  8
1
100
AcDbLine
 10
12.34542951
 20
36.72783262999999
 30
0.0
 11
12.634619139
 21
36.383191124
 31
0.0
  0
LINE
  5
FB
330
1D
100
AcDbEntity
  8
1
100
AcDbLine
 10
12.634619139
 20
36.383191124
 30
0.0
 11
12.969057076
 21
35.98462976499999
 31
0.0
  0
LINE
  5
FC
330
1D
100
AcDbEntity
  8
1
100
AcDbLine
 10
12.969057076
 20
35.98462976499999
 30
0.0
 11
13.342556544
 21
35.539509729
 31
0.0
  0
LINE
  5
FD
330
1D
100
AcDbEntity
  8
1
100
AcDbLine
 10
13.342556544
 20
35.539509729
 30
0.0
 11
13.748209923
 21
35.056063906
 31
0.0
  0
LINE
  5
FE
330
1D
100
AcDbEntity
  8
1
100
AcDbLine
 10
13.748209923
 20
35.056063906
 30
0.0
 11
14.178514481
 21
34.543247894
 31
0.0
  0
LINE
  5
FF
330
1D
100
AcDbEntity
  8
1
100
AcDbLine
 10
14.178514481
 20
34.543247894
 30
0.0
 11
14.625510201
 21
34.01053883199999
 31
0.0
  0
LINE
  5
100
330
1D
100
AcDbEntity
  8
1
100
AcDbLine
 10
14.625510201
 20
34.01053883199999
 30
0.0
 11
15.080928802
 21
33.467793837
 31
0.0
  0
LINE
  5
101
330
1D
100
AcDbEntity
  8
1
100
AcDbLine
 10
15.080928802
 20
33.467793837
 30
0.0
 11
19.500000402
 21
28.201350943
 31
0.0
  0
LINE
  5
102
330
1D
100
AcDbEntity
  8
1
100
AcDbLine
 10
19.500000402
 20
28.201350943
 30
0.0
 11
19.999999553
 21
27.605475858
 31
0.0
  0
LINE
  5
103
330
1D
100
AcDbEntity
  8
1
100
AcDbLine
 10
19.999999553
 20
27.605475858
 30
0.0
 11
19.999999553
 21
-39.542339742
 31
0.0
  0
LINE
  5
104
330
1D
100
AcDbEntity
  8
1
100
AcDbLine
 10
19.999999553
 20
-39.542339742
 30
0.0
 11
19.999999553
 21
-43.04233985
 31
0.0
  0
LINE
  5
105
330
1D
100
AcDbEntity
  8
1
100
AcDbLine
 10
19.999999553
 20
-43.04233985
 30
0.0
 11
19.500000402
 21
-43.542339932
 31
0.0
  0
LINE
  5
106
330
1D
100
AcDbEntity
  8
1
100
AcDbLine
 10
19.500000402
 20
-43.542339932
 30
0.0
 11
1.000000047
 21
-43.542339932
 31
0.0
  0
LINE
  5
107
330
1D
100
AcDbEntity
  8
1
100
AcDbLine
 10
1.000000047
 20
-43.542339932
 30
0.0
 11
1.000000047
 21
-39.542339742
 31
0.0
  0
LINE
  5
108
330
1D
100
AcDbEntity
  8
1
100
AcDbLine
 10
1.000000047
 20
-39.542339742
 30
0.0
 11
1.000000047
 21
0.2076607199999998
 31
0.0
  0
LINE
  5
109
330
1D
100
AcDbEntity
  8
1
100
AcDbLine
 10
1.000000047
 20
0.2076607199999998
 30
0.0
 11
1.000000047
 21
33.467793837
 31
0.0
  0
LINE
  5
10A
330
1D
100
AcDbEntity
  8
1
100
AcDbLine
 10
1.000000047
 20
33.467793837
 30
0.0
 11
1.000000047
 21
37.23096288799999
 31
0.0
  0
LINE
  5
10B
330
1D
100
AcDbEntity
  8
1
100
AcDbLine
 10
1.000000047
 20
37.23096288799999
 30
0.0
 11
1.000000047
 21
42.707661167
 31
0.0
  0
LINE
  5
10C
330
1D
100
AcDbEntity
  8
1
100
AcDbLine
 10
1.000000047
 20
42.707661167
 30
0.0
 11
14.531604946
 21
42.707661167
 31
0.0
  0
LINE
  5
10D
330
1D
100
AcDbEntity
  8
1
100
AcDbLine
 10
38.627605885
 20
-14.792339876
 30
0.0
 11
35.960596055
 21
-14.792339876
 31
0.0
  0
ARC
  5
10E
330
1D
100
AcDbEntity
  8
1
100
AcDbCircle
 10
39.207185673
 20
-18.12972378400001
 30
0.0
 40
4.656014981
100
AcDbArc
 50
134.209930014
 51
169.6389987520001
  0
ARC
  5
10F
330
1D
100
AcDbEntity
  8
1
100
AcDbCircle
 10
39.248468601
 20
-16.43293576400001
 30
0.0
 40
4.700607128
100
AcDbArc
 50
190.534561703
 51
225.6165449849999
  0
LINE
  5
110
330
1D
100
AcDbEntity
  8
1
100
AcDbLine
 10
35.960596055
 20
-19.792340696
 30
0.0
 11
38.627605885
 21
-19.792340696
 31
0.0
  0
ARC
  5
111
330
1D
100
AcDbEntity
  8
1
100
AcDbCircle
 10
43.24896259
 20
-20.651735077
 30
0.0
 40
4.700584697
100
AcDbArc
 50
134.383368596
 51
169.465524716
  0
ARC
  5
112
330
1D
100
AcDbEntity
  8
1
100
AcDbCircle
 10
43.207700419
 20
-13.95495730900001
 30
0.0
 40
4.656014981
100
AcDbArc
 50
190.361001248
 51
225.790069986
  0
LINE
  5
113
330
1D
100
AcDbEntity
  8
1
100
AcDbLine
 10
46.000000089
 20
8.412482216999997
 30
0.0
 11
46.000000089
 21
-7.246645167000004
 31
0.0
  0
LINE
  5
114
330
1D
100
AcDbEntity
  8
1
100
AcDbLine
 10
46.000000089
 20
-7.246645167000004
 30
0.0
 11
45.5
 21
-6.944345987000005
 31
0.0
  0
ARC
  5
115
330
1D
100
AcDbEntity
  8
1
100
AcDbCircle
 10
39.653876958
 20
21.874823599
 30
0.0
 40
29.406150552
100
AcDbArc
 50
280.498865737
 51
281.467153555
  0
ARC
  5
116
330
1D
100
AcDbEntity
  8
1
100
AcDbCircle
 10
36.846194078
 20
37.02358295499999
 30
0.0
 40
44.815922981
100
AcDbArc
 50
278.474711505
 51
280.499288719
  0
LINE
  5
117
330
1D
100
AcDbEntity
  8
1
100
AcDbLine
 10
43.451871723
 20
-7.309881969999999
 30
0.0
 11
32.177007787
 21
-9.009695301
 31
0.0
  0
ARC
  5
118
330
1D
100
AcDbEntity
  8
1
100
AcDbCircle
 10
33.828427125
 20
-19.61109863600001
 30
0.0
 40
10.729256195
100
AcDbArc
 50
98.85401505700001
 51
105.445253599
  0
ARC
  5
119
330
1D
100
AcDbEntity
  8
1
100
AcDbCircle
 10
32.191338158
 20
-13.68610445300001
 30
0.0
 40
4.575017496
100
AcDbArc
 50
105.444797142
 51
119.908210372
  0
ARC
  5
11A
330
1D
100
AcDbEntity
  8
1
100
AcDbCircle
 10
31.234946353
 20
-12.023439519
 30
0.0
 40
2.656909061
100
AcDbArc
 50
119.908210372
 51
139.191596284
  0
ARC
  5
11B
330
1D
100
AcDbEntity
  8
1
100
AcDbCircle
 10
29.92118362
 20
-10.88908054300001
 30
0.0
 40
0.92118362
100
AcDbArc
 50
139.192212919
 51
180.0
  0
LINE
  5
11C
330
1D
100
AcDbEntity
  8
1
100
AcDbLine
 10
28.999999166
 20
-10.889081284
 30
0.0
 11
29.0
 21
-23.707185399
 31
0.0
  0
ARC
  5
11D
330
1D
100
AcDbEntity
  8
1
100
AcDbCircle
 10
29.92118362
 20
-23.707185399
 30
0.0
 40
0.92118362
100
AcDbArc
 50
180.0
 51
220.807787081
  0
ARC
  5
11E
330
1D
100
AcDbEntity
  8
1
100
AcDbCircle
 10
31.234946353
 20
-22.57282642300001
 30
0.0
 40
2.656909061
100
AcDbArc
 50
220.808403716
 51
240.091789628
  0
ARC
  5
11F
330
1D
100
AcDbEntity
  8
1
100
AcDbCircle
 10
32.191338158
 20
-20.910161488
 30
0.0
 40
4.575017496
100
AcDbArc
 50
240.091789628
 51
254.555202858
  0
ARC
  5
120
330
1D
100
AcDbEntity
  8
1
100
AcDbCircle
 10
33.828427125
 20
-14.985167305
 30
0.0
 40
10.722018093
100
AcDbArc
 50
254.554746401
 51
261.1459904399999
  0
LINE
  5
121
330
1D
100
AcDbEntity
  8
1
100
AcDbLine
 10
32.177008688
 20
-25.58657154400001
 30
0.0
 11
40.942076594
 21
-26.908004656
 31
0.0
  0
LINE
  5
122
330
1D
100
AcDbEntity
  8
1
100
AcDbLine
 10
40.942076594
 20
-26.908004656
 30
0.0
 11
45.499999076
 21
-22.779377177
 31
0.0
  0
LINE
  5
123
330
1D
100
AcDbEntity
  8
1
100
AcDbLine
 10
45.499999076
 20
-22.779377177
 30
0.0
 11
46.000000089
 21
-22.307973355
 31
0.0
  0
LINE
  5
124
330
1D
100
AcDbEntity
  8
1
100
AcDbLine
 10
46.000000089
 20
-22.307973355
 30
0.0
 11
46.000000089
 21
-7.246645167000004
 31
0.0
  0
LINE
  5
125
330
1D
100
AcDbEntity
  8
1
100
AcDbLine
 10
48.01728949
 20
48.461878673
 30
0.0
 11
47.925170511
 21
48.642674461
 31
0.0
  0
LINE
  5
126
330
1D
100
AcDbEntity
  8
1
100
AcDbLine
 10
47.925170511
 20
48.642674461
 30
0.0
 11
41.820436716
 21
47.566244379
 31
0.0
  0
LINE
  5
127
330
1D
100
AcDbEntity
  8
1
100
AcDbLine
 10
41.820436716
 20
47.566244379
 30
0.0
 11
39.194490761
 21
47.103213147
 31
0.0
  0
LINE
  5
128
330
1D
100
AcDbEntity
  8
1
100
AcDbLine
 10
39.194490761
 20
47.103213147
 30
0.0
 11
38.495067507
 21
45.891771093
 31
0.0
  0
LINE
  5
129
330
1D
100
AcDbEntity
  8
1
100
AcDbLine
 10
38.495067507
 20
45.891771093
 30
0.0
 11
38.100000471
 21
45.20748742
 31
0.0
  0
LINE
  5
12A
330
1D
100
AcDbEntity
  8
1
100
AcDbLine
 10
38.100000471
 20
45.20748742
 30
0.0
 11
37.500586204
 21
45.207490483
 31
0.0
  0
ARC
  5
12B
330
1D
100
AcDbEntity
  8
1
100
AcDbCircle
 10
37.504555559
 20
42.995756327
 30
0.0
 40
2.211737718
100
AcDbArc
 50
90.10282745899995
 51
100.7344966460001
  0
ARC
  5
12C
330
1D
100
AcDbEntity
  8
1
100
AcDbCircle
 10
37.504555559
 20
42.995756327
 30
0.0
 40
2.215094351
100
AcDbArc
 50
100.734496646
 51
136.9000523459999
  0
ARC
  5
12D
330
1D
100
AcDbEntity
  8
1
100
AcDbCircle
 10
40.169886432
 20
40.50160391599999
 30
0.0
 40
5.865407339
100
AcDbArc
 50
136.900163182
 51
138.419014063
  0
ARC
  5
12E
330
1D
100
AcDbEntity
  8
1
100
AcDbCircle
 10
37.034013117
 20
43.573750373
 30
0.0
 40
1.502720506
100
AcDbArc
 50
146.714575878
 51
196.2422850109999
  0
ARC
  5
12F
330
1D
100
AcDbEntity
  8
1
100
AcDbCircle
 10
211.450238342
 20
86.80795756
 30
0.0
 40
181.196283693
100
AcDbArc
 50
193.941076751
 51
194.22593328
  0
LINE
  5
130
330
1D
100
AcDbEntity
  8
SK1
100
AcDbLine
 10
0.0
 20
-4.542341456000003
 30
0.0
 11
-4.5
 21
-4.542340025000001
 31
0.0
  0
ARC
  5
131
330
1D
100
AcDbEntity
  8
SK1
100
AcDbCircle
 10
-4.5
 20
-6.042340025000001
 30
0.0
 40
1.5
100
AcDbArc
 50
90.0
 51
180.0000284609999
  0
LINE
  5
132
330
1D
100
AcDbEntity
  8
SK1
100
AcDbLine
 10
-6.000000052
 20
-6.042340770000003
 30
0.0
 11
-6.0
 21
-11.042340025
 31
0.0
  0
ARC
  5
133
330
1D
100
AcDbEntity
  8
SK1
100
AcDbCircle
 10
-4.5
 20
-11.042340025
 30
0.0
 40
1.5
100
AcDbArc
 50
180.0
 51
270.000007399
  0
LINE
  5
134
330
1D
100
AcDbEntity
  8
SK1
100
AcDbLine
 10
-4.499999806
 20
-12.542339042
 30
0.0
 11
0.0
 21
-12.542339042
 31
0.0
  0
LINE
  5
135
330
1D
100
AcDbEntity
  8
SK1
100
AcDbLine
 10
0.0
 20
12.957656756
 30
0.0
 11
-4.5
 21
12.957659975
 31
0.0
  0
ARC
  5
136
330
1D
100
AcDbEntity
  8
SK1
100
AcDbCircle
 10
-4.5
 20
11.457659975
 30
0.0
 40
1.5
100
AcDbArc
 50
90.0
 51
179.9999544690001
  0
LINE
  5
137
330
1D
100
AcDbEntity
  8
SK1
100
AcDbLine
 10
-6.000000052
 20
11.457661167
 30
0.0
 11
-6.0
 21
6.457659974999999
 31
0.0
  0
ARC
  5
138
330
1D
100
AcDbEntity
  8
SK1
100
AcDbCircle
 10
-4.5
 20
6.457659974999999
 30
0.0
 40
1.5
100
AcDbArc
 50
180.0
 51
270.000007399
  0
LINE
  5
139
330
1D
100
AcDbEntity
  8
SK1
100
AcDbLine
 10
-4.499999806
 20
4.957659169999999
 30
0.0
 11
0.0
 21
4.957659169999999
 31
0.0
  0
LINE
  5
13A
330
1D
100
AcDbEntity
  8
SK1
100
AcDbLine
 10
0.0
 20
-22.04233966700001
 30
0.0
 11
-4.5
 21
-22.042340025
 31
0.0
  0
ARC
  5
13B
330
1D
100
AcDbEntity
  8
SK1
100
AcDbCircle
 10
-4.5
 20
-23.542340025
 30
0.0
 40
1.5
100
AcDbArc
 50
90.0
 51
180.0000313059999
  0
LINE
  5
13C
330
1D
100
AcDbEntity
  8
SK1
100
AcDbLine
 10
-6.000000052
 20
-23.542340845
 30
0.0
 11
-6.0
 21
-28.542340025
 31
0.0
  0
ARC
  5
13D
330
1D
100
AcDbEntity
  8
SK1
100
AcDbCircle
 10
-4.5
 20
-28.542340025
 30
0.0
 40
1.5
100
AcDbArc
 50
180.0
 51
270.000007399
  0
LINE
  5
13E
330
1D
100
AcDbEntity
  8
SK1
100
AcDbLine
 10
-4.499999806
 20
-30.04233911600001
 30
0.0
 11
0.0
 21
-30.04233911600001
 31
0.0
  0
ARC
  5
13F
330
1D
100
AcDbEntity
  8
1
100
AcDbCircle
 10
35.581384796
 20
-17.475419613
 30
0.0
 40
2.325193046
100
AcDbArc
 50
279.8016825590001
 51
332.6869202
  0
ARC
  5
140
330
1D
100
AcDbEntity
  8
1
100
AcDbCircle
 10
35.281858998
 20
-17.29233935400001
 30
0.0
 40
2.675451253
100
AcDbArc
 50
332.1465816669999
 51
27.85341833300014
  0
ARC
  5
141
330
1D
100
AcDbEntity
  8
1
100
AcDbCircle
 10
35.597076863
 20
-17.08901428
 30
0.0
 40
2.301986341
100
AcDbArc
 50
27.04458279000014
 51
81.81217201499997
  0
ARC
  5
142
330
1D
100
AcDbEntity
  8
1
100
AcDbCircle
 10
37.121320344
 20
16.249173545
 30
0.0
 40
8.04151357
100
AcDbArc
 50
254.5547464009999
 51
270.0
  0
ARC
  5
143
330
1D
100
AcDbEntity
  8
1
100
AcDbCircle
 10
35.893503619
 20
11.805427908
 30
0.0
 40
3.431263122
100
AcDbArc
 50
240.091789628
 51
254.555202858
  0
ARC
  5
144
330
1D
100
AcDbEntity
  8
1
100
AcDbCircle
 10
35.176209765
 20
10.558429207
 30
0.0
 40
1.992681796
100
AcDbArc
 50
220.8084037160001
 51
240.0917896280001
  0
ARC
  5
145
330
1D
100
AcDbEntity
  8
1
100
AcDbCircle
 10
34.190887715
 20
9.707659974999999
 30
0.0
 40
0.690887715
100
AcDbArc
 50
180.0
 51
220.8077870809998
  0
LINE
  5
146
330
1D
100
AcDbEntity
  8
1
100
AcDbLine
 10
33.5
 20
9.707659974999999
 30
0.0
 11
33.5
 21
21.728866202
 31
0.0
  0
ARC
  5
147
330
1D
100
AcDbEntity
  8
1
100
AcDbCircle
 10
35.342367239
 20
21.728866202
 30
0.0
 40
1.842367239
100
AcDbArc
 50
139.192212919
 51
180.0
  0
ARC
  5
148
330
1D
100
AcDbEntity
  8
1
100
AcDbCircle
 10
37.969892707
 20
19.46014825
 30
0.0
 40
5.313818122
100
AcDbArc
 50
129.384118702
 51
139.191596284
  0
LINE
  5
149
330
1D
100
AcDbEntity
  8
1
100
AcDbLine
 10
34.591119736
 20
23.575859145
 30
0.0
 11
45.499999076
 21
32.256023959
 31
0.0
  0
LINE
  5
14A
330
1D
100
AcDbEntity
  8
1
100
AcDbLine
 10
45.499999076
 20
32.256023959
 30
0.0
 11
46.000000089
 21
32.133670524
 31
0.0
  0
LINE
  5
14B
330
1D
100
AcDbEntity
  8
1
100
AcDbLine
 10
46.000000089
 20
32.133670524
 30
0.0
 11
46.000000089
 21
8.412482216999997
 31
0.0
  0
LINE
  5
14C
330
1D
100
AcDbEntity
  8
1
100
AcDbLine
 10
46.000000089
 20
8.412482216999997
 30
0.0
 11
45.5
 21
8.020448455
 31
0.0
  0
ARC
  5
14D
330
1D
100
AcDbEntity
  8
1
100
AcDbCircle
 10
41.346194078
 20
-36.608263005
 30
0.0
 40
44.821601826
100
AcDbArc
 50
84.68252956099997
 51
90.0
  0
LINE
  5
14E
330
1D
100
AcDbEntity
  8
1
100
AcDbLine
 10
41.34619236
 20
8.207658305999999
 30
0.0
 11
37.121322006
 21
8.207658305999999
 31
0.0
  0
LINE
  5
14F
330
1D
100
AcDbEntity
  8
1
100
AcDbLine
 10
37.121322006
 20
8.207658305999999
 30
0.0
 11
20.4
 21
8.207659974999999
 31
0.0
  0
ARC
  5
150
330
1D
100
AcDbEntity
  8
1
100
AcDbCircle
 10
20.4
 20
7.807659975
 30
0.0
 40
0.4
100
AcDbArc
 50
90.0
 51
180.0
  0
LINE
  5
151
330
1D
100
AcDbEntity
  8
1
100
AcDbLine
 10
1.000000047
 20
42.707661167
 30
0.0
 11
0.0
 21
41.70765914099999
 31
0.0
  0
LINE
  5
152
330
1D
100
AcDbEntity
  8
1
100
AcDbLine
 10
0.0
 20
41.70765914099999
 30
0.0
 11
0.0
 21
36.290170625
 31
0.0
  0
LINE
  5
153
330
1D
100
AcDbEntity
  8
1
100
AcDbLine
 10
0.0
 20
36.290170625
 30
0.0
 11
0.0
 21
33.467793837
 31
0.0
  0
LINE
  5
154
330
1D
100
AcDbEntity
  8
1
100
AcDbLine
 10
0.0
 20
33.467793837
 30
0.0
 11
0.0
 21
-39.542339742
 31
0.0
  0
LINE
  5
155
330
1D
100
AcDbEntity
  8
1
100
AcDbLine
 10
0.0
 20
-39.542339742
 30
0.0
 11
0.0
 21
-42.54234023400001
 31
0.0
  0
LINE
  5
156
330
1D
100
AcDbEntity
  8
1
100
AcDbLine
 10
0.0
 20
-42.54234023400001
 30
0.0
 11
1.000000047
 21
-43.542339932
 31
0.0
  0
LINE
  5
157
330
1D
100
AcDbEntity
  8
1
100
AcDbLine
 10
20.00768669
 20
23.72452803
 30
0.0
 11
20.030448213
 21
23.68987538
 31
0.0
  0
LINE
  5
158
330
1D
100
AcDbEntity
  8
1
100
AcDbLine
 10
20.030448213
 20
23.68987538
 30
0.0
 11
20.067412406
 21
23.657949642
 31
0.0
  0
LINE
  5
159
330
1D
100
AcDbEntity
  8
1
100
AcDbLine
 10
20.067412406
 20
23.657949642
 30
0.0
 11
20.11715807
 21
23.62995781
 31
0.0
  0
LINE
  5
15A
330
1D
100
AcDbEntity
  8
1
100
AcDbLine
 10
20.11715807
 20
23.62995781
 30
0.0
 11
20.177772269
 21
23.60698767
 31
0.0
  0
LINE
  5
15B
330
1D
100
AcDbEntity
  8
1
100
AcDbLine
 10
20.177772269
 20
23.60698767
 30
0.0
 11
20.246926695
 21
23.58991839
 31
0.0
  0
LINE
  5
15C
330
1D
100
AcDbEntity
  8
1
100
AcDbLine
 10
20.246926695
 20
23.58991839
 30
0.0
 11
20.321963355
 21
23.579413072
 31
0.0
  0
LINE
  5
15D
330
1D
100
AcDbEntity
  8
1
100
AcDbLine
 10
20.321963355
 20
23.579413072
 30
0.0
 11
20.400000736
 21
23.575859145
 31
0.0
  0
LINE
  5
15E
330
1D
100
AcDbEntity
  8
1
100
AcDbLine
 10
20.400000736
 20
23.575859145
 30
0.0
 11
34.591119736
 21
23.575859145
 31
0.0
  0
LINE
  5
15F
330
1D
100
AcDbEntity
  8
1
100
AcDbLine
 10
18.110519275
 20
31.46939911
 30
0.0
 11
18.244842067
 21
31.216258183
 31
0.0
  0
LINE
  5
160
330
1D
100
AcDbEntity
  8
1
100
AcDbLine
 10
18.244842067
 20
31.216258183
 30
0.0
 11
18.348550424
 21
31.032288447
 31
0.0
  0
LINE
  5
161
330
1D
100
AcDbEntity
  8
1
100
AcDbLine
 10
18.348550424
 20
31.032288447
 30
0.0
 11
18.41811277
 21
30.92376329
 31
0.0
  0
LINE
  5
162
330
1D
100
AcDbEntity
  8
1
100
AcDbLine
 10
18.41811277
 20
30.92376329
 30
0.0
 11
18.451161683
 21
30.8943782
 31
0.0
  0
LINE
  5
163
330
1D
100
AcDbEntity
  8
1
100
AcDbLine
 10
18.451161683
 20
30.8943782
 30
0.0
 11
18.446572125
 21
30.945131556
 31
0.0
  0
LINE
  5
164
330
1D
100
AcDbEntity
  8
1
100
AcDbLine
 10
18.446572125
 20
30.945131556
 30
0.0
 11
18.404496834
 21
31.074294821
 31
0.0
  0
LINE
  5
165
330
1D
100
AcDbEntity
  8
1
100
AcDbLine
 10
18.404496834
 20
31.074294821
 30
0.0
 11
18.326371908
 21
31.277464703
 31
0.0
  0
LINE
  5
166
330
1D
100
AcDbEntity
  8
1
100
AcDbLine
 10
16.36534743
 20
35.217845813
 30
0.0
 11
16.287222505
 21
35.421023146
 31
0.0
  0
LINE
  5
167
330
1D
100
AcDbEntity
  8
1
100
AcDbLine
 10
16.287222505
 20
35.421023146
 30
0.0
 11
16.245147213
 21
35.550186411
 31
0.0
  0
LINE
  5
168
330
1D
100
AcDbEntity
  8
1
100
AcDbLine
 10
16.245147213
 20
35.550186411
 30
0.0
 11
16.240557656
 21
35.60093231499999
 31
0.0
  0
LINE
  5
169
330
1D
100
AcDbEntity
  8
1
100
AcDbLine
 10
16.240557656
 20
35.60093231499999
 30
0.0
 11
16.273606569
 21
35.571547225
 31
0.0
  0
LINE
  5
16A
330
1D
100
AcDbEntity
  8
1
100
AcDbLine
 10
16.273606569
 20
35.571547225
 30
0.0
 11
16.343168914
 21
35.463022068
 31
0.0
  0
LINE
  5
16B
330
1D
100
AcDbEntity
  8
1
100
AcDbLine
 10
16.343168914
 20
35.463022068
 30
0.0
 11
16.446877271
 21
35.27905978299999
 31
0.0
  0
LINE
  5
16C
330
1D
100
AcDbEntity
  8
1
100
AcDbLine
 10
28.443375602
 20
13.207660988
 30
0.0
 11
29.886750504
 21
15.707658604
 31
0.0
  0
LINE
  5
16D
330
1D
100
AcDbEntity
  8
1
100
AcDbLine
 10
29.886750504
 20
15.707658604
 30
0.0
 11
28.443375602
 21
18.20766367
 31
0.0
  0
LINE
  5
16E
330
1D
100
AcDbEntity
  8
1
100
AcDbLine
 10
28.443375602
 20
18.20766367
 30
0.0
 11
25.556623936
 21
18.20766367
 31
0.0
  0
LINE
  5
16F
330
1D
100
AcDbEntity
  8
1
100
AcDbLine
 10
25.556623936
 20
18.20766367
 30
0.0
 11
24.113249034
 21
15.707658604
 31
0.0
  0
LINE
  5
170
330
1D
100
AcDbEntity
  8
1
100
AcDbLine
 10
24.113249034
 20
15.707658604
 30
0.0
 11
25.556623936
 21
13.207660988
 31
0.0
  0
LINE
  5
171
330
1D
100
AcDbEntity
  8
1
100
AcDbLine
 10
25.556623936
 20
13.207660988
 30
0.0
 11
28.443375602
 21
13.207660988
 31
0.0
  0
LINE
  5
172
330
1D
100
AcDbEntity
  8
SK1
100
AcDbLine
 10
0.0
 20
-30.79234063600001
 30
0.0
 11
-11.599999853
 21
-30.79234063600001
 31
0.0
  0
LINE
  5
173
330
1D
100
AcDbEntity
  8
SK1
100
AcDbLine
 10
-11.599999853
 20
-30.79234063600001
 30
0.0
 11
-12.500000186
 21
-31.69233910700001
 31
0.0
  0
LINE
  5
174
330
1D
100
AcDbEntity
  8
SK1
100
AcDbLine
 10
-12.500000186
 20
-31.69233910700001
 30
0.0
 11
-12.500000186
 21
-32.10766054700001
 31
0.0
  0
LINE
  5
175
330
1D
100
AcDbEntity
  8
SK1
100
AcDbLine
 10
-12.500000186
 20
-32.10766054700001
 30
0.0
 11
-12.500000186
 21
-37.89233975100001
 31
0.0
  0
LINE
  5
176
330
1D
100
AcDbEntity
  8
SK1
100
AcDbLine
 10
-12.500000186
 20
-37.89233975100001
 30
0.0
 11
-11.599999853
 21
-38.79234008500001
 31
0.0
  0
LINE
  5
177
330
1D
100
AcDbEntity
  8
SK1
100
AcDbLine
 10
-11.599999853
 20
-38.79234008500001
 30
0.0
 11
0.0
 21
-38.79234008500001
 31
0.0
  0
LINE
  5
178
330
1D
100
AcDbEntity
  8
SK1
100
AcDbLine
 10
0.0
 20
4.207661375999997
 30
0.0
 11
-11.599999853
 21
4.207661375999997
 31
0.0
  0
LINE
  5
179
330
1D
100
AcDbEntity
  8
SK1
100
AcDbLine
 10
-11.599999853
 20
4.207661375999997
 30
0.0
 11
-12.500000186
 21
3.307661041999999
 31
0.0
  0
LINE
  5
17A
330
1D
100
AcDbEntity
  8
SK1
100
AcDbLine
 10
-12.500000186
 20
3.307661041999999
 30
0.0
 11
-12.500000186
 21
2.892339602
 31
0.0
  0
LINE
  5
17B
330
1D
100
AcDbEntity
  8
SK1
100
AcDbLine
 10
-12.500000186
 20
2.892339602
 30
0.0
 11
-12.500000186
 21
-2.892339602
 31
0.0
  0
LINE
  5
17C
330
1D
100
AcDbEntity
  8
SK1
100
AcDbLine
 10
-12.500000186
 20
-2.892339602
 30
0.0
 11
-11.599999853
 21
-3.792339936000005
 31
0.0
  0
LINE
  5
17D
330
1D
100
AcDbEntity
  8
SK1
100
AcDbLine
 10
-11.599999853
 20
-3.792339936000005
 30
0.0
 11
0.0
 21
-3.792339936000005
 31
0.0
  0
ARC
  5
17E
330
1D
100
AcDbEntity
  8
1
100
AcDbCircle
 10
20.388299598
 20
-8.621371504000003
 30
0.0
 40
0.388499428
100
AcDbArc
 50
181.8357151809995
 51
271.7259413759998
  0
LINE
  5
17F
330
1D
100
AcDbEntity
  8
1
100
AcDbLine
 10
20.400000736
 20
-9.009694680000003
 30
0.0
 11
32.177008688
 21
-9.009694680000003
 31
0.0
  0
LINE
  5
180
330
1D
100
AcDbEntity
  8
1
100
AcDbLine
 10
19.999999553
 20
-28.292339295
 30
0.0
 11
45.499999076
 21
-28.292339295
 31
0.0
  0
LINE
  5
181
330
1D
100
AcDbEntity
  8
1
100
AcDbLine
 10
45.499999076
 20
-28.292339295
 30
0.0
 11
46.000000089
 21
-27.79234014400001
 31
0.0
  0
LINE
  5
182
330
1D
100
AcDbEntity
  8
1
100
AcDbLine
 10
46.000000089
 20
-27.79234014400001
 30
0.0
 11
46.000000089
 21
-24.037234485
 31
0.0
  0
LINE
  5
183
330
1D
100
AcDbEntity
  8
1
100
AcDbLine
 10
46.000000089
 20
-24.037234485
 30
0.0
 11
46.000000089
 21
-22.307973355
 31
0.0
  0
LINE
  5
184
330
1D
100
AcDbEntity
  8
1
100
AcDbLine
 10
32.177008688
 20
-25.58657154400001
 30
0.0
 11
20.400000736
 21
-25.58657154400001
 31
0.0
  0
ARC
  5
185
330
1D
100
AcDbEntity
  8
1
100
AcDbCircle
 10
20.38830068
 20
-25.974895933
 30
0.0
 40
0.388500608
100
AcDbArc
 50
88.27422344200008
 51
178.163836620999
  0
ARC
  5
186
330
1D
100
AcDbEntity
  8
1
100
AcDbCircle
 10
13.568207096
 20
31.474620342
 30
0.0
 40
5.0
100
AcDbArc
 50
58.45202942699997
 51
100.790788066
  0
LINE
  5
187
330
1D
100
AcDbEntity
  8
1
100
AcDbLine
 10
1.000000047
 20
0.2076607199999998
 30
0.0
 11
4.999999888
 21
-0.7923413060000044
 31
0.0
  0
LINE
  5
188
330
1D
100
AcDbEntity
  8
1
100
AcDbLine
 10
4.999999888
 20
-0.7923413060000044
 30
0.0
 11
4.999999888
 21
1.207659020999998
 31
0.0
  0
LINE
  5
189
330
1D
100
AcDbEntity
  8
1
100
AcDbLine
 10
4.999999888
 20
1.207659020999998
 30
0.0
 11
1.000000047
 21
0.2076607199999998
 31
0.0
  0
LINE
  5
18A
330
1D
100
AcDbEntity
  8
1
100
AcDbLine
 10
39.9611108
 20
-17.292341217
 30
0.0
 11
38.314100355
 21
-17.292341217
 31
0.0
  0
LINE
  5
18B
330
1D
100
AcDbEntity
  8
1
100
AcDbLine
 10
38.314100355
 20
-17.292341217
 30
0.0
 11
37.647347897
 21
-16.042338684
 31
0.0
  0
LINE
  5
18C
330
1D
100
AcDbEntity
  8
1
100
AcDbLine
 10
37.647347897
 20
-16.042338684
 30
0.0
 11
36.98059544
 21
-14.792339876
 31
0.0
  0
LINE
  5
18D
330
1D
100
AcDbEntity
  8
1
100
AcDbLine
 10
19.999999553
 20
-32.98234008200001
 30
0.0
 11
34.5672234
 21
-32.98234008200001
 31
0.0
  0
LINE
  5
18E
330
1D
100
AcDbEntity
  8
1
100
AcDbLine
 10
34.5672234
 20
-32.98234008200001
 30
0.0
 11
42.777733415
 21
-30.78234009400001
 31
0.0
  0
LINE
  5
18F
330
1D
100
AcDbEntity
  8
1
100
AcDbLine
 10
42.777733415
 20
-30.78234009400001
 30
0.0
 11
44.215337843
 21
-28.292339295
 31
0.0
  0
ARC
  5
190
330
1D
100
AcDbEntity
  8
1
100
AcDbCircle
 10
26.958517582
 20
70.915275012
 30
0.0
 40
27.944974786
100
AcDbArc
 50
246.993187245
 51
288.3967512
  0
ARC
  5
191
330
1D
100
AcDbEntity
  8
1
100
AcDbCircle
 10
15.989100364
 20
44.224770646
 30
0.0
 40
0.966701438
100
AcDbArc
 50
87.25886955300005
 51
181.7045465889997
  0
ARC
  5
192
330
1D
100
AcDbEntity
  8
1
100
AcDbCircle
 10
26.9523703
 20
76.018570004
 30
0.0
 40
33.981577043
100
AcDbArc
 50
249.464773226
 51
284.727552651
  0
ARC
  5
193
330
1D
100
AcDbEntity
  8
1
100
AcDbCircle
 10
46.797053123
 20
43.297285132
 30
0.0
 40
0.15
100
AcDbArc
 50
201.6807760259998
 51
9.69518731399819
  0
ARC
  5
194
330
1D
100
AcDbEntity
  8
1
100
AcDbCircle
 10
46.285962005
 20
43.094095886
 30
0.0
 40
0.4
100
AcDbArc
 50
21.68077603800044
 51
129.6951873100006
  0
ARC
  5
195
330
1D
100
AcDbEntity
  8
1
100
AcDbCircle
 10
45.934675252
 20
43.51729515
 30
0.0
 40
0.15
100
AcDbArc
 50
141.6807760479988
 51
309.6951873140009
  0
ARC
  5
196
330
1D
100
AcDbEntity
  8
1
100
AcDbCircle
 10
45.503162644
 20
43.858318418
 30
0.0
 40
0.4
100
AcDbArc
 50
321.6807760379999
 51
69.69518731599973
  0
ARC
  5
197
330
1D
100
AcDbEntity
  8
1
100
AcDbCircle
 10
45.694020581
 20
44.374141302
 30
0.0
 40
0.15
100
AcDbArc
 50
81.6807760379996
 51
249.6951873140002
  0
ARC
  5
198
330
1D
100
AcDbEntity
  8
1
100
AcDbCircle
 10
45.773599091
 20
44.918353817
 30
0.0
 40
0.4
100
AcDbArc
 50
261.6807760379999
 51
9.695187305999987
  0
ARC
  5
199
330
1D
100
AcDbEntity
  8
1
100
AcDbCircle
 10
46.315743781
 20
45.01097743699999
 30
0.0
 40
0.15
100
AcDbArc
 50
21.68077604000072
 51
189.6951873139982
  0
ARC
  5
19A
330
1D
100
AcDbEntity
  8
1
100
AcDbCircle
 10
46.826834899
 20
45.21416668299999
 30
0.0
 40
0.4
100
AcDbArc
 50
201.6807760379995
 51
309.6951873100006
  0
ARC
  5
19B
330
1D
100
AcDbEntity
  8
1
100
AcDbCircle
 10
47.178121652
 20
44.790967419
 30
0.0
 40
0.15
100
AcDbArc
 50
321.6807760479988
 51
129.6951873140009
  0
ARC
  5
19C
330
1D
100
AcDbEntity
  8
1
100
AcDbCircle
 10
47.609634259
 20
44.449944151
 30
0.0
 40
0.4
100
AcDbArc
 50
141.6807760379999
 51
249.6951873159997
  0
ARC
  5
19D
330
1D
100
AcDbEntity
  8
1
100
AcDbCircle
 10
47.418776323
 20
43.934121266
 30
0.0
 40
0.15
100
AcDbArc
 50
261.6807760320007
 51
69.69518731400021
  0
ARC
  5
19E
330
1D
100
AcDbEntity
  8
1
100
AcDbCircle
 10
47.339197813
 20
43.389908752
 30
0.0
 40
0.4
100
AcDbArc
 50
81.68077603800008
 51
189.695187314
  0
LINE
  5
19F
330
1D
100
AcDbEntity
  8
1
100
AcDbLine
 10
49.475498497
 20
39.188111201
 30
0.0
 11
49.97859691
 21
48.787818554
 31
0.0
  0
ARC
  5
1A0
330
1D
100
AcDbEntity
  8
1
100
AcDbCircle
 10
49.579145096
 20
48.80875293699999
 30
0.0
 40
0.4
100
AcDbArc
 50
357.0000000000005
 51
116.9999009609994
  0
ARC
  5
1A2
330
1D
100
AcDbEntity
  8
1
100
AcDbCircle
 10
41.014004534
 20
44.444595842
 30
0.0
 40
0.4
100
AcDbArc
 50
117.0000000000007
 51
236.9998644760002
  0
ARC
  5
1A4
330
1D
100
AcDbEntity
  8
1
100
AcDbCircle
 10
49.076045726
 20
39.209045075
 30
0.0
 40
0.4
100
AcDbArc
 50
237.0000000000003
 51
356.9999999999995
  0
LINE
  5
1A5
330
1D
100
AcDbEntity
  8
1
100
AcDbLine
 10
43.066322803
 20
45.939231292
 30
0.0
 11
41.707788398
 21
46.010431924
 31
0.0
  0
ARC
  5
1A6
330
1D
100
AcDbEntity
  8
1
100
AcDbCircle
 10
41.624050868
 20
44.412624668
 30
0.0
 40
1.6
100
AcDbArc
 50
87.0
 51
267.000009979
  0
LINE
  5
1A7
330
1D
100
AcDbEntity
  8
1
100
AcDbLine
 10
41.540313512
 20
42.814815417
 30
0.0
 11
42.898844927
 21
42.743617669
 31
0.0
  0
LINE
  5
1A8
330
1D
100
AcDbEntity
  8
1
100
AcDbLine
 10
18.242621794
 20
29.699834064
 30
0.0
 11
18.371589482
 21
30.086273328
 31
0.0
  0
LINE
  5
1A9
330
1D
100
AcDbEntity
  8
1
100
AcDbLine
 10
18.371589482
 20
30.086273328
 30
0.0
 11
18.517509103
 21
30.764402822
 31
0.0
  0
LINE
  5
1AA
330
1D
100
AcDbEntity
  8
1
100
AcDbLine
 10
36.98059544
 20
-19.792340696
 30
0.0
 11
37.647347897
 21
-18.542340025
 31
0.0
  0
LINE
  5
1AB
330
1D
100
AcDbEntity
  8
1
100
AcDbLine
 10
37.647347897
 20
-18.542340025
 30
0.0
 11
38.314100355
 21
-17.292341217
 31
0.0
  0
LINE
  5
1AC
330
1D
100
AcDbEntity
  8
SK1
100
AcDbLine
 10
-11.599999853
 20
-30.79234063600001
 30
0.0
 11
-11.599999853
 21
-31.328238547
 31
0.0
  0
LINE
  5
1AD
330
1D
100
AcDbEntity
  8
SK1
100
AcDbLine
 10
-11.599999853
 20
-31.328238547
 30
0.0
 11
-11.599999853
 21
-38.79234008500001
 31
0.0
  0
LINE
  5
1AE
330
1D
100
AcDbEntity
  8
SK1
100
AcDbLine
 10
-11.599999853
 20
4.207661375999997
 30
0.0
 11
-11.599999853
 21
3.671759739999999
 31
0.0
  0
LINE
  5
1AF
330
1D
100
AcDbEntity
  8
SK1
100
AcDbLine
 10
-11.599999853
 20
3.671759739999999
 30
0.0
 11
-11.599999853
 21
-3.792339936000005
 31
0.0
  0
LINE
  5
1B0
330
1D
100
AcDbEntity
  8
1
100
AcDbLine
 10
40.942076594
 20
-26.908004656
 30
0.0
 11
39.095271379
 21
-28.292339295
 31
0.0
  0
LINE
  5
1B1
330
1D
100
AcDbEntity
  8
1
100
AcDbLine
 10
19.999999553
 20
-30.78234009400001
 30
0.0
 11
42.777733415
 21
-30.78234009400001
 31
0.0
  0
LINE
  5
1B2
330
1D
100
AcDbEntity
  8
1
100
AcDbLine
 10
46.000000089
 20
37.085900083
 30
0.0
 11
46.000000089
 21
32.133670524
 31
0.0
  0
LINE
  5
1B3
330
1D
100
AcDbEntity
  8
1
100
AcDbLine
 10
27.772337198
 20
41.092561558
 30
0.0
 11
41.000001133
 21
41.092561558
 31
0.0
  0
LINE
  5
1B4
330
1D
100
AcDbEntity
  8
1
100
AcDbLine
 10
16.932606697
 20
34.341873601
 30
0.0
 11
16.922501847
 21
34.348646179
 31
0.0
  0
LINE
  5
1B5
330
1D
100
AcDbEntity
  8
1
100
AcDbLine
 10
31.244460493
 20
45.001002029
 30
0.0
 11
30.09999916
 21
45.307660476
 31
0.0
  0
LINE
  5
1B6
330
1D
100
AcDbEntity
  8
1
100
AcDbLine
 10
30.09999916
 20
45.307660476
 30
0.0
 11
23.900000378
 21
45.307660476
 31
0.0
  0
LINE
  5
1B7
330
1D
100
AcDbEntity
  8
1
100
AcDbLine
 10
23.900000378
 20
45.307660476
 30
0.0
 11
22.752404213
 21
45.000160113
 31
0.0
  0
LINE
  5
1B8
330
1D
100
AcDbEntity
  8
1
100
AcDbLine
 10
14.999999665
 20
44.196816162
 30
0.0
 11
14.999999665
 21
42.641187087
 31
0.0
  0
LINE
  5
1B9
330
1D
100
AcDbEntity
  8
1
100
AcDbLine
 10
37.975661457
 20
42.51440055699999
 30
0.0
 11
37.500586361
 21
45.20748742
 31
0.0
  0
LINE
  5
1BA
330
1D
100
AcDbEntity
  8
1
100
AcDbLine
 10
49.031469971
 20
38.811536506
 30
0.0
 11
49.334041774
 21
38.615042344
 31
0.0
  0
LINE
  5
1BB
330
1D
100
AcDbEntity
  8
1
100
AcDbLine
 10
49.334041774
 20
38.615042344
 30
0.0
 11
49.23408106
 21
36.707656458
 31
0.0
  0
LINE
  5
1BC
330
1D
100
AcDbEntity
  8
1
100
AcDbLine
 10
49.23408106
 20
36.707656458
 30
0.0
 11
46.000000089
 21
36.707656458
 31
0.0
  0
LINE
  5
1BD
330
1D
100
AcDbEntity
  8
1
100
AcDbLine
 10
49.334041774
 20
38.615042344
 30
0.0
 11
49.233224243
 21
38.802782074
 31
0.0
  0
LINE
  5
1BE
330
1D
100
AcDbEntity
  8
CUT
100
AcDbLine
 10
49.233224243
 20
38.802782074
 30
0.0
 11
49.195483327
 21
38.827294484
 31
0.0
  0
LINE
  5
1BF
330
1D
100
AcDbEntity
  8
1
100
AcDbLine
 10
48.388887197
 20
48.651220277
 30
0.0
 11
47.95948416
 21
48.575336114
 31
0.0
  0
LINE
  5
1C0
330
1D
100
AcDbEntity
  8
4
100
AcDbLine
 10
-8.240865093
 20
8.957660570999998
 30
0.0
 11
2.939699663
 21
8.957660570999998
 31
0.0
  0
LINE
  5
1C1
330
1D
100
AcDbEntity
  8
4
100
AcDbLine
 10
-14.989760318
 20
0.0
 30
0.0
 11
0.0
 21
0.0
 31
0.0
  0
LINE
  5
1C2
330
1D
100
AcDbEntity
  8
4
100
AcDbLine
 10
-8.240865093
 20
-8.542340398
 30
0.0
 11
2.939699663
 21
-8.542340398
 31
0.0
  0
LINE
  5
1C3
330
1D
100
AcDbEntity
  8
4
100
AcDbLine
 10
-8.240865093
 20
-26.042340435
 30
0.0
 11
2.939699663
 21
-26.042340435
 31
0.0
  0
LINE
  5
1C4
330
1D
100
AcDbEntity
  8
4
100
AcDbLine
 10
-14.989760318
 20
-35.000000149
 30
0.0
 11
2.939699663
 21
-35.000000149
 31
0.0
  0
LINE
  5
1C5
330
1D
100
AcDbEntity
  8
4
100
AcDbLine
 10
18.75
 20
15.707659975
 30
0.0
 11
35.25
 21
15.707659975
 31
0.0
  0
LINE
  5
1C6
330
1D
100
AcDbEntity
  8
4
100
AcDbLine
 10
27.0
 20
-34.781407691
 30
0.0
 11
27.0
 21
46.918147225
 31
0.0
  0
LINE
  5
1C7
330
1D
100
AcDbEntity
  8
1
100
AcDbLine
 10
37.047825754
 20
-22.28734083400001
 30
0.0
 11
37.10000217
 21
-22.28954806900001
 31
0.0
  0
CIRCLE
  5
1C8
330
1D
100
AcDbEntity
  8
1
100
AcDbCircle
 10
27.0
 20
15.707659975
 30
0.0
 40
5.25
  0
LINE
  5
1CA
330
1D
100
AcDbEntity
  8
2
100
AcDbLine
 10
49.97859691
 20
58.801783207
 30
0.0
 11
49.97859691
 21
48.787818554
 31
0.0
  0
LINE
  5
1CB
330
1D
100
AcDbEntity
  8
2
100
AcDbLine
 10
49.97859691
 20
56.801783207
 30
0.0
 11
46.47859691
 21
56.351783207
 31
0.0
  0
LINE
  5
1CC
330
1D
100
AcDbEntity
  8
2
100
AcDbLine
 10
46.47859691
 20
56.351783207
 30
0.0
 11
46.47859691
 21
57.251783207
 31
0.0
  0
LINE
  5
1CD
330
1D
100
AcDbEntity
  8
2
100
AcDbLine
 10
46.47859691
 20
57.251783207
 30
0.0
 11
49.97859691
 21
56.801783207
 31
0.0
  0
LINE
  5
1CE
330
1D
100
AcDbEntity
  8
2
100
AcDbLine
 10
-4.997859691
 20
56.801783207
 30
0.0
 11
46.47859691
 21
56.801783207
 31
0.0
  0
TEXT
  5
1CF
330
1D
100
AcDbEntity
  8
2
100
AcDbText
 10
20.470211745
 20
58.301783207
 30
0.0
 40
3.5
  1
117
  7
BMG_Text
100
AcDbText
  0
LINE
  5
1D0
330
1D
100
AcDbEntity
  8
SK2
100
AcDbLine
 10
68.767480791
 20
49.165154723
 30
0.0
 11
49.397550523
 21
49.165153876
 31
0.0
  0
LINE
  5
1D1
330
1D
100
AcDbEntity
  8
SK2
100
AcDbLine
 10
66.767480791
 20
49.165154635
 30
0.0
 11
67.217480944
 21
45.66515465499999
 31
0.0
  0
LINE
  5
1D2
330
1D
100
AcDbEntity
  8
SK2
100
AcDbLine
 10
67.217480944
 20
45.66515465499999
 30
0.0
 11
66.317480944
 21
45.665154616
 31
0.0
  0
LINE
  5
1D3
330
1D
100
AcDbEntity
  8
SK2
100
AcDbLine
 10
66.317480944
 20
45.665154616
 30
0.0
 11
66.767480791
 21
49.165154635
 31
0.0
  0
LINE
  5
1D4
330
1D
100
AcDbEntity
  8
SK2
100
AcDbLine
 10
66.767482021
 20
21.016931143
 30
0.0
 11
66.767480944
 21
45.665154635
 31
0.0
  0
CIRCLE
  5
1D5
330
1D
100
AcDbEntity
  8
SK2
100
AcDbCircle
 10
63.87791964291616
 20
22.73983747114938
 30
0.0
 40
1.25
  0
LINE
  5
1D6
330
1D
100
AcDbEntity
  8
SK2
100
AcDbLine
 10
65.12791969791616
 20
21.48983752614938
 30
0.0
 11
62.62791958891616
 21
23.98983741714938
 31
0.0
  0
TEXT
  5
1D7
330
1D
100
AcDbEntity
  8
SK2
100
AcDbText
 10
65.12791954491615
 20
24.98983752614938
 30
0.0
 40
3.499999999999999
  1
200-620
 50
90.00000250400001
  7
BMG_Text
100
AcDbText
  0
TEXT
  5
1D8
330
1D
100
AcDbEntity
  8
SK6
100
AcDbText
 10
25.22790482157944
 20
-41.93257449689528
 30
0.0
 40
3.5
  1
318.101
  7
BMG_Text
100
AcDbText
  0
LINE
  5
1D9
330
1D
100
AcDbEntity
  8
SK3
100
AcDbLine
 10
10.35188511
 20
-28.292339295
 30
0.0
 11
19.999999553
 21
-28.292339295
 31
0.0
  0
LINE
  5
1DA
330
1D
100
AcDbEntity
  8
SK3
100
AcDbLine
 10
11.789489537
 20
-30.78234009400001
 30
0.0
 11
19.999999553
 21
-30.78234009400001
 31
0.0
  0
LINE
  5
1DB
330
1D
100
AcDbEntity
  8
SK3
100
AcDbLine
 10
10.35188511
 20
-24.292339295
 30
0.0
 11
44.215337843
 21
-24.292339295
 31
0.0
  0
LINE
  5
1DC
330
1D
100
AcDbEntity
  8
SK3
100
AcDbLine
 10
10.35188511
 20
-28.292339295
 30
0.0
 11
10.35188511
 21
-24.292339295
 31
0.0
  0
LINE
  5
1DD
330
1D
100
AcDbEntity
  8
SK3
100
AcDbLine
 10
44.215337843
 20
-28.292339295
 30
0.0
 11
44.215337843
 21
-24.292339295
 31
0.0
  0
LINE
  5
1DE
330
1D
100
AcDbEntity
  8
SK3
100
AcDbLine
 10
14.511441812
 20
42.705440894
 30
0.0
 11
14.511441812
 21
-24.292339295
 31
0.0
  0
LINE
  5
283
330
1D
100
AcDbEntity
  8
1
100
AcDbLine
 10
43.066322803
 20
45.939231292
 30
0.0
 11
48.388887197
 21
48.651220277
 31
0.0
  0
LINE
  5
284
330
1D
100
AcDbEntity
  8
3
100
AcDbLine
 10
48.388887197
 20
48.651220277
 30
0.0
 11
49.579145096
 21
48.80875293699999
 31
0.0
  0
LINE
  5
285
330
1D
100
AcDbEntity
  8
3
100
AcDbLine
 10
49.579145096
 20
48.80875293699999
 30
0.0
 11
49.076045726
 21
39.209045075
 31
0.0
  0
LINE
  5
286
330
1D
100
AcDbEntity
  8
3
100
AcDbLine
 10
49.076045726
 20
39.209045075
 30
0.0
 11
49.195483327
 21
38.827294484
 31
0.0
  0
LINE
  5
287
330
1D
100
AcDbEntity
  8
1
100
AcDbLine
 10
49.195483327
 20
38.827294484
 30
0.0
 11
49.233224243
 21
38.802782074
 31
0.0
  0
LINE
  5
288
330
1D
100
AcDbEntity
  8
1
100
AcDbLine
 10
49.031469971
 20
38.811536506
 30
0.0
 11
48.8698049018741
 21
38.811536506
 31
0.0
  0
LINE
  5
289
330
1D
100
AcDbEntity
  8
1
100
AcDbLine
 10
48.8698049018741
 20
38.811536506
 30
0.0
 11
48.8698049018741
 21
38.86631380641793
 31
0.0
  0
LINE
  5
28C
330
1D
100
AcDbEntity
  8
1
100
AcDbLine
 10
40.83240833410418
 20
44.80099845167534
 30
0.0
 11
49.39754951216655
 21
49.16515586057413
 31
0.0
  0
LINE
  5
28E
330
1D
100
AcDbEntity
  8
1
100
AcDbLine
 10
48.85819011199398
 20
38.87357684782182
 30
0.0
 11
42.898844927
 21
42.743617669
 31
0.0
  0
LINE
  5
290
330
1D
100
AcDbEntity
  8
1
100
AcDbLine
 10
40.79614812649818
 20
44.10912813012537
 30
0.0
 11
48.85819011199398
 21
38.87357684782182
 31
0.0
  0
LINE
  5
294
330
1D
100
AcDbEntity
  8
NOCUT
100
AcDbLine
 10
49.195483327
 20
38.827294484
 30
0.0
 11
49.233224243
 21
38.802782074
 31
0.0
  0
LINE
  5
295
330
1D
100
AcDbEntity
  8
NOCUT
100
AcDbLine
 10
49.233224243
 20
38.802782074
 30
0.0
 11
49.334041774
 21
38.615042344
 31
0.0
  0
LINE
  5
296
330
1D
100
AcDbEntity
  8
NOCUT
100
AcDbLine
 10
49.334041774
 20
38.615042344
 30
0.0
 11
49.23408106
 21
36.707656458
 31
0.0
  0
LINE
  5
297
330
1D
100
AcDbEntity
  8
NOCUT
100
AcDbLine
 10
49.23408106
 20
36.707656458
 30
0.0
 11
46.000000089
 21
36.707656458
 31
0.0
  0
LINE
  5
298
330
1D
100
AcDbEntity
  8
NOCUT
100
AcDbLine
 10
46.000000089
 20
36.707656458
 30
0.0
 11
46.000000089
 21
-27.79234014400001
 31
0.0
  0
LINE
  5
299
330
1D
100
AcDbEntity
  8
NOCUT
100
AcDbLine
 10
46.000000089
 20
-27.79234014400001
 30
0.0
 11
45.499999076
 21
-28.292339295
 31
0.0
  0
LINE
  5
29A
330
1D
100
AcDbEntity
  8
NOCUT
100
AcDbLine
 10
45.499999076
 20
-28.292339295
 30
0.0
 11
44.215337843
 21
-28.292339295
 31
0.0
  0
LINE
  5
29B
330
1D
100
AcDbEntity
  8
NOCUT
100
AcDbLine
 10
44.215337843
 20
-28.292339295
 30
0.0
 11
42.777733415
 21
-30.78234009400001
 31
0.0
  0
LINE
  5
29C
330
1D
100
AcDbEntity
  8
NOCUT
100
AcDbLine
 10
42.777733415
 20
-30.78234009400001
 30
0.0
 11
34.5672234
 21
-32.98234008200001
 31
0.0
  0
LINE
  5
29D
330
1D
100
AcDbEntity
  8
NOCUT
100
AcDbLine
 10
34.5672234
 20
-32.98234008200001
 30
0.0
 11
19.999999553
 21
-32.98234008200001
 31
0.0
  0
LINE
  5
29E
330
1D
100
AcDbEntity
  8
NOCUT
100
AcDbLine
 10
19.999999553
 20
-32.98234008200001
 30
0.0
 11
19.999999553
 21
-43.04233985
 31
0.0
  0
LINE
  5
29F
330
1D
100
AcDbEntity
  8
NOCUT
100
AcDbLine
 10
19.999999553
 20
-43.04233985
 30
0.0
 11
19.500000402
 21
-43.542339932
 31
0.0
  0
LINE
  5
2A0
330
1D
100
AcDbEntity
  8
NOCUT
100
AcDbLine
 10
19.500000402
 20
-43.542339932
 30
0.0
 11
1.000000047
 21
-43.542339932
 31
0.0
  0
LINE
  5
2A1
330
1D
100
AcDbEntity
  8
NOCUT
100
AcDbLine
 10
1.000000047
 20
-43.542339932
 30
0.0
 11
0.0
 21
-42.54234023400001
 31
0.0
  0
LINE
  5
2A2
330
1D
100
AcDbEntity
  8
NOCUT
100
AcDbLine
 10
0.0
 20
-42.54234023400001
 30
0.0
 11
0.0
 21
41.70765914099999
 31
0.0
  0
LINE
  5
2A3
330
1D
100
AcDbEntity
  8
NOCUT
100
AcDbLine
 10
0.0
 20
41.70765914099999
 30
0.0
 11
1.000000047
 21
42.707661167
 31
0.0
  0
LINE
  5
2A4
330
1D
100
AcDbEntity
  8
NOCUT
100
AcDbLine
 10
1.000000047
 20
42.707661167
 30
0.0
 11
14.531604946
 21
42.707661167
 31
0.0
  0
LINE
  5
2A5
330
1D
100
AcDbEntity
  8
NOCUT
100
AcDbLine
 10
14.531604946
 20
42.707661167
 30
0.0
 11
14.999999665
 21
42.641187087
 31
0.0
  0
LINE
  5
2A6
330
1D
100
AcDbEntity
  8
NOCUT
100
AcDbLine
 10
14.999999665
 20
42.641187087
 30
0.0
 11
14.999999665
 21
44.196816162
 31
0.0
  0
ARC
  5
2A7
330
1D
100
AcDbEntity
  8
NOCUT
100
AcDbCircle
 10
15.989100364
 20
44.224770646
 30
0.0
 40
0.9667014379999984
100
AcDbArc
 50
89.9999999999999
 51
181.7045465889997
  0
LINE
  5
2A8
330
1D
100
AcDbEntity
  8
NOCUT
100
AcDbLine
 10
16.031501815
 20
45.207658783
 30
0.0
 11
21.506689489
 21
45.207658783
 31
0.0
  0
LINE
  5
2A9
330
1D
100
AcDbEntity
  8
NOCUT
100
AcDbLine
 10
21.506689489
 20
45.207658783
 30
0.0
 11
22.769801319
 21
44.997500256
 31
0.0
  0
LINE
  5
2AA
330
1D
100
AcDbEntity
  8
NOCUT
100
AcDbLine
 10
22.769801319
 20
44.997500256
 30
0.0
 11
23.900000378
 21
45.307660476
 31
0.0
  0
LINE
  5
2AB
330
1D
100
AcDbEntity
  8
NOCUT
100
AcDbLine
 10
23.900000378
 20
45.307660476
 30
0.0
 11
30.09999916
 21
45.307660476
 31
0.0
  0
LINE
  5
2AC
330
1D
100
AcDbEntity
  8
NOCUT
100
AcDbLine
 10
30.09999916
 20
45.307660476
 30
0.0
 11
31.244460493
 21
45.001002029
 31
0.0
  0
LINE
  5
2AD
330
1D
100
AcDbEntity
  8
NOCUT
100
AcDbLine
 10
31.244460493
 20
45.001002029
 30
0.0
 11
32.481387258
 21
45.204194263
 31
0.0
  0
LINE
  5
2AE
330
1D
100
AcDbEntity
  8
NOCUT
100
AcDbLine
 10
32.481387258
 20
45.204194263
 30
0.0
 11
38.12731841083183
 21
45.204194263
 31
0.0
  0
LINE
  5
2AF
330
1D
100
AcDbEntity
  8
NOCUT
100
AcDbLine
 10
38.12731841083183
 20
45.204194263
 30
0.0
 11
39.194490761
 21
47.103213147
 31
0.0
  0
LINE
  5
2B0
330
1D
100
AcDbEntity
  8
NOCUT
100
AcDbLine
 10
39.194490761
 20
47.103213147
 30
0.0
 11
47.925170511
 21
48.642674461
 31
0.0
  0
LINE
  5
2B1
330
1D
100
AcDbEntity
  8
NOCUT
100
AcDbLine
 10
47.925170511
 20
48.642674461
 30
0.0
 11
47.95948416
 21
48.575336114
 31
0.0
  0
LINE
  5
2B2
330
1D
100
AcDbEntity
  8
NOCUT
100
AcDbLine
 10
47.95948416
 20
48.575336114
 30
0.0
 11
48.388887197
 21
48.651220277
 31
0.0
  0
LWPOLYLINE
  5
2B8
330
1D
100
AcDbEntity
  8
INFTOTAL
100
AcDbPolyline
 90
        4
 70
     1
 43
0.0
 10
-23.99999999999995
 20
67.0
 10
-23.99999999999989
 20
-47.99999999999999
 10
73.50000000000011
 20
-47.99999999999996
 10
73.50000000000004
 20
67.0
  0
CIRCLE
  5
2DA
330
1D
100
AcDbEntity
  8
1
100
AcDbCircle
 10
46.556398452
 20
44.15413128399999
 30
0.0
 40
1.725
  0
LINE
  5
334
330
1D
100
AcDbEntity
  8
SK4
100
AcDbLine
 10
-8.240865093000025
 20
8.957660570999998
 30
0.0
 11
2.939699662999999
 21
8.957660570999998
 31
0.0
  0
LINE
  5
335
330
1D
100
AcDbEntity
  8
SK4
100
AcDbLine
 10
-14.98976031799998
 20
0.0
 30
0.0
 11
0.0
 21
0.0
 31
0.0
  0
LINE
  5
336
330
1D
100
AcDbEntity
  8
SK4
100
AcDbLine
 10
-8.240865093000025
 20
-8.542340398
 30
0.0
 11
2.939699662999999
 21
-8.542340398
 31
0.0
  0
LINE
  5
337
330
1D
100
AcDbEntity
  8
SK4
100
AcDbLine
 10
-8.240865093000025
 20
-26.042340435
 30
0.0
 11
2.939699662999999
 21
-26.042340435
 31
0.0
  0
LINE
  5
338
330
1D
100
AcDbEntity
  8
SK4
100
AcDbLine
 10
-14.98976031799998
 20
-35.000000149
 30
0.0
 11
2.939699662999999
 21
-35.000000149
 31
0.0
  0
LINE
  5
339
330
1D
100
AcDbEntity
  8
SK4
100
AcDbLine
 10
18.75
 20
15.707659975
 30
0.0
 11
35.25
 21
15.707659975
 31
0.0
  0
LINE
  5
33A
330
1D
100
AcDbEntity
  8
SK4
100
AcDbLine
 10
27.0
 20
-34.781407691
 30
0.0
 11
27.0
 21
46.918147225
 31
0.0
  0
LINE
  5
352
330
1D
100
AcDbEntity
  8
SK4
100
AcDbLine
 10
48.77135999694024
 20
44.03805006789428
 30
0.0
 11
44.34143690705964
 21
44.27021250010564
 31
0.0
  0
LINE
  5
353
330
1D
100
AcDbEntity
  8
SK4
100
AcDbLine
 10
46.67247966810562
 20
46.36909282894027
 30
0.0
 11
46.44031723589426
 21
41.93916973905966
 31
0.0
  0
LINE
  5
354
330
1D
100
AcDbEntity
  8
CUT
100
AcDbLine
 10
49.47549849699999
 20
39.188111201
 30
0.0
 11
49.97859690999999
 21
48.787818554
 31
0.0
  0
ARC
  5
355
330
1D
100
AcDbEntity
  8
CUT
100
AcDbCircle
 10
49.57914509599999
 20
48.80875293699999
 30
0.0
 40
0.4
100
AcDbArc
 50
357.0000000000005
 51
116.9999009610008
  0
ARC
  5
356
330
1D
100
AcDbEntity
  8
CUT
100
AcDbCircle
 10
41.01400453400001
 20
44.444595842
 30
0.0
 40
0.4
100
AcDbArc
 50
117.0000000000025
 51
236.9998644759994
  0
ARC
  5
357
330
1D
100
AcDbEntity
  8
CUT
100
AcDbCircle
 10
49.07604572599999
 20
39.209045075
 30
0.0
 40
0.4
100
AcDbArc
 50
237.000000000002
 51
356.9999999999995
  0
CIRCLE
  5
358
330
1D
100
AcDbEntity
  8
1
100
AcDbCircle
 10
46.556398452
 20
44.15413128399999
 30
0.0
 40
1.725
  0
LINE
  5
359
330
1D
100
AcDbEntity
  8
CUT
100
AcDbLine
 10
40.83240833410417
 20
44.80099845167534
 30
0.0
 11
49.39754951216653
 21
49.16515586057413
 31
0.0
  0
LINE
  5
35A
330
1D
100
AcDbEntity
  8
CUT
100
AcDbLine
 10
40.79614812649818
 20
44.10912813012537
 30
0.0
 11
48.85819011199399
 21
38.87357684782182
 31
0.0
  0
HATCH
  5
37F
330
1D
100
AcDbEntity
  8
7
100
AcDbHatch
 10
0.0
 20
0.0
 30
0.0
210
0.0
220
0.0
230
1.0
  2
ANSI37
 70
     0
 71
     0
 91
        2
 92
        7
 72
     1
 73
     1
 93
        6
 10
49.47549777917635
 20
39.18811081962711
 42
0.0
 10
49.97859690992635
 20
48.78781855437712
 42
0.5773500771905852
 10
49.39754910145487
 20
49.16515565130609
 42
0.0
 10
40.83240833410417
 20
44.80099845167534
 42
0.5773500063707389
 10
40.796148655491
 20
44.10912778659341
 42
0.0
 10
48.85819011199399
 20
38.87357684782182
 42
0.5773500501303511
 97
        0
 92
       22
 72
     1
 73
     1
 93
        2
 10
44.831398452
 20
44.15413128399999
 42
-0.9999999999999999
 10
48.28139845199999
 20
44.15413128399999
 42
-0.9999999999999999
 97
        0
 75
     0
 76
     1
 52
90.0
 41
5.0
 77
     0
 78
     2
 53
135.0
 43
-82.29637040963792
 44
-7.751084340482748
 45
-0.4419417382415922
 46
-0.4419417382415922
 79
     0
 53
225.0
 43
-82.29637040963792
 44
-7.751084340482748
 45
0.4419417382415922
 46
-0.4419417382415923
 79
     0
 47
0.0
 98
        2
 10
49.66921911048047
 20
45.15702429193528
 10
49.66921911048047
 20
45.15702429193528
1001
ACAD
1010
0.0
1020
0.0
1030
0.0
1001
PE_URL
1000

  0
LINE
  5
38B
330
1D
100
AcDbEntity
  8
NOCUT
100
AcDbLine
 10
48.388887197
 20
48.651220277
 30
0.0
 11
49.579145096
 21
48.80875293699999
 31
0.0
  0
LINE
  5
38C
330
1D
100
AcDbEntity
  8
NOCUT
100
AcDbLine
 10
49.579145096
 20
48.80875293699999
 30
0.0
 11
49.076045726
 21
39.209045075
 31
0.0
  0
LINE
  5
38D
330
1D
100
AcDbEntity
  8
NOCUT
100
AcDbLine
 10
49.076045726
 20
39.209045075
 30
0.0
 11
49.195483327
 21
38.827294484
 31
0.0
  0
LINE
  5
38E
330
1D
100
AcDbEntity
  8
4
100
AcDbLine
 10
48.77135999694024
 20
44.03805006789428
 30
0.0
 11
44.34143690705964
 21
44.27021250010564
 31
0.0
  0
LINE
  5
38F
330
1D
100
AcDbEntity
  8
4
100
AcDbLine
 10
46.67247966810562
 20
46.36909282894027
 30
0.0
 11
46.44031723589426
 21
41.93916973905966
 31
0.0
  0
LINE
  5
3A6
330
1D
100
AcDbEntity
  8
SK1
100
AcDbLine
 10
0.0
 20
-38.79234008500001
 30
0.0
 11
0.0
 21
12.957656756
 31
0.0
  0
ENDSEC
  0
SECTION
  2
OBJECTS
  0
DICTIONARY
  5
C
330
0
100
AcDbDictionary
281
     1
  3
ACAD_COLOR
350
2EB
  3
ACAD_DETAILVIEWSTYLE
350
27E
  3
ACAD_GROUP
350
D
  3
ACAD_LAYOUT
350
1A
  3
ACAD_MATERIAL
350
21D
  3
ACAD_MLEADERSTYLE
350
22B
  3
ACAD_MLINESTYLE
350
17
  3
ACAD_PLOTSETTINGS
350
19
  3
ACAD_PLOTSTYLENAME
350
E
  3
ACAD_SCALELIST
350
1E6
  3
ACAD_SECTIONVIEWSTYLE
350
27F
  3
ACAD_TABLESTYLE
350
274
  3
ACAD_VISUALSTYLE
350
20C
  3
ACDB_RECOMPOSE_DATA
350
3AE
  3
AcDbVariableDictionary
350
229
  3
APPDATA
350
277
  0
SUN
  5
2B9
330
1DF
100
AcDbSun
 90
        1
290
     0
 63
     7
421
 16777215
 40
1.0
291
     1
 91
  2455826
 92
 54000000
292
     0
 70
     2
 71
   256
280
     1
  0
DICTIONARY
  5
278
330
2
100
AcDbDictionary
280
     1
281
     1
  3
ACAD_LAYERSTATES
360
279
  0
DICTIONARY
  5
2F9
330
1D
100
AcDbDictionary
280
     1
281
     1
  3
ACAD_SORTENTS
360
2FA
  0
DICTIONARY
  5
2EB
102
{ACAD_REACTORS
330
C
102
}
330
C
100
AcDbDictionary
281
     1
  0
DICTIONARY
  5
27E
102
{ACAD_REACTORS
330
C
102
}
330
C
100
AcDbDictionary
281
     1
  0
DICTIONARY
  5
D
102
{ACAD_REACTORS
330
C
102
}
330
C
100
AcDbDictionary
281
     1
  0
DICTIONARY
  5
1A
102
{ACAD_REACTORS
330
C
102
}
330
C
100
AcDbDictionary
281
     1
  3
Layout1
350
1C
  3
Model
350
1E
  0
DICTIONARY
  5
21D
102
{ACAD_REACTORS
330
C
102
}
330
C
100
AcDbDictionary
281
     1
  3
ByBlock
350
21F
  3
ByLayer
350
21E
  3
Global
350
220
  0
DICTIONARY
  5
22B
102
{ACAD_REACTORS
330
C
102
}
330
C
100
AcDbDictionary
281
     1
  3
Standard
350
276
  0
DICTIONARY
  5
17
102
{ACAD_REACTORS
330
C
102
}
330
C
100
AcDbDictionary
281
     1
  3
Standard
350
18
  0
DICTIONARY
  5
19
102
{ACAD_REACTORS
330
C
102
}
330
C
100
AcDbDictionary
281
     1
  0
ACDBDICTIONARYWDFLT
  5
E
102
{ACAD_REACTORS
330
C
102
}
330
C
100
AcDbDictionary
281
     1
  3
Normal
350
F
100
AcDbDictionaryWithDefault
340
F
  0
DICTIONARY
  5
1E6
102
{ACAD_REACTORS
330
C
102
}
330
C
100
AcDbDictionary
281
     1
  3
A0
350
1E7
  3
A1
350
1E8
  3
A2
350
1E9
  3
A3
350
1EA
  3
A4
350
1EB
  3
A5
350
1EC
  3
A6
350
1ED
  3
A7
350
1EE
  3
A8
350
1EF
  3
A9
350
1F0
  3
B0
350
1F1
  3
B1
350
1F2
  3
B2
350
1F3
  3
B3
350
1F4
  3
B4
350
1F5
  3
B5
350
1F6
  3
B6
350
1F7
  3
B7
350
1F8
  3
B8
350
1F9
  3
B9
350
1FA
  3
C0
350
1FB
  3
C1
350
1FC
  3
C2
350
1FD
  3
C3
350
1FE
  3
C4
350
1FF
  3
C5
350
200
  3
C6
350
201
  3
C7
350
202
  3
C8
350
203
  3
C9
350
204
  3
D0
350
205
  3
D1
350
206
  3
D2
350
207
  0
DICTIONARY
  5
27F
102
{ACAD_REACTORS
330
C
102
}
330
C
100
AcDbDictionary
281
     1
  0
DICTIONARY
  5
274
102
{ACAD_REACTORS
330
C
102
}
330
C
100
AcDbDictionary
281
     1
  3
Standard
350
275
  0
DICTIONARY
  5
20C
102
{ACAD_REACTORS
330
C
102
}
330
C
100
AcDbDictionary
281
     1
  3
2dWireframe
350
211
  3
3D Hidden
350
213
  3
3dWireframe
350
212
  3
Basic
350
214
  3
Brighten
350
218
  3
ColorChange
350
21C
  3
Conceptual
350
216
  3
Dim
350
217
  3
EdgeColorOff
350
26E
  3
Facepattern
350
21B
  3
Flat
350
20D
  3
FlatWithEdges
350
20E
  3
Gouraud
350
20F
  3
GouraudWithEdges
350
210
  3
Hidden
350
26B
  3
JitterOff
350
26C
  3
Linepattern
350
21A
  3
OverhangOff
350
26D
  3
Realistic
350
215
  3
Shaded
350
273
  3
Shaded with edges
350
272
  3
Shades of Gray
350
26F
  3
Sketchy
350
270
  3
Thicken
350
219
  3
Wireframe
350
26A
  3
X-Ray
350
271
  0
XRECORD
  5
3AE
102
{ACAD_REACTORS
330
C
102
}
330
C
100
AcDbXrecord
280
     1
 90
        1
330
275
  0
DICTIONARY
  5
229
102
{ACAD_REACTORS
330
C
102
}
330
C
100
AcDbDictionary
281
     1
  3
CANNOSCALE
350
27B
  3
CMLEADERSTYLE
350
27D
  3
CTABLESTYLE
350
27C
  3
DIMASSOC
350
22D
  3
HIDETEXT
350
22E
  3
MSLTSCALE
350
22C
  0
DICTIONARY
  5
277
102
{ACAD_REACTORS
330
C
102
}
330
C
100
AcDbDictionary
281
     1
  0
DICTIONARY
  5
279
102
{ACAD_REACTORS
330
278
102
}
330
278
100
AcDbDictionary
281
     1
  0
SORTENTSTABLE
  5
2FA
102
{ACAD_REACTORS
330
2F9
102
}
330
2F9
100
AcDbSortentsTable
330
1D
331
0
  5
2D8
331
2DA
  5
2DC
331
354
  5
356
331
355
  5
357
331
356
  5
358
331
357
  5
359
331
358
  5
35A
331
359
  5
373
331
35A
  5
374
331
37F
  5
355
  0
LAYOUT
  5
1C
102
{ACAD_REACTORS
330
1A
102
}
330
1A
100
AcDbPlotSettings
  1

  2
none_device
  4

  6

 40
0.0
 41
0.0
 42
0.0
 43
0.0
 44
0.0
 45
0.0
 46
0.0
 47
0.0
 48
0.0
 49
0.0
140
0.0
141
0.0
142
1.0
143
1.0
 70
   688
 72
     0
 73
     0
 74
     5
  7

 75
    16
 76
     0
 77
     2
 78
   300
147
1.0
148
0.0
149
0.0
100
AcDbLayout
  1
Layout1
 70
     1
 71
     1
 10
0.0
 20
0.0
 11
12.0
 21
9.0
 12
0.0
 22
0.0
 32
0.0
 14
1.000000000000000E+20
 24
1.000000000000000E+20
 34
1.000000000000000E+20
 15
-1.000000000000000E+20
 25
-1.000000000000000E+20
 35
-1.000000000000000E+20
146
0.0
 13
0.0
 23
0.0
 33
0.0
 16
1.0
 26
0.0
 36
0.0
 17
0.0
 27
1.0
 37
0.0
 76
     0
330
1B
  0
LAYOUT
  5
1E
102
{ACAD_REACTORS
330
1A
102
}
330
1A
100
AcDbPlotSettings
  1

  2
none_device
  4

  6

 40
0.0
 41
0.0
 42
0.0
 43
0.0
 44
0.0
 45
0.0
 46
0.0
 47
0.0
 48
0.0
 49
0.0
140
0.0
141
0.0
142
1.0
143
1.0
 70
  1712
 72
     0
 73
     0
 74
     0
  7

 75
     0
 76
     0
 77
     2
 78
   300
147
1.0
148
0.0
149
0.0
100
AcDbLayout
  1
Model
 70
     1
 71
     0
 10
0.0
 20
0.0
 11
12.0
 21
9.0
 12
0.0
 22
0.0
 32
0.0
 14
-23.99999999999996
 24
-48.0
 34
0.0
 15
73.50000000000011
 25
67.0
 35
0.0
146
0.0
 13
0.0
 23
0.0
 33
0.0
 16
1.0
 26
0.0
 36
0.0
 17
0.0
 27
1.0
 37
0.0
 76
     0
330
1D
331
1DF
  0
MATERIAL
  5
21F
102
{ACAD_REACTORS
330
21D
102
}
330
21D
100
AcDbMaterial
  1
ByBlock
 72
     1
 94
      127
  0
MATERIAL
  5
21E
102
{ACAD_REACTORS
330
21D
102
}
330
21D
100
AcDbMaterial
  1
ByLayer
 72
     1
 94
      127
  0
MATERIAL
  5
220
102
{ACAD_REACTORS
330
21D
102
}
330
21D
100
AcDbMaterial
  1
Global
 72
     1
 94
      127
  0
MLEADERSTYLE
  5
276
102
{ACAD_REACTORS
330
22B
102
}
330
22B
100
AcDbMLeaderStyle
179
     2
170
     2
171
     1
172
     0
 90
        2
 40
0.0
 41
0.0
173
     1
 91
-1056964608
340
14
 92
       -2
290
     1
 42
0.09
291
     1
 43
0.36
  3
Standard
341
0
 44
0.18
300

342
11
174
     1
178
     1
175
     1
176
     0
 93
-1056964608
 45
0.18
292
     0
297
     0
 46
0.18
343
0
 94
-1056964608
 47
1.0
 49
1.0
140
1.0
293
     1
141
0.0
294
     1
177
     0
142
1.0
295
     0
296
     0
143
0.125
271
     0
272
     9
273
     9
298
     0
  0
MLINESTYLE
  5
18
102
{ACAD_REACTORS
330
17
102
}
330
17
100
AcDbMlineStyle
  2
Standard
 70
     0
  3

 62
   256
 51
90.0
 52
90.0
 71
     2
 49
0.5
 62
   256
  6
BYLAYER
 49
-0.5
 62
   256
  6
BYLAYER
  0
ACDBPLACEHOLDER
  5
F
102
{ACAD_REACTORS
330
E
102
}
330
E
  0
SCALE
  5
1E7
102
{ACAD_REACTORS
330
1E6
102
}
330
1E6
100
AcDbScale
 70
     0
300
1:1
140
1.0
141
1.0
290
     1
  0
SCALE
  5
1E8
102
{ACAD_REACTORS
330
1E6
102
}
330
1E6
100
AcDbScale
 70
     0
300
1:2
140
1.0
141
2.0
290
     0
  0
SCALE
  5
1E9
102
{ACAD_REACTORS
330
1E6
102
}
330
1E6
100
AcDbScale
 70
     0
300
1:4
140
1.0
141
4.0
290
     0
  0
SCALE
  5
1EA
102
{ACAD_REACTORS
330
1E6
102
}
330
1E6
100
AcDbScale
 70
     0
300
1:5
140
1.0
141
5.0
290
     0
  0
SCALE
  5
1EB
102
{ACAD_REACTORS
330
1E6
102
}
330
1E6
100
AcDbScale
 70
     0
300
1:8
140
1.0
141
8.0
290
     0
  0
SCALE
  5
1EC
102
{ACAD_REACTORS
330
1E6
102
}
330
1E6
100
AcDbScale
 70
     0
300
1:10
140
1.0
141
10.0
290
     0
  0
SCALE
  5
1ED
102
{ACAD_REACTORS
330
1E6
102
}
330
1E6
100
AcDbScale
 70
     0
300
1:16
140
1.0
141
16.0
290
     0
  0
SCALE
  5
1EE
102
{ACAD_REACTORS
330
1E6
102
}
330
1E6
100
AcDbScale
 70
     0
300
1:20
140
1.0
141
20.0
290
     0
  0
SCALE
  5
1EF
102
{ACAD_REACTORS
330
1E6
102
}
330
1E6
100
AcDbScale
 70
     0
300
1:30
140
1.0
141
30.0
290
     0
  0
SCALE
  5
1F0
102
{ACAD_REACTORS
330
1E6
102
}
330
1E6
100
AcDbScale
 70
     0
300
1:40
140
1.0
141
40.0
290
     0
  0
SCALE
  5
1F1
102
{ACAD_REACTORS
330
1E6
102
}
330
1E6
100
AcDbScale
 70
     0
300
1:50
140
1.0
141
50.0
290
     0
  0
SCALE
  5
1F2
102
{ACAD_REACTORS
330
1E6
102
}
330
1E6
100
AcDbScale
 70
     0
300
1:100
140
1.0
141
100.0
290
     0
  0
SCALE
  5
1F3
102
{ACAD_REACTORS
330
1E6
102
}
330
1E6
100
AcDbScale
 70
     0
300
2:1
140
2.0
141
1.0
290
     0
  0
SCALE
  5
1F4
102
{ACAD_REACTORS
330
1E6
102
}
330
1E6
100
AcDbScale
 70
     0
300
4:1
140
4.0
141
1.0
290
     0
  0
SCALE
  5
1F5
102
{ACAD_REACTORS
330
1E6
102
}
330
1E6
100
AcDbScale
 70
     0
300
8:1
140
8.0
141
1.0
290
     0
  0
SCALE
  5
1F6
102
{ACAD_REACTORS
330
1E6
102
}
330
1E6
100
AcDbScale
 70
     0
300
10:1
140
10.0
141
1.0
290
     0
  0
SCALE
  5
1F7
102
{ACAD_REACTORS
330
1E6
102
}
330
1E6
100
AcDbScale
 70
     0
300
100:1
140
100.0
141
1.0
290
     0
  0
SCALE
  5
1F8
102
{ACAD_REACTORS
330
1E6
102
}
330
1E6
100
AcDbScale
 70
     0
300
1/128" = 1'-0"
140
0.0078125
141
12.0
290
     0
  0
SCALE
  5
1F9
102
{ACAD_REACTORS
330
1E6
102
}
330
1E6
100
AcDbScale
 70
     0
300
1/64" = 1'-0"
140
0.015625
141
12.0
290
     0
  0
SCALE
  5
1FA
102
{ACAD_REACTORS
330
1E6
102
}
330
1E6
100
AcDbScale
 70
     0
300
1/32" = 1'-0"
140
0.03125
141
12.0
290
     0
  0
SCALE
  5
1FB
102
{ACAD_REACTORS
330
1E6
102
}
330
1E6
100
AcDbScale
 70
     0
300
1/16" = 1'-0"
140
0.0625
141
12.0
290
     0
  0
SCALE
  5
1FC
102
{ACAD_REACTORS
330
1E6
102
}
330
1E6
100
AcDbScale
 70
     0
300
3/32" = 1'-0"
140
0.09375
141
12.0
290
     0
  0
SCALE
  5
1FD
102
{ACAD_REACTORS
330
1E6
102
}
330
1E6
100
AcDbScale
 70
     0
300
1/8" = 1'-0"
140
0.125
141
12.0
290
     0
  0
SCALE
  5
1FE
102
{ACAD_REACTORS
330
1E6
102
}
330
1E6
100
AcDbScale
 70
     0
300
3/16" = 1'-0"
140
0.1875
141
12.0
290
     0
  0
SCALE
  5
1FF
102
{ACAD_REACTORS
330
1E6
102
}
330
1E6
100
AcDbScale
 70
     0
300
1/4" = 1'-0"
140
0.25
141
12.0
290
     0
  0
SCALE
  5
200
102
{ACAD_REACTORS
330
1E6
102
}
330
1E6
100
AcDbScale
 70
     0
300
3/8" = 1'-0"
140
0.375
141
12.0
290
     0
  0
SCALE
  5
201
102
{ACAD_REACTORS
330
1E6
102
}
330
1E6
100
AcDbScale
 70
     0
300
1/2" = 1'-0"
140
0.5
141
12.0
290
     0
  0
SCALE
  5
202
102
{ACAD_REACTORS
330
1E6
102
}
330
1E6
100
AcDbScale
 70
     0
300
3/4" = 1'-0"
140
0.75
141
12.0
290
     0
  0
SCALE
  5
203
102
{ACAD_REACTORS
330
1E6
102
}
330
1E6
100
AcDbScale
 70
     0
300
1" = 1'-0"
140
1.0
141
12.0
290
     0
  0
SCALE
  5
204
102
{ACAD_REACTORS
330
1E6
102
}
330
1E6
100
AcDbScale
 70
     0
300
1-1/2" = 1'-0"
140
1.5
141
12.0
290
     0
  0
SCALE
  5
205
102
{ACAD_REACTORS
330
1E6
102
}
330
1E6
100
AcDbScale
 70
     0
300
3" = 1'-0"
140
3.0
141
12.0
290
     0
  0
SCALE
  5
206
102
{ACAD_REACTORS
330
1E6
102
}
330
1E6
100
AcDbScale
 70
     0
300
6" = 1'-0"
140
6.0
141
12.0
290
     0
  0
SCALE
  5
207
102
{ACAD_REACTORS
330
1E6
102
}
330
1E6
100
AcDbScale
 70
     0
300
1'-0" = 1'-0"
140
12.0
141
12.0
290
     0
  0
TABLESTYLE
  5
275
102
{ACAD_REACTORS
330
274
102
}
102
{ACAD_XDICTIONARY
360
3AC
102
}
330
274
100
AcDbTableStyle
  3
Standard
 70
     0
 71
     0
 40
0.06
 41
0.06
280
     0
281
     0
  7
Standard
140
0.18
170
     2
 62
     0
 63
   257
283
     0
 90
        4
 91
        0
  1

274
    -2
284
     1
 64
     0
275
    -2
285
     1
 65
     0
276
    -2
286
     1
 66
     0
277
    -2
287
     1
 67
     0
278
    -2
288
     1
 68
     0
279
    -2
289
     1
 69
     0
  7
Standard
140
0.25
170
     5
 62
     0
 63
   257
283
     0
 90
        4
 91
        0
  1

274
    -2
284
     1
 64
     0
275
    -2
285
     1
 65
     0
276
    -2
286
     1
 66
     0
277
    -2
287
     1
 67
     0
278
    -2
288
     1
 68
     0
279
    -2
289
     1
 69
     0
  7
Standard
140
0.18
170
     5
 62
     0
 63
   257
283
     0
 90
        4
 91
        0
  1

274
    -2
284
     1
 64
     0
275
    -2
285
     1
 65
     0
276
    -2
286
     1
 66
     0
277
    -2
287
     1
 67
     0
278
    -2
288
     1
 68
     0
279
    -2
289
     1
 69
     0
  0
VISUALSTYLE
  5
211
102
{ACAD_REACTORS
330
20C
102
}
330
20C
100
AcDbVisualStyle
  2
2dWireframe
 70
     4
177
     3
291
     0
 70
    58
 90
        0
176
     1
 90
        2
176
     1
 90
        0
176
     1
 90
        0
176
     1
 40
-0.6
176
     1
 40
-30.0
176
     1
 62
     7
176
     1
 90
        1
176
     1
 90
        4
176
     1
 62
     7
176
     1
 62
   257
176
     1
 90
        1
176
     1
 90
        1
176
     1
 40
1.0
176
     1
 90
        0
176
     1
 62
   257
176
     1
 40
1.0
176
     1
 90
        1
176
     1
 90
        6
176
     1
 90
        2
176
     1
 62
     7
176
     1
 90
        5
176
     1
 90
        0
176
     1
 90
        0
176
     1
290
     0
176
     1
 90
        1
176
     1
 40
0.0
176
     1
 90
        0
176
     1
290
     1
176
     1
290
     1
176
     1
290
     0
176
     1
290
     0
176
     1
290
     0
176
     1
290
     0
176
     1
290
     0
176
     1
290
     0
176
     1
290
     0
176
     1
 90
       50
176
     1
 40
0.0
176
     1
 40
1.0
176
     1
 90
        0
176
     1
 62
    18
420
        0
176
     1
 90
       50
176
     1
 90
        3
176
     1
 62
     5
420
      255
176
     1
290
     0
176
     1
 90
       50
176
     1
 90
       50
176
     1
 90
       50
176
     1
290
     0
176
     1
 90
       50
176
     1
 62
   256
176
     0
 40
1.0
176
     0
 90
        2
176
     1
  1
strokes_ogs.tif
176
     1
290
     0
176
     1
 40
1.0
176
     1
 40
1.0
176
     1
  0
VISUALSTYLE
  5
213
102
{ACAD_REACTORS
330
20C
102
}
330
20C
100
AcDbVisualStyle
  2
3D Hidden
 70
     6
177
     3
291
     0
 70
    58
 90
        1
176
     1
 90
        2
176
     1
 90
        2
176
     1
 90
        0
176
     1
 40
-0.6
176
     1
 40
-30.0
176
     1
 62
     7
176
     1
 90
        2
176
     1
 90
        2
176
     1
 62
     7
176
     1
 62
   257
176
     1
 90
        2
176
     1
 90
        1
176
     1
 40
40.0
176
     1
 90
        0
176
     1
 62
   257
176
     1
 40
1.0
176
     1
 90
        1
176
     1
 90
        6
176
     1
 90
        2
176
     1
 62
     7
176
     1
 90
        3
176
     1
 90
        0
176
     1
 90
        0
176
     1
290
     0
176
     1
 90
        1
176
     1
 40
0.0
176
     1
 90
        0
176
     1
290
     0
176
     1
290
     1
176
     1
290
     1
176
     1
290
     0
176
     1
290
     0
176
     1
290
     0
176
     1
290
     0
176
     1
290
     0
176
     1
290
     0
176
     1
 90
       50
176
     1
 40
0.0
176
     1
 40
1.0
176
     1
 90
        0
176
     1
 62
    18
420
        0
176
     1
 90
       50
176
     1
 90
        3
176
     1
 62
     5
420
      255
176
     1
290
     0
176
     1
 90
       50
176
     1
 90
       50
176
     1
 90
       50
176
     1
290
     0
176
     1
 90
       50
176
     1
 62
   256
176
     0
 40
1.0
176
     0
 90
        2
176
     1
  1
strokes_ogs.tif
176
     1
290
     0
176
     1
 40
1.0
176
     1
 40
1.0
176
     1
  0
VISUALSTYLE
  5
212
102
{ACAD_REACTORS
330
20C
102
}
330
20C
100
AcDbVisualStyle
  2
3dWireframe
 70
     5
177
     3
291
     0
 70
    58
 90
        0
176
     1
 90
        2
176
     1
 90
        0
176
     1
 90
        0
176
     1
 40
-0.6
176
     1
 40
-30.0
176
     1
 62
     7
176
     1
 90
        1
176
     1
 90
        4
176
     1
 62
     7
176
     1
 62
   257
176
     1
 90
        1
176
     1
 90
        1
176
     1
 40
1.0
176
     1
 90
        0
176
     1
 62
   257
176
     1
 40
1.0
176
     1
 90
        1
176
     1
 90
        6
176
     1
 90
        2
176
     1
 62
     7
176
     1
 90
        5
176
     1
 90
        0
176
     1
 90
        0
176
     1
290
     0
176
     1
 90
        1
176
     1
 40
0.0
176
     1
 90
        0
176
     1
290
     0
176
     1
290
     1
176
     1
290
     1
176
     1
290
     0
176
     1
290
     0
176
     1
290
     0
176
     1
290
     0
176
     1
290
     0
176
     1
290
     0
176
     1
 90
       50
176
     1
 40
0.0
176
     1
 40
1.0
176
     1
 90
        0
176
     1
 62
    18
420
        0
176
     1
 90
       50
176
     1
 90
        3
176
     1
 62
     5
420
      255
176
     1
290
     0
176
     1
 90
       50
176
     1
 90
       50
176
     1
 90
       50
176
     1
290
     0
176
     1
 90
       50
176
     1
 62
   256
176
     0
 40
1.0
176
     0
 90
        2
176
     1
  1
strokes_ogs.tif
176
     1
290
     0
176
     1
 40
1.0
176
     1
 40
1.0
176
     1
  0
VISUALSTYLE
  5
214
102
{ACAD_REACTORS
330
20C
102
}
330
20C
100
AcDbVisualStyle
  2
Basic
 70
     7
177
     3
291
     1
 70
    58
 90
        1
176
     1
 90
        0
176
     1
 90
        1
176
     1
 90
        0
176
     1
 40
-0.6
176
     1
 40
-30.0
176
     1
 62
     7
176
     1
 90
        0
176
     1
 90
        4
176
     1
 62
     7
176
     1
 62
   257
176
     1
 90
        1
176
     1
 90
        1
176
     1
 40
1.0
176
     1
 90
        8
176
     1
 62
     7
176
     1
 40
1.0
176
     1
 90
        1
176
     1
 90
        6
176
     1
 90
        2
176
     1
 62
     7
176
     1
 90
        5
176
     1
 90
        0
176
     1
 90
        0
176
     1
290
     0
176
     1
 90
        1
176
     1
 40
0.0
176
     1
 90
        0
176
     1
290
     0
176
     1
290
     1
176
     1
290
     1
176
     1
290
     0
176
     1
290
     0
176
     1
290
     0
176
     1
290
     0
176
     1
290
     0
176
     1
290
     0
176
     1
 90
       50
176
     1
 40
0.0
176
     1
 40
1.0
176
     1
 90
        0
176
     1
 62
    18
420
        0
176
     1
 90
       50
176
     1
 90
        3
176
     1
 62
     5
420
      255
176
     1
290
     0
176
     1
 90
       50
176
     1
 90
       50
176
     1
 90
       50
176
     1
290
     0
176
     1
 90
       50
176
     1
 62
   256
176
     0
 40
1.0
176
     0
 90
        2
176
     1
  1
strokes_ogs.tif
176
     1
290
     0
176
     1
 40
1.0
176
     1
 40
1.0
176
     1
  0
VISUALSTYLE
  5
218
102
{ACAD_REACTORS
330
20C
102
}
330
20C
100
AcDbVisualStyle
  2
Brighten
 70
    12
177
     3
291
     1
 70
    58
 90
        2
176
     1
 90
        2
176
     1
 90
        0
176
     1
 90
        0
176
     1
 40
-0.6
176
     1
 40
-30.0
176
     1
 62
     7
176
     1
 90
        1
176
     1
 90
        4
176
     1
 62
     7
176
     1
 62
   257
176
     1
 90
        1
176
     1
 90
        1
176
     1
 40
1.0
176
     1
 90
        8
176
     1
 62
     7
176
     1
 40
1.0
176
     1
 90
        1
176
     1
 90
        6
176
     1
 90
        2
176
     1
 62
     7
176
     1
 90
        5
176
     1
 90
        0
176
     1
 90
        0
176
     1
290
     0
176
     1
 90
        1
176
     1
 40
50.0
176
     1
 90
        0
176
     1
290
     0
176
     1
290
     1
176
     1
290
     1
176
     1
290
     0
176
     1
290
     0
176
     1
290
     0
176
     1
290
     0
176
     1
290
     0
176
     1
290
     0
176
     1
 90
       50
176
     1
 40
0.0
176
     1
 40
1.0
176
     1
 90
        0
176
     1
 62
    18
420
        0
176
     1
 90
       50
176
     1
 90
        3
176
     1
 62
     5
420
      255
176
     1
290
     0
176
     1
 90
       50
176
     1
 90
       50
176
     1
 90
       50
176
     1
290
     0
176
     1
 90
       50
176
     1
 62
   256
176
     0
 40
1.0
176
     0
 90
        2
176
     1
  1
strokes_ogs.tif
176
     1
290
     0
176
     1
 40
1.0
176
     1
 40
1.0
176
     1
  0
VISUALSTYLE
  5
21C
102
{ACAD_REACTORS
330
20C
102
}
330
20C
100
AcDbVisualStyle
  2
ColorChange
 70
    16
177
     3
291
     1
 70
    58
 90
        2
176
     1
 90
        2
176
     1
 90
        3
176
     1
 90
        0
176
     1
 40
-0.6
176
     1
 40
-30.0
176
     1
 62
     8
176
     1
 90
        1
176
     1
 90
        4
176
     1
 62
     7
176
     1
 62
   257
176
     1
 90
        1
176
     1
 90
        1
176
     1
 40
1.0
176
     1
 90
        8
176
     1
 62
     8
176
     1
 40
1.0
176
     1
 90
        1
176
     1
 90
        6
176
     1
 90
        2
176
     1
 62
     7
176
     1
 90
        5
176
     1
 90
        0
176
     1
 90
        0
176
     1
290
     0
176
     1
 90
        1
176
     1
 40
0.0
176
     1
 90
        0
176
     1
290
     0
176
     1
290
     1
176
     1
290
     1
176
     1
290
     0
176
     1
290
     0
176
     1
290
     0
176
     1
290
     0
176
     1
290
     0
176
     1
290
     0
176
     1
 90
       50
176
     1
 40
0.0
176
     1
 40
1.0
176
     1
 90
        0
176
     1
 62
    18
420
        0
176
     1
 90
       50
176
     1
 90
        3
176
     1
 62
     5
420
      255
176
     1
290
     0
176
     1
 90
       50
176
     1
 90
       50
176
     1
 90
       50
176
     1
290
     0
176
     1
 90
       50
176
     1
 62
   256
176
     0
 40
1.0
176
     0
 90
        2
176
     1
  1
strokes_ogs.tif
176
     1
290
     0
176
     1
 40
1.0
176
     1
 40
1.0
176
     1
  0
VISUALSTYLE
  5
216
102
{ACAD_REACTORS
330
20C
102
}
330
20C
100
AcDbVisualStyle
  2
Conceptual
 70
     9
177
     3
291
     0
 70
    58
 90
        3
176
     1
 90
        2
176
     1
 90
        0
176
     1
 90
        0
176
     1
 40
-0.6
176
     1
 40
-30.0
176
     1
 62
     7
176
     1
 90
        2
176
     1
 90
        2
176
     1
 62
     7
176
     1
 62
   257
176
     1
 90
        1
176
     1
 90
        1
176
     1
 40
40.0
176
     1
 90
        8
176
     1
 62
     7
176
     1
 40
1.0
176
     1
 90
        1
176
     1
 90
        6
176
     1
 90
        2
176
     1
 62
     7
176
     1
 90
        3
176
     1
 90
        0
176
     1
 90
        0
176
     1
290
     0
176
     1
 90
        1
176
     1
 40
0.0
176
     1
 90
        0
176
     1
290
     0
176
     1
290
     1
176
     1
290
     1
176
     1
290
     0
176
     1
290
     0
176
     1
290
     0
176
     1
290
     0
176
     1
290
     0
176
     1
290
     0
176
     1
 90
       50
176
     1
 40
0.0
176
     1
 40
1.0
176
     1
 90
        0
176
     1
 62
    18
420
        0
176
     1
 90
       50
176
     1
 90
        3
176
     1
 62
     5
420
      255
176
     1
290
     0
176
     1
 90
       50
176
     1
 90
       50
176
     1
 90
       50
176
     1
290
     0
176
     1
 90
       50
176
     1
 62
   256
176
     0
 40
1.0
176
     0
 90
        2
176
     1
  1
strokes_ogs.tif
176
     1
290
     0
176
     1
 40
1.0
176
     1
 40
1.0
176
     1
  0
VISUALSTYLE
  5
217
102
{ACAD_REACTORS
330
20C
102
}
330
20C
100
AcDbVisualStyle
  2
Dim
 70
    11
177
     3
291
     1
 70
    58
 90
        2
176
     1
 90
        2
176
     1
 90
        0
176
     1
 90
        0
176
     1
 40
-0.6
176
     1
 40
-30.0
176
     1
 62
     7
176
     1
 90
        1
176
     1
 90
        4
176
     1
 62
     7
176
     1
 62
   257
176
     1
 90
        1
176
     1
 90
        1
176
     1
 40
1.0
176
     1
 90
        8
176
     1
 62
     7
176
     1
 40
1.0
176
     1
 90
        1
176
     1
 90
        6
176
     1
 90
        2
176
     1
 62
     7
176
     1
 90
        5
176
     1
 90
        0
176
     1
 90
        0
176
     1
290
     0
176
     1
 90
        1
176
     1
 40
-50.0
176
     1
 90
        0
176
     1
290
     0
176
     1
290
     1
176
     1
290
     1
176
     1
290
     0
176
     1
290
     0
176
     1
290
     0
176
     1
290
     0
176
     1
290
     0
176
     1
290
     0
176
     1
 90
       50
176
     1
 40
0.0
176
     1
 40
1.0
176
     1
 90
        0
176
     1
 62
    18
420
        0
176
     1
 90
       50
176
     1
 90
        3
176
     1
 62
     5
420
      255
176
     1
290
     0
176
     1
 90
       50
176
     1
 90
       50
176
     1
 90
       50
176
     1
290
     0
176
     1
 90
       50
176
     1
 62
   256
176
     0
 40
1.0
176
     0
 90
        2
176
     1
  1
strokes_ogs.tif
176
     1
290
     0
176
     1
 40
1.0
176
     1
 40
1.0
176
     1
  0
VISUALSTYLE
  5
26E
102
{ACAD_REACTORS
330
20C
102
}
330
20C
100
AcDbVisualStyle
  2
EdgeColorOff
 70
    22
177
     3
291
     1
 70
    58
 90
        2
176
     0
 90
        2
176
     0
 90
        0
176
     0
 90
        0
176
     0
 40
0.6
176
     0
 40
30.0
176
     0
 62
     7
420
 16777215
176
     0
 90
        1
176
     0
 90
        4
176
     0
 62
     7
176
     0
 62
   257
176
     0
 90
        1
176
     0
 90
        1
176
     0
 40
1.0
176
     0
 90
        8
176
     2
 62
     7
176
     0
 40
1.0
176
     0
 90
        1
176
     0
 90
        6
176
     0
 90
        2
176
     0
 62
     7
176
     0
 90
        5
176
     0
 90
        0
176
     0
 90
        0
176
     0
290
     0
176
     0
 90
        1
176
     0
 40
0.0
176
     0
 90
        0
176
     0
290
     0
176
     0
290
     1
176
     0
290
     1
176
     0
290
     0
176
     0
290
     0
176
     0
290
     0
176
     0
290
     0
176
     0
290
     0
176
     0
290
     0
176
     0
 90
       50
176
     0
 40
0.0
176
     0
 40
1.0
176
     0
 90
        0
176
     0
 62
    18
420
        0
176
     0
 90
       50
176
     0
 90
        3
176
     0
 62
     5
420
      255
176
     0
290
     0
176
     0
 90
       50
176
     0
 90
       50
176
     0
 90
       50
176
     0
290
     0
176
     0
 90
       50
176
     0
 62
   256
176
     0
 40
1.0
176
     0
 90
        2
176
     0
  1
strokes_ogs.tif
176
     0
290
     0
176
     0
 40
1.0
176
     0
 40
1.0
176
     0
  0
VISUALSTYLE
  5
21B
102
{ACAD_REACTORS
330
20C
102
}
330
20C
100
AcDbVisualStyle
  2
Facepattern
 70
    15
177
     3
291
     1
 70
    58
 90
        2
176
     1
 90
        2
176
     1
 90
        0
176
     1
 90
        0
176
     1
 40
-0.6
176
     1
 40
-30.0
176
     1
 62
     7
176
     1
 90
        1
176
     1
 90
        4
176
     1
 62
     7
176
     1
 62
   257
176
     1
 90
        1
176
     1
 90
        1
176
     1
 40
1.0
176
     1
 90
        8
176
     1
 62
     7
176
     1
 40
1.0
176
     1
 90
        1
176
     1
 90
        6
176
     1
 90
        2
176
     1
 62
     7
176
     1
 90
        5
176
     1
 90
        0
176
     1
 90
        0
176
     1
290
     0
176
     1
 90
        1
176
     1
 40
0.0
176
     1
 90
        0
176
     1
290
     0
176
     1
290
     1
176
     1
290
     1
176
     1
290
     0
176
     1
290
     0
176
     1
290
     0
176
     1
290
     0
176
     1
290
     0
176
     1
290
     0
176
     1
 90
       50
176
     1
 40
0.0
176
     1
 40
1.0
176
     1
 90
        0
176
     1
 62
    18
420
        0
176
     1
 90
       50
176
     1
 90
        3
176
     1
 62
     5
420
      255
176
     1
290
     0
176
     1
 90
       50
176
     1
 90
       50
176
     1
 90
       50
176
     1
290
     0
176
     1
 90
       50
176
     1
 62
   256
176
     0
 40
1.0
176
     0
 90
        2
176
     1
  1
strokes_ogs.tif
176
     1
290
     0
176
     1
 40
1.0
176
     1
 40
1.0
176
     1
  0
VISUALSTYLE
  5
20D
102
{ACAD_REACTORS
330
20C
102
}
330
20C
100
AcDbVisualStyle
  2
Flat
 70
     0
177
     3
291
     1
 70
    58
 90
        2
176
     1
 90
        1
176
     1
 90
        1
176
     1
 90
        2
176
     1
 40
-0.6
176
     1
 40
30.0
176
     1
 62
     7
176
     1
 90
        0
176
     1
 90
        4
176
     1
 62
     7
176
     1
 62
   257
176
     1
 90
        1
176
     1
 90
        1
176
     1
 40
1.0
176
     1
 90
        8
176
     1
 62
     7
176
     1
 40
1.0
176
     1
 90
        1
176
     1
 90
        6
176
     1
 90
        2
176
     1
 62
     7
176
     1
 90
        5
176
     1
 90
        0
176
     1
 90
        0
176
     1
290
     0
176
     1
 90
       13
176
     1
 40
0.0
176
     1
 90
        0
176
     1
290
     0
176
     1
290
     1
176
     1
290
     1
176
     1
290
     0
176
     1
290
     0
176
     1
290
     0
176
     1
290
     0
176
     1
290
     0
176
     1
290
     0
176
     1
 90
       50
176
     1
 40
0.0
176
     1
 40
1.0
176
     1
 90
        0
176
     1
 62
    18
420
        0
176
     1
 90
       50
176
     1
 90
        3
176
     1
 62
     5
420
      255
176
     1
290
     0
176
     1
 90
       50
176
     1
 90
       50
176
     1
 90
       50
176
     1
290
     0
176
     1
 90
       50
176
     1
 62
   256
176
     0
 40
1.0
176
     0
 90
        2
176
     1
  1
strokes_ogs.tif
176
     1
290
     0
176
     1
 40
1.0
176
     1
 40
1.0
176
     1
  0
VISUALSTYLE
  5
20E
102
{ACAD_REACTORS
330
20C
102
}
330
20C
100
AcDbVisualStyle
  2
FlatWithEdges
 70
     1
177
     3
291
     1
 70
    58
 90
        2
176
     1
 90
        1
176
     1
 90
        1
176
     1
 90
        2
176
     1
 40
-0.6
176
     1
 40
30.0
176
     1
 62
     7
176
     1
 90
        1
176
     1
 90
        4
176
     1
 62
     7
176
     1
 62
   257
176
     1
 90
        1
176
     1
 90
        1
176
     1
 40
1.0
176
     1
 90
        0
176
     1
 62
   257
176
     1
 40
1.0
176
     1
 90
        1
176
     1
 90
        6
176
     1
 90
        2
176
     1
 62
     7
176
     1
 90
        5
176
     1
 90
        0
176
     1
 90
        0
176
     1
290
     0
176
     1
 90
       13
176
     1
 40
0.0
176
     1
 90
        0
176
     1
290
     0
176
     1
290
     1
176
     1
290
     1
176
     1
290
     0
176
     1
290
     0
176
     1
290
     0
176
     1
290
     0
176
     1
290
     0
176
     1
290
     0
176
     1
 90
       50
176
     1
 40
0.0
176
     1
 40
1.0
176
     1
 90
        0
176
     1
 62
    18
420
        0
176
     1
 90
       50
176
     1
 90
        3
176
     1
 62
     5
420
      255
176
     1
290
     0
176
     1
 90
       50
176
     1
 90
       50
176
     1
 90
       50
176
     1
290
     0
176
     1
 90
       50
176
     1
 62
   256
176
     0
 40
1.0
176
     0
 90
        2
176
     1
  1
strokes_ogs.tif
176
     1
290
     0
176
     1
 40
1.0
176
     1
 40
1.0
176
     1
  0
VISUALSTYLE
  5
20F
102
{ACAD_REACTORS
330
20C
102
}
330
20C
100
AcDbVisualStyle
  2
Gouraud
 70
     2
177
     3
291
     1
 70
    58
 90
        2
176
     1
 90
        2
176
     1
 90
        1
176
     1
 90
        2
176
     1
 40
-0.6
176
     1
 40
30.0
176
     1
 62
     7
176
     1
 90
        0
176
     1
 90
        4
176
     1
 62
     7
176
     1
 62
   257
176
     1
 90
        1
176
     1
 90
        1
176
     1
 40
1.0
176
     1
 90
        0
176
     1
 62
     7
176
     1
 40
1.0
176
     1
 90
        1
176
     1
 90
        6
176
     1
 90
        2
176
     1
 62
     7
176
     1
 90
        5
176
     1
 90
        0
176
     1
 90
        0
176
     1
290
     0
176
     1
 90
       13
176
     1
 40
0.0
176
     1
 90
        0
176
     1
290
     0
176
     1
290
     1
176
     1
290
     1
176
     1
290
     0
176
     1
290
     0
176
     1
290
     0
176
     1
290
     0
176
     1
290
     0
176
     1
290
     0
176
     1
 90
       50
176
     1
 40
0.0
176
     1
 40
1.0
176
     1
 90
        0
176
     1
 62
    18
420
        0
176
     1
 90
       50
176
     1
 90
        3
176
     1
 62
     5
420
      255
176
     1
290
     0
176
     1
 90
       50
176
     1
 90
       50
176
     1
 90
       50
176
     1
290
     0
176
     1
 90
       50
176
     1
 62
   256
176
     0
 40
1.0
176
     0
 90
        2
176
     1
  1
strokes_ogs.tif
176
     1
290
     0
176
     1
 40
1.0
176
     1
 40
1.0
176
     1
  0
VISUALSTYLE
  5
210
102
{ACAD_REACTORS
330
20C
102
}
330
20C
100
AcDbVisualStyle
  2
GouraudWithEdges
 70
     3
177
     3
291
     1
 70
    58
 90
        2
176
     1
 90
        2
176
     1
 90
        1
176
     1
 90
        2
176
     1
 40
-0.6
176
     1
 40
30.0
176
     1
 62
     7
176
     1
 90
        1
176
     1
 90
        4
176
     1
 62
     7
176
     1
 62
   257
176
     1
 90
        1
176
     1
 90
        1
176
     1
 40
1.0
176
     1
 90
        0
176
     1
 62
   257
176
     1
 40
1.0
176
     1
 90
        1
176
     1
 90
        6
176
     1
 90
        2
176
     1
 62
     7
176
     1
 90
        5
176
     1
 90
        0
176
     1
 90
        0
176
     1
290
     0
176
     1
 90
       13
176
     1
 40
0.0
176
     1
 90
        0
176
     1
290
     0
176
     1
290
     1
176
     1
290
     1
176
     1
290
     0
176
     1
290
     0
176
     1
290
     0
176
     1
290
     0
176
     1
290
     0
176
     1
290
     0
176
     1
 90
       50
176
     1
 40
0.0
176
     1
 40
1.0
176
     1
 90
        0
176
     1
 62
    18
420
        0
176
     1
 90
       50
176
     1
 90
        3
176
     1
 62
     5
420
      255
176
     1
290
     0
176
     1
 90
       50
176
     1
 90
       50
176
     1
 90
       50
176
     1
290
     0
176
     1
 90
       50
176
     1
 62
   256
176
     0
 40
1.0
176
     0
 90
        2
176
     1
  1
strokes_ogs.tif
176
     1
290
     0
176
     1
 40
1.0
176
     1
 40
1.0
176
     1
  0
VISUALSTYLE
  5
26B
102
{ACAD_REACTORS
330
20C
102
}
330
20C
100
AcDbVisualStyle
  2
Hidden
 70
     6
177
     3
291
     0
 70
    58
 90
        1
176
     1
 90
        2
176
     1
 90
        2
176
     1
 90
        0
176
     1
 40
0.6
176
     1
 40
30.0
176
     1
 62
     7
420
 16777215
176
     1
 90
        2
176
     1
 90
        2
176
     1
 62
     7
176
     1
 62
   257
176
     1
 90
        2
176
     1
 90
        1
176
     1
 40
40.0
176
     1
 90
        0
176
     1
 62
   257
176
     1
 40
1.0
176
     1
 90
        1
176
     1
 90
        6
176
     1
 90
        2
176
     1
 62
     7
176
     1
 90
        3
176
     1
 90
        0
176
     1
 90
        0
176
     1
290
     0
176
     1
 90
        1
176
     1
 40
0.0
176
     1
 90
        0
176
     1
290
     0
176
     1
290
     1
176
     1
290
     1
176
     1
290
     0
176
     1
290
     0
176
     1
290
     0
176
     1
290
     0
176
     1
290
     0
176
     1
290
     0
176
     1
 90
       50
176
     1
 40
0.0
176
     1
 40
1.0
176
     1
 90
        0
176
     1
 62
    18
420
        0
176
     1
 90
       50
176
     1
 90
        3
176
     1
 62
     5
420
      255
176
     1
290
     0
176
     1
 90
       50
176
     1
 90
       50
176
     1
 90
       50
176
     1
290
     0
176
     1
 90
       50
176
     1
 62
   256
176
     0
 40
1.0
176
     0
 90
        2
176
     1
  1
strokes_ogs.tif
176
     1
290
     0
176
     1
 40
1.0
176
     1
 40
1.0
176
     1
  0
VISUALSTYLE
  5
26C
102
{ACAD_REACTORS
330
20C
102
}
330
20C
100
AcDbVisualStyle
  2
JitterOff
 70
    20
177
     3
291
     1
 70
    58
 90
        2
176
     0
 90
        2
176
     0
 90
        0
176
     0
 90
        0
176
     0
 40
0.6
176
     0
 40
30.0
176
     0
 62
     7
420
 16777215
176
     0
 90
        1
176
     0
 90
        4
176
     0
 62
     7
176
     0
 62
   257
176
     0
 90
        1
176
     0
 90
        1
176
     0
 40
1.0
176
     0
 90
       10
176
     2
 62
     7
176
     0
 40
1.0
176
     0
 90
        1
176
     0
 90
        6
176
     0
 90
        2
176
     0
 62
     7
176
     0
 90
        5
176
     0
 90
        0
176
     0
 90
        0
176
     0
290
     0
176
     0
 90
        1
176
     0
 40
0.0
176
     0
 90
        0
176
     0
290
     0
176
     0
290
     1
176
     0
290
     1
176
     0
290
     0
176
     0
290
     0
176
     0
290
     0
176
     0
290
     0
176
     0
290
     0
176
     0
290
     0
176
     0
 90
       50
176
     0
 40
0.0
176
     0
 40
1.0
176
     0
 90
        0
176
     0
 62
    18
420
        0
176
     0
 90
       50
176
     0
 90
        3
176
     0
 62
     5
420
      255
176
     0
290
     0
176
     0
 90
       50
176
     0
 90
       50
176
     0
 90
       50
176
     0
290
     0
176
     0
 90
       50
176
     0
 62
   256
176
     0
 40
1.0
176
     0
 90
        2
176
     0
  1
strokes_ogs.tif
176
     0
290
     0
176
     0
 40
1.0
176
     0
 40
1.0
176
     0
  0
VISUALSTYLE
  5
21A
102
{ACAD_REACTORS
330
20C
102
}
330
20C
100
AcDbVisualStyle
  2
Linepattern
 70
    14
177
     3
291
     1
 70
    58
 90
        2
176
     1
 90
        2
176
     1
 90
        0
176
     1
 90
        0
176
     1
 40
-0.6
176
     1
 40
-30.0
176
     1
 62
     7
176
     1
 90
        1
176
     1
 90
        4
176
     1
 62
     7
176
     1
 62
   257
176
     1
 90
        7
176
     1
 90
        7
176
     1
 40
1.0
176
     1
 90
        8
176
     1
 62
     7
176
     1
 40
1.0
176
     1
 90
        1
176
     1
 90
        6
176
     1
 90
        2
176
     1
 62
     7
176
     1
 90
        5
176
     1
 90
        0
176
     1
 90
        0
176
     1
290
     0
176
     1
 90
        1
176
     1
 40
0.0
176
     1
 90
        0
176
     1
290
     0
176
     1
290
     1
176
     1
290
     1
176
     1
290
     0
176
     1
290
     0
176
     1
290
     0
176
     1
290
     0
176
     1
290
     0
176
     1
290
     0
176
     1
 90
       50
176
     1
 40
0.0
176
     1
 40
1.0
176
     1
 90
        0
176
     1
 62
    18
420
        0
176
     1
 90
       50
176
     1
 90
        3
176
     1
 62
     5
420
      255
176
     1
290
     0
176
     1
 90
       50
176
     1
 90
       50
176
     1
 90
       50
176
     1
290
     0
176
     1
 90
       50
176
     1
 62
   256
176
     0
 40
1.0
176
     0
 90
        2
176
     1
  1
strokes_ogs.tif
176
     1
290
     0
176
     1
 40
1.0
176
     1
 40
1.0
176
     1
  0
VISUALSTYLE
  5
26D
102
{ACAD_REACTORS
330
20C
102
}
330
20C
100
AcDbVisualStyle
  2
OverhangOff
 70
    21
177
     3
291
     1
 70
    58
 90
        2
176
     0
 90
        2
176
     0
 90
        0
176
     0
 90
        0
176
     0
 40
0.6
176
     0
 40
30.0
176
     0
 62
     7
420
 16777215
176
     0
 90
        1
176
     0
 90
        4
176
     0
 62
     7
176
     0
 62
   257
176
     0
 90
        1
176
     0
 90
        1
176
     0
 40
1.0
176
     0
 90
        9
176
     2
 62
     7
176
     0
 40
1.0
176
     0
 90
        1
176
     0
 90
        6
176
     0
 90
        2
176
     0
 62
     7
176
     0
 90
        5
176
     0
 90
        0
176
     0
 90
        0
176
     0
290
     0
176
     0
 90
        1
176
     0
 40
0.0
176
     0
 90
        0
176
     0
290
     0
176
     0
290
     1
176
     0
290
     1
176
     0
290
     0
176
     0
290
     0
176
     0
290
     0
176
     0
290
     0
176
     0
290
     0
176
     0
290
     0
176
     0
 90
       50
176
     0
 40
0.0
176
     0
 40
1.0
176
     0
 90
        0
176
     0
 62
    18
420
        0
176
     0
 90
       50
176
     0
 90
        3
176
     0
 62
     5
420
      255
176
     0
290
     0
176
     0
 90
       50
176
     0
 90
       50
176
     0
 90
       50
176
     0
290
     0
176
     0
 90
       50
176
     0
 62
   256
176
     0
 40
1.0
176
     0
 90
        2
176
     0
  1
strokes_ogs.tif
176
     0
290
     0
176
     0
 40
1.0
176
     0
 40
1.0
176
     0
  0
VISUALSTYLE
  5
215
102
{ACAD_REACTORS
330
20C
102
}
330
20C
100
AcDbVisualStyle
  2
Realistic
 70
     8
177
     3
291
     0
 70
    58
 90
        2
176
     1
 90
        2
176
     1
 90
        0
176
     1
 90
        0
176
     1
 40
-0.6
176
     1
 40
-30.0
176
     1
 62
     7
176
     1
 90
        1
176
     1
 90
        0
176
     1
 62
     7
176
     1
 62
   257
176
     1
 90
        1
176
     1
 90
        1
176
     1
 40
1.0
176
     1
 90
        8
176
     1
 62
     8
176
     1
 40
1.0
176
     1
 90
        1
176
     1
 90
        6
176
     1
 90
        2
176
     1
 62
     7
176
     1
 90
        5
176
     1
 90
        0
176
     1
 90
        0
176
     1
290
     0
176
     1
 90
       13
176
     1
 40
0.0
176
     1
 90
        0
176
     1
290
     0
176
     1
290
     1
176
     1
290
     1
176
     1
290
     0
176
     1
290
     0
176
     1
290
     0
176
     1
290
     0
176
     1
290
     0
176
     1
290
     0
176
     1
 90
       50
176
     1
 40
0.0
176
     1
 40
1.0
176
     1
 90
        0
176
     1
 62
    18
420
        0
176
     1
 90
       50
176
     1
 90
        3
176
     1
 62
     5
420
      255
176
     1
290
     0
176
     1
 90
       50
176
     1
 90
       50
176
     1
 90
       50
176
     1
290
     0
176
     1
 90
       50
176
     1
 62
   256
176
     0
 40
1.0
176
     0
 90
        2
176
     1
  1
strokes_ogs.tif
176
     1
290
     0
176
     1
 40
1.0
176
     1
 40
1.0
176
     1
  0
VISUALSTYLE
  5
273
102
{ACAD_REACTORS
330
20C
102
}
330
20C
100
AcDbVisualStyle
  2
Shaded
 70
    27
177
     3
291
     0
 70
    58
 90
        2
176
     1
 90
        2
176
     1
 90
        1
176
     1
 90
        2
176
     1
 40
0.6
176
     1
 40
30.0
176
     1
 62
     7
420
 16777215
176
     1
 90
        0
176
     1
 90
        4
176
     1
 62
     7
176
     1
 62
   257
176
     1
 90
        1
176
     1
 90
        1
176
     1
 40
1.0
176
     1
 90
        8
176
     1
 62
   257
176
     1
 40
1.0
176
     1
 90
        1
176
     1
 90
        6
176
     1
 90
        2
176
     1
 62
     8
420
  7895160
176
     1
 90
        3
176
     1
 90
        0
176
     1
 90
        0
176
     1
290
     0
176
     1
 90
        5
176
     1
 40
0.0
176
     1
 90
        0
176
     1
290
     0
176
     1
290
     1
176
     1
290
     1
176
     1
290
     0
176
     1
290
     0
176
     1
290
     0
176
     1
290
     0
176
     1
290
     0
176
     1
290
     0
176
     1
 90
       50
176
     1
 40
0.0
176
     1
 40
1.0
176
     1
 90
        0
176
     1
 62
    18
420
        0
176
     1
 90
       50
176
     1
 90
        3
176
     1
 62
     5
420
      255
176
     1
290
     0
176
     1
 90
       50
176
     1
 90
       50
176
     1
 90
       50
176
     1
290
     0
176
     1
 90
       50
176
     1
 62
   256
176
     0
 40
1.0
176
     0
 90
        2
176
     1
  1
strokes_ogs.tif
176
     1
290
     0
176
     1
 40
1.0
176
     1
 40
1.0
176
     1
  0
VISUALSTYLE
  5
272
102
{ACAD_REACTORS
330
20C
102
}
330
20C
100
AcDbVisualStyle
  2
Shaded with edges
 70
    26
177
     3
291
     0
 70
    58
 90
        2
176
     1
 90
        2
176
     1
 90
        1
176
     1
 90
        2
176
     1
 40
0.6
176
     1
 40
30.0
176
     1
 62
     7
420
 16777215
176
     1
 90
        1
176
     1
 90
       10
176
     1
 62
     7
176
     1
 62
   257
176
     1
 90
        2
176
     1
 90
        1
176
     1
 40
1.0
176
     1
 90
        8
176
     1
 62
   257
176
     1
 40
1.0
176
     1
 90
        1
176
     1
 90
        6
176
     1
 90
        2
176
     1
 62
     7
176
     1
 90
        3
176
     1
 90
        0
176
     1
 90
        0
176
     1
290
     0
176
     1
 90
        5
176
     1
 40
0.0
176
     1
 90
        0
176
     1
290
     0
176
     1
290
     1
176
     1
290
     1
176
     1
290
     0
176
     1
290
     0
176
     1
290
     0
176
     1
290
     0
176
     1
290
     0
176
     1
290
     0
176
     1
 90
       50
176
     1
 40
0.0
176
     1
 40
1.0
176
     1
 90
        0
176
     1
 62
    18
420
        0
176
     1
 90
       50
176
     1
 90
        3
176
     1
 62
     5
420
      255
176
     1
290
     0
176
     1
 90
       50
176
     1
 90
       50
176
     1
 90
       50
176
     1
290
     0
176
     1
 90
       50
176
     1
 62
   256
176
     0
 40
1.0
176
     0
 90
        2
176
     1
  1
strokes_ogs.tif
176
     1
290
     0
176
     1
 40
1.0
176
     1
 40
1.0
176
     1
  0
VISUALSTYLE
  5
26F
102
{ACAD_REACTORS
330
20C
102
}
330
20C
100
AcDbVisualStyle
  2
Shades of Gray
 70
    23
177
     3
291
     0
 70
    58
 90
        2
176
     1
 90
        2
176
     1
 90
        3
176
     1
 90
        0
176
     1
 40
0.6
176
     1
 40
30.0
176
     1
 62
     7
420
 16777215
176
     1
 90
        2
176
     1
 90
        2
176
     1
 62
     7
176
     1
 62
     7
176
     1
 90
        1
176
     1
 90
        1
176
     1
 40
40.0
176
     1
 90
        8
176
     1
 62
     7
176
     1
 40
1.0
176
     1
 90
        1
176
     1
 90
        6
176
     1
 90
        2
176
     1
 62
     7
176
     1
 90
        3
176
     1
 90
        0
176
     1
 90
        0
176
     1
290
     0
176
     1
 90
        1
176
     1
 40
0.0
176
     1
 90
        0
176
     1
290
     0
176
     1
290
     1
176
     1
290
     1
176
     1
290
     0
176
     1
290
     0
176
     1
290
     0
176
     1
290
     0
176
     1
290
     0
176
     1
290
     0
176
     1
 90
       50
176
     1
 40
0.0
176
     1
 40
1.0
176
     1
 90
        0
176
     1
 62
    18
420
        0
176
     1
 90
       50
176
     1
 90
        3
176
     1
 62
     5
420
      255
176
     1
290
     0
176
     1
 90
       50
176
     1
 90
       50
176
     1
 90
       50
176
     1
290
     0
176
     1
 90
       50
176
     1
 62
   256
176
     0
 40
1.0
176
     0
 90
        2
176
     1
  1
strokes_ogs.tif
176
     1
290
     0
176
     1
 40
1.0
176
     1
 40
1.0
176
     1
  0
VISUALSTYLE
  5
270
102
{ACAD_REACTORS
330
20C
102
}
330
20C
100
AcDbVisualStyle
  2
Sketchy
 70
    24
177
     3
291
     0
 70
    58
 90
        1
176
     1
 90
        2
176
     1
 90
        2
176
     1
 90
        0
176
     1
 40
0.6
176
     1
 40
30.0
176
     1
 62
     7
420
 16777215
176
     1
 90
        2
176
     1
 90
        2
176
     1
 62
     7
176
     1
 62
     7
176
     1
 90
        1
176
     1
 90
        1
176
     1
 40
40.0
176
     1
 90
       11
176
     1
 62
     7
176
     1
 40
1.0
176
     1
 90
        1
176
     1
 90
        6
176
     1
 90
        2
176
     1
 62
     7
176
     1
 90
        6
176
     1
 90
        0
176
     1
 90
        0
176
     1
290
     0
176
     1
 90
        1
176
     1
 40
0.0
176
     1
 90
        0
176
     1
290
     0
176
     1
290
     1
176
     1
290
     1
176
     1
290
     0
176
     1
290
     0
176
     1
290
     0
176
     1
290
     0
176
     1
290
     0
176
     1
290
     0
176
     1
 90
       50
176
     1
 40
0.0
176
     1
 40
1.0
176
     1
 90
        0
176
     1
 62
    18
420
        0
176
     1
 90
       50
176
     1
 90
        3
176
     1
 62
     5
420
      255
176
     1
290
     0
176
     1
 90
       50
176
     1
 90
       50
176
     1
 90
       50
176
     1
290
     0
176
     1
 90
       50
176
     1
 62
   256
176
     0
 40
1.0
176
     0
 90
        2
176
     1
  1
strokes_ogs.tif
176
     1
290
     0
176
     1
 40
1.0
176
     1
 40
1.0
176
     1
  0
VISUALSTYLE
  5
219
102
{ACAD_REACTORS
330
20C
102
}
330
20C
100
AcDbVisualStyle
  2
Thicken
 70
    13
177
     3
291
     1
 70
    58
 90
        2
176
     1
 90
        2
176
     1
 90
        0
176
     1
 90
        0
176
     1
 40
-0.6
176
     1
 40
-30.0
176
     1
 62
     7
176
     1
 90
        1
176
     1
 90
        4
176
     1
 62
     7
176
     1
 62
   257
176
     1
 90
        1
176
     1
 90
        1
176
     1
 40
1.0
176
     1
 90
       12
176
     1
 62
     7
176
     1
 40
1.0
176
     1
 90
        1
176
     1
 90
        6
176
     1
 90
        2
176
     1
 62
     7
176
     1
 90
        5
176
     1
 90
        0
176
     1
 90
        0
176
     1
290
     0
176
     1
 90
        1
176
     1
 40
0.0
176
     1
 90
        0
176
     1
290
     0
176
     1
290
     1
176
     1
290
     1
176
     1
290
     0
176
     1
290
     0
176
     1
290
     0
176
     1
290
     0
176
     1
290
     0
176
     1
290
     0
176
     1
 90
       50
176
     1
 40
0.0
176
     1
 40
1.0
176
     1
 90
        0
176
     1
 62
    18
420
        0
176
     1
 90
       50
176
     1
 90
        3
176
     1
 62
     5
420
      255
176
     1
290
     0
176
     1
 90
       50
176
     1
 90
       50
176
     1
 90
       50
176
     1
290
     0
176
     1
 90
       50
176
     1
 62
   256
176
     0
 40
1.0
176
     0
 90
        2
176
     1
  1
strokes_ogs.tif
176
     1
290
     0
176
     1
 40
1.0
176
     1
 40
1.0
176
     1
  0
VISUALSTYLE
  5
26A
102
{ACAD_REACTORS
330
20C
102
}
330
20C
100
AcDbVisualStyle
  2
Wireframe
 70
     5
177
     3
291
     0
 70
    58
 90
        0
176
     1
 90
        2
176
     1
 90
        0
176
     1
 90
        0
176
     1
 40
0.6
176
     1
 40
30.0
176
     1
 62
     7
420
 16777215
176
     1
 90
        1
176
     1
 90
        4
176
     1
 62
     7
176
     1
 62
   257
176
     1
 90
        1
176
     1
 90
        1
176
     1
 40
1.0
176
     1
 90
        0
176
     1
 62
   257
176
     1
 40
1.0
176
     1
 90
        1
176
     1
 90
        6
176
     1
 90
        2
176
     1
 62
     7
176
     1
 90
        3
176
     1
 90
        0
176
     1
 90
        0
176
     1
290
     0
176
     1
 90
        1
176
     1
 40
0.0
176
     1
 90
        0
176
     1
290
     0
176
     1
290
     1
176
     1
290
     1
176
     1
290
     0
176
     1
290
     0
176
     1
290
     0
176
     1
290
     0
176
     1
290
     0
176
     1
290
     0
176
     1
 90
       50
176
     1
 40
0.0
176
     1
 40
1.0
176
     1
 90
        0
176
     1
 62
    18
420
        0
176
     1
 90
       50
176
     1
 90
        3
176
     1
 62
     5
420
      255
176
     1
290
     0
176
     1
 90
       50
176
     1
 90
       50
176
     1
 90
       50
176
     1
290
     0
176
     1
 90
       50
176
     1
 62
   256
176
     0
 40
1.0
176
     0
 90
        2
176
     1
  1
strokes_ogs.tif
176
     1
290
     0
176
     1
 40
1.0
176
     1
 40
1.0
176
     1
  0
VISUALSTYLE
  5
271
102
{ACAD_REACTORS
330
20C
102
}
330
20C
100
AcDbVisualStyle
  2
X-Ray
 70
    25
177
     3
291
     0
 70
    58
 90
        2
176
     1
 90
        2
176
     1
 90
        1
176
     1
 90
        1
176
     1
 40
0.5
176
     1
 40
30.0
176
     1
 62
     7
420
 16777215
176
     1
 90
        1
176
     1
 90
        0
176
     1
 62
     7
176
     1
 62
   257
176
     1
 90
        1
176
     1
 90
        1
176
     1
 40
1.0
176
     1
 90
        8
176
     1
 62
     7
176
     1
 40
1.0
176
     1
 90
        1
176
     1
 90
        6
176
     1
 90
        2
176
     1
 62
     7
176
     1
 90
        3
176
     1
 90
        0
176
     1
 90
        0
176
     1
290
     0
176
     1
 90
       13
176
     1
 40
0.0
176
     1
 90
        0
176
     1
290
     0
176
     1
290
     1
176
     1
290
     1
176
     1
290
     0
176
     1
290
     0
176
     1
290
     0
176
     1
290
     0
176
     1
290
     0
176
     1
290
     0
176
     1
 90
       50
176
     1
 40
0.0
176
     1
 40
1.0
176
     1
 90
        0
176
     1
 62
    18
420
        0
176
     1
 90
       50
176
     1
 90
        3
176
     1
 62
     5
420
      255
176
     1
290
     0
176
     1
 90
       50
176
     1
 90
       50
176
     1
 90
       50
176
     1
290
     0
176
     1
 90
       50
176
     1
 62
   256
176
     0
 40
1.0
176
     0
 90
        2
176
     1
  1
strokes_ogs.tif
176
     1
290
     0
176
     1
 40
1.0
176
     1
 40
1.0
176
     1
  0
DICTIONARYVAR
  5
27B
102
{ACAD_REACTORS
330
229
102
}
330
229
100
DictionaryVariables
280
     0
  1
1:1
  0
DICTIONARYVAR
  5
27D
102
{ACAD_REACTORS
330
229
102
}
330
229
100
DictionaryVariables
280
     0
  1
Standard
  0
DICTIONARYVAR
  5
27C
102
{ACAD_REACTORS
330
229
102
}
330
229
100
DictionaryVariables
280
     0
  1
Standard
  0
DICTIONARYVAR
  5
22D
102
{ACAD_REACTORS
330
229
102
}
330
229
100
DictionaryVariables
280
     0
  1
2
  0
DICTIONARYVAR
  5
22E
102
{ACAD_REACTORS
330
229
102
}
330
229
100
DictionaryVariables
280
     0
  1
1
  0
DICTIONARYVAR
  5
22C
102
{ACAD_REACTORS
330
229
102
}
330
229
100
DictionaryVariables
280
     0
  1
0
  0
DICTIONARY
  5
3AC
330
275
100
AcDbDictionary
280
     1
281
     1
  3
ACAD_ROUNDTRIP_2008_TABLESTYLE_CELLSTYLEMAP
360
3AD
  0
CELLSTYLEMAP
  5
3AD
102
{ACAD_REACTORS
330
3AC
102
}
330
3AC
100
AcDbCellStyleMap
 90
        3
300
CELLSTYLE
  1
TABLEFORMAT_BEGIN
 90
        5
170
     1
 91
        0
 92
    32768
 62
   257
 93
        1
300
CONTENTFORMAT
  1
CONTENTFORMAT_BEGIN
 90
        0
 91
        0
 92
        4
 93
        0
300

 40
0.0
140
1.0
 94
        5
 62
     0
340
11
144
0.25
309
CONTENTFORMAT_END
171
     1
301
MARGIN
  1
CELLMARGIN_BEGIN
 40
0.06
 40
0.06
 40
0.06
 40
0.06
 40
0.06
 40
0.06
309
CELLMARGIN_END
 94
        6
 95
        1
302
GRIDFORMAT
  1
GRIDFORMAT_BEGIN
 90
        0
 91
        1
 62
     0
 92
       -2
340
14
 93
        0
 40
0.045
309
GRIDFORMAT_END
 95
        2
302
GRIDFORMAT
  1
GRIDFORMAT_BEGIN
 90
        0
 91
        1
 62
     0
 92
       -2
340
14
 93
        0
 40
0.045
309
GRIDFORMAT_END
 95
        4
302
GRIDFORMAT
  1
GRIDFORMAT_BEGIN
 90
        0
 91
        1
 62
     0
 92
       -2
340
14
 93
        0
 40
0.045
309
GRIDFORMAT_END
 95
        8
302
GRIDFORMAT
  1
GRIDFORMAT_BEGIN
 90
        0
 91
        1
 62
     0
 92
       -2
340
14
 93
        0
 40
0.045
309
GRIDFORMAT_END
 95
       16
302
GRIDFORMAT
  1
GRIDFORMAT_BEGIN
 90
        0
 91
        1
 62
     0
 92
       -2
340
14
 93
        0
 40
0.045
309
GRIDFORMAT_END
 95
       32
302
GRIDFORMAT
  1
GRIDFORMAT_BEGIN
 90
        0
 91
        1
 62
     0
 92
       -2
340
14
 93
        0
 40
0.045
309
GRIDFORMAT_END
309
TABLEFORMAT_END
  1
CELLSTYLE_BEGIN
 90
        1
 91
        1
300
_TITLE
309
CELLSTYLE_END
300
CELLSTYLE
  1
TABLEFORMAT_BEGIN
 90
        5
170
     1
 91
        0
 92
        0
 62
   257
 93
        1
300
CONTENTFORMAT
  1
CONTENTFORMAT_BEGIN
 90
        0
 91
        0
 92
        4
 93
        0
300

 40
0.0
140
1.0
 94
        5
 62
     0
340
11
144
0.18
309
CONTENTFORMAT_END
171
     1
301
MARGIN
  1
CELLMARGIN_BEGIN
 40
0.06
 40
0.06
 40
0.06
 40
0.06
 40
0.06
 40
0.06
309
CELLMARGIN_END
 94
        6
 95
        1
302
GRIDFORMAT
  1
GRIDFORMAT_BEGIN
 90
        0
 91
        1
 62
     0
 92
       -2
340
14
 93
        0
 40
0.045
309
GRIDFORMAT_END
 95
        2
302
GRIDFORMAT
  1
GRIDFORMAT_BEGIN
 90
        0
 91
        1
 62
     0
 92
       -2
340
14
 93
        0
 40
0.045
309
GRIDFORMAT_END
 95
        4
302
GRIDFORMAT
  1
GRIDFORMAT_BEGIN
 90
        0
 91
        1
 62
     0
 92
       -2
340
14
 93
        0
 40
0.045
309
GRIDFORMAT_END
 95
        8
302
GRIDFORMAT
  1
GRIDFORMAT_BEGIN
 90
        0
 91
        1
 62
     0
 92
       -2
340
14
 93
        0
 40
0.045
309
GRIDFORMAT_END
 95
       16
302
GRIDFORMAT
  1
GRIDFORMAT_BEGIN
 90
        0
 91
        1
 62
     0
 92
       -2
340
14
 93
        0
 40
0.045
309
GRIDFORMAT_END
 95
       32
302
GRIDFORMAT
  1
GRIDFORMAT_BEGIN
 90
        0
 91
        1
 62
     0
 92
       -2
340
14
 93
        0
 40
0.045
309
GRIDFORMAT_END
309
TABLEFORMAT_END
  1
CELLSTYLE_BEGIN
 90
        2
 91
        1
300
_HEADER
309
CELLSTYLE_END
300
CELLSTYLE
  1
TABLEFORMAT_BEGIN
 90
        5
170
     1
 91
        0
 92
        0
 62
   257
 93
        1
300
CONTENTFORMAT
  1
CONTENTFORMAT_BEGIN
 90
        0
 91
        0
 92
        4
 93
        0
300

 40
0.0
140
1.0
 94
        2
 62
     0
340
11
144
0.18
309
CONTENTFORMAT_END
171
     1
301
MARGIN
  1
CELLMARGIN_BEGIN
 40
0.06
 40
0.06
 40
0.06
 40
0.06
 40
0.06
 40
0.06
309
CELLMARGIN_END
 94
        6
 95
        1
302
GRIDFORMAT
  1
GRIDFORMAT_BEGIN
 90
        0
 91
        1
 62
     0
 92
       -2
340
14
 93
        0
 40
0.045
309
GRIDFORMAT_END
 95
        2
302
GRIDFORMAT
  1
GRIDFORMAT_BEGIN
 90
        0
 91
        1
 62
     0
 92
       -2
340
14
 93
        0
 40
0.045
309
GRIDFORMAT_END
 95
        4
302
GRIDFORMAT
  1
GRIDFORMAT_BEGIN
 90
        0
 91
        1
 62
     0
 92
       -2
340
14
 93
        0
 40
0.045
309
GRIDFORMAT_END
 95
        8
302
GRIDFORMAT
  1
GRIDFORMAT_BEGIN
 90
        0
 91
        1
 62
     0
 92
       -2
340
14
 93
        0
 40
0.045
309
GRIDFORMAT_END
 95
       16
302
GRIDFORMAT
  1
GRIDFORMAT_BEGIN
 90
        0
 91
        1
 62
     0
 92
       -2
340
14
 93
        0
 40
0.045
309
GRIDFORMAT_END
 95
       32
302
GRIDFORMAT
  1
GRIDFORMAT_BEGIN
 90
        0
 91
        1
 62
     0
 92
       -2
340
14
 93
        0
 40
0.045
309
GRIDFORMAT_END
309
TABLEFORMAT_END
  1
CELLSTYLE_BEGIN
 90
        3
 91
        2
300
_DATA
309
CELLSTYLE_END
  0
ENDSEC
  0
EOF
