  0
SECTION
  2
HEADER
  9
$ACADVER
  1
AC1027
  9
$ACADMAINTVER
 70
   105
  9
$DWGCODEPAGE
  3
ANSI_1252
  9
$REQUIREDVERSIONS
160
                 0
  9
$LASTSAVEDBY
  1
matthias.ochs
  9
$INSBASE
 10
0.0
 20
0.0
 30
0.0
  9
$EXTMIN
 10
-92.95696379741526
 20
-134.2731071714464
 30
0.0
  9
$EXTMAX
 10
127.2950096110765
 20
133.110975773019
 30
0.0
  9
$LIMMIN
 10
-137.100586535
 20
-99.244167665
  9
$LIMMAX
 10
174.467486188
 20
99.244167665
  9
$ORTHOMODE
 70
     0
  9
$REGENMODE
 70
     1
  9
$FILLMODE
 70
     1
  9
$QTEXTMODE
 70
     0
  9
$MIRRTEXT
 70
     1
  9
$LTSCALE
 40
1.0
  9
$ATTMODE
 70
     1
  9
$TEXTSIZE
 40
0.2
  9
$TRACEWID
 40
0.05
  9
$TEXTSTYLE
  7
Standard
  9
$CLAYER
  8
3
  9
$CELTYPE
  6
ByLayer
  9
$CECOLOR
 62
   256
  9
$CELTSCALE
 40
1.0
  9
$DISPSILH
 70
     0
  9
$DIMSCALE
 40
1.0
  9
$DIMASZ
 40
0.18
  9
$DIMEXO
 40
0.0625
  9
$DIMDLI
 40
0.38
  9
$DIMRND
 40
0.0
  9
$DIMDLE
 40
0.0
  9
$DIMEXE
 40
0.18
  9
$DIMTP
 40
0.0
  9
$DIMTM
 40
0.0
  9
$DIMTXT
 40
0.18
  9
$DIMCEN
 40
0.09
  9
$DIMTSZ
 40
0.0
  9
$DIMTOL
 70
     0
  9
$DIMLIM
 70
     0
  9
$DIMTIH
 70
     1
  9
$DIMTOH
 70
     1
  9
$DIMSE1
 70
     0
  9
$DIMSE2
 70
     0
  9
$DIMTAD
 70
     0
  9
$DIMZIN
 70
     0
  9
$DIMBLK
  1

  9
$DIMASO
 70
     1
  9
$DIMSHO
 70
     1
  9
$DIMPOST
  1

  9
$DIMAPOST
  1

  9
$DIMALT
 70
     0
  9
$DIMALTD
 70
     2
  9
$DIMALTF
 40
25.4
  9
$DIMLFAC
 40
1.0
  9
$DIMTOFL
 70
     0
  9
$DIMTVP
 40
0.0
  9
$DIMTIX
 70
     0
  9
$DIMSOXD
 70
     0
  9
$DIMSAH
 70
     0
  9
$DIMBLK1
  1

  9
$DIMBLK2
  1

  9
$DIMSTYLE
  2
Standard
  9
$DIMCLRD
 70
     0
  9
$DIMCLRE
 70
     0
  9
$DIMCLRT
 70
     0
  9
$DIMTFAC
 40
1.0
  9
$DIMGAP
 40
0.09
  9
$DIMJUST
 70
     0
  9
$DIMSD1
 70
     0
  9
$DIMSD2
 70
     0
  9
$DIMTOLJ
 70
     1
  9
$DIMTZIN
 70
     0
  9
$DIMALTZ
 70
     0
  9
$DIMALTTZ
 70
     0
  9
$DIMUPT
 70
     0
  9
$DIMDEC
 70
     4
  9
$DIMTDEC
 70
     4
  9
$DIMALTU
 70
     2
  9
$DIMALTTD
 70
     2
  9
$DIMTXSTY
  7
Standard
  9
$DIMAUNIT
 70
     0
  9
$DIMADEC
 70
     0
  9
$DIMALTRND
 40
0.0
  9
$DIMAZIN
 70
     0
  9
$DIMDSEP
 70
    46
  9
$DIMATFIT
 70
     3
  9
$DIMFRAC
 70
     0
  9
$DIMLDRBLK
  1

  9
$DIMLUNIT
 70
     2
  9
$DIMLWD
 70
    -2
  9
$DIMLWE
 70
    -2
  9
$DIMTMOVE
 70
     2
  9
$DIMFXL
 40
1.0
  9
$DIMFXLON
 70
     0
  9
$DIMJOGANG
 40
0.7853981633974483
  9
$DIMTFILL
 70
     0
  9
$DIMTFILLCLR
 70
     0
  9
$DIMARCSYM
 70
     0
  9
$DIMLTYPE
  6

  9
$DIMLTEX1
  6

  9
$DIMLTEX2
  6

  9
$DIMTXTDIRECTION
 70
     0
  9
$LUNITS
 70
     2
  9
$LUPREC
 70
     4
  9
$SKETCHINC
 40
0.1
  9
$FILLETRAD
 40
0.5
  9
$AUNITS
 70
     2
  9
$AUPREC
 70
     0
  9
$MENU
  1
.
  9
$ELEVATION
 40
0.0
  9
$PELEVATION
 40
0.0
  9
$THICKNESS
 40
0.0
  9
$LIMCHECK
 70
     0
  9
$CHAMFERA
 40
0.5
  9
$CHAMFERB
 40
0.5
  9
$CHAMFERC
 40
1.0
  9
$CHAMFERD
 40
0.0
  9
$SKPOLY
 70
     0
  9
$TDCREATE
 40
2458327.549333287
  9
$TDUCREATE
 40
2458327.465999954
  9
$TDUPDATE
 40
2458677.337450451
  9
$TDUUPDATE
 40
2458677.254117118
  9
$TDINDWG
 40
0.0093126968
  9
$TDUSRTIMER
 40
0.0025721296
  9
$USRTIMER
 70
     1
  9
$ANGBASE
 50
0.0
  9
$ANGDIR
 70
     0
  9
$PDMODE
 70
     0
  9
$PDSIZE
 40
0.0
  9
$PLINEWID
 40
0.0
  9
$SPLFRAME
 70
     0
  9
$SPLINETYPE
 70
     6
  9
$SPLINESEGS
 70
     8
  9
$HANDSEED
  5
4D9
  9
$SURFTAB1
 70
     6
  9
$SURFTAB2
 70
     6
  9
$SURFTYPE
 70
     6
  9
$SURFU
 70
     6
  9
$SURFV
 70
     6
  9
$UCSBASE
  2

  9
$UCSNAME
  2

  9
$UCSORG
 10
0.0
 20
0.0
 30
0.0
  9
$UCSXDIR
 10
1.0
 20
0.0
 30
0.0
  9
$UCSYDIR
 10
0.0
 20
1.0
 30
0.0
  9
$UCSORTHOREF
  2

  9
$UCSORTHOVIEW
 70
     0
  9
$UCSORGTOP
 10
0.0
 20
0.0
 30
0.0
  9
$UCSORGBOTTOM
 10
0.0
 20
0.0
 30
0.0
  9
$UCSORGLEFT
 10
0.0
 20
0.0
 30
0.0
  9
$UCSORGRIGHT
 10
0.0
 20
0.0
 30
0.0
  9
$UCSORGFRONT
 10
0.0
 20
0.0
 30
0.0
  9
$UCSORGBACK
 10
0.0
 20
0.0
 30
0.0
  9
$PUCSBASE
  2

  9
$PUCSNAME
  2

  9
$PUCSORG
 10
0.0
 20
0.0
 30
0.0
  9
$PUCSXDIR
 10
1.0
 20
0.0
 30
0.0
  9
$PUCSYDIR
 10
0.0
 20
1.0
 30
0.0
  9
$PUCSORTHOREF
  2

  9
$PUCSORTHOVIEW
 70
     0
  9
$PUCSORGTOP
 10
0.0
 20
0.0
 30
0.0
  9
$PUCSORGBOTTOM
 10
0.0
 20
0.0
 30
0.0
  9
$PUCSORGLEFT
 10
0.0
 20
0.0
 30
0.0
  9
$PUCSORGRIGHT
 10
0.0
 20
0.0
 30
0.0
  9
$PUCSORGFRONT
 10
0.0
 20
0.0
 30
0.0
  9
$PUCSORGBACK
 10
0.0
 20
0.0
 30
0.0
  9
$USERI1
 70
     0
  9
$USERI2
 70
     0
  9
$USERI3
 70
     0
  9
$USERI4
 70
     0
  9
$USERI5
 70
     0
  9
$USERR1
 40
0.0
  9
$USERR2
 40
0.0
  9
$USERR3
 40
0.0
  9
$USERR4
 40
0.0
  9
$USERR5
 40
0.0
  9
$WORLDVIEW
 70
     1
  9
$SHADEDGE
 70
     3
  9
$SHADEDIF
 70
    70
  9
$TILEMODE
 70
     1
  9
$MAXACTVP
 70
    64
  9
$PINSBASE
 10
0.0
 20
0.0
 30
0.0
  9
$PLIMCHECK
 70
     0
  9
$PEXTMIN
 10
1.000000000000000E+20
 20
1.000000000000000E+20
 30
1.000000000000000E+20
  9
$PEXTMAX
 10
-1.000000000000000E+20
 20
-1.000000000000000E+20
 30
-1.000000000000000E+20
  9
$PLIMMIN
 10
0.0
 20
0.0
  9
$PLIMMAX
 10
0.0
 20
0.0
  9
$UNITMODE
 70
     0
  9
$VISRETAIN
 70
     1
  9
$PLINEGEN
 70
     0
  9
$PSLTSCALE
 70
     1
  9
$TREEDEPTH
 70
  3020
  9
$CMLSTYLE
  2
Standard
  9
$CMLJUST
 70
     0
  9
$CMLSCALE
 40
1.0
  9
$PROXYGRAPHICS
 70
     1
  9
$MEASUREMENT
 70
     0
  9
$CELWEIGHT
370
    -1
  9
$ENDCAPS
280
     0
  9
$JOINSTYLE
280
     0
  9
$LWDISPLAY
290
     0
  9
$INSUNITS
 70
     0
  9
$HYPERLINKBASE
  1

  9
$STYLESHEET
  1

  9
$XEDIT
290
     1
  9
$CEPSNTYPE
380
     0
  9
$PSTYLEMODE
290
     1
  9
$FINGERPRINTGUID
  2
{0AE8C4D5-9C28-44C3-9CAD-B2F7595D3C33}
  9
$VERSIONGUID
  2
{FAEB1C32-E019-11D5-929B-00C0DF256EC4}
  9
$EXTNAMES
290
     1
  9
$PSVPSCALE
 40
0.0
  9
$OLESTARTUP
290
     0
  9
$SORTENTS
280
   127
  9
$INDEXCTL
280
     0
  9
$HIDETEXT
280
     1
  9
$XCLIPFRAME
280
     2
  9
$HALOGAP
280
     0
  9
$OBSCOLOR
 70
   257
  9
$OBSLTYPE
280
     0
  9
$INTERSECTIONDISPLAY
280
     0
  9
$INTERSECTIONCOLOR
 70
   257
  9
$DIMASSOC
280
     2
  9
$PROJECTNAME
  1

  9
$CAMERADISPLAY
290
     0
  9
$LENSLENGTH
 40
50.0
  9
$CAMERAHEIGHT
 40
0.0
  9
$STEPSPERSEC
 40
2.0
  9
$STEPSIZE
 40
6.0
  9
$3DDWFPREC
 40
2.0
  9
$PSOLWIDTH
 40
0.25
  9
$PSOLHEIGHT
 40
4.0
  9
$LOFTANG1
 40
1.570796326794897
  9
$LOFTANG2
 40
1.570796326794897
  9
$LOFTMAG1
 40
0.0
  9
$LOFTMAG2
 40
0.0
  9
$LOFTPARAM
 70
     7
  9
$LOFTNORMALS
280
     1
  9
$LATITUDE
 40
37.795
  9
$LONGITUDE
 40
-122.394
  9
$NORTHDIRECTION
 40
0.0
  9
$TIMEZONE
 70
 -8000
  9
$LIGHTGLYPHDISPLAY
280
     1
  9
$TILEMODELIGHTSYNCH
280
     1
  9
$SOLIDHIST
280
     0
  9
$SHOWHIST
280
     1
  9
$DWFFRAME
280
     2
  9
$DGNFRAME
280
     2
  9
$REALWORLDSCALE
290
     1
  9
$INTERFERECOLOR
 62
   256
  9
$CSHADOW
280
     0
  9
$SHADOWPLANELOCATION
 40
0.0
  0
ENDSEC
  0
SECTION
  2
CLASSES
  0
CLASS
  1
ACDBDICTIONARYWDFLT
  2
AcDbDictionaryWithDefault
  3
ObjectDBX Classes
 90
        0
 91
       12
280
     0
281
     0
  0
CLASS
  1
SCALE
  2
AcDbScale
  3
ObjectDBX Classes
 90
     1153
 91
       12
280
     0
281
     0
  0
CLASS
  1
VISUALSTYLE
  2
AcDbVisualStyle
  3
ObjectDBX Classes
 90
     4095
 91
       12
280
     0
281
     0
  0
CLASS
  1
MATERIAL
  2
AcDbMaterial
  3
ObjectDBX Classes
 90
     1153
 91
       12
280
     0
281
     0
  0
CLASS
  1
DICTIONARYVAR
  2
AcDbDictionaryVar
  3
ObjectDBX Classes
 90
        0
 91
       12
280
     0
281
     0
  0
CLASS
  1
ACDBPLACEHOLDER
  2
AcDbPlaceHolder
  3
ObjectDBX Classes
 90
        0
 91
        1
280
     0
281
     0
  0
CLASS
  1
LAYOUT
  2
AcDbLayout
  3
ObjectDBX Classes
 90
        0
 91
        1
280
     0
281
     0
  0
CLASS
  1
TABLESTYLE
  2
AcDbTableStyle
  3
ObjectDBX Classes
 90
     4095
 91
       12
280
     0
281
     0
  0
CLASS
  1
MLEADERSTYLE
  2
AcDbMLeaderStyle
  3
ACDB_MLEADERSTYLE_CLASS
 90
     4095
 91
       12
280
     0
281
     0
  0
CLASS
  1
SUN
  2
AcDbSun
  3
SCENEOE
 90
     1153
 91
       12
280
     0
281
     0
  0
CLASS
  1
CELLSTYLEMAP
  2
AcDbCellStyleMap
  3
ObjectDBX Classes
 90
     1152
 91
        5
280
     0
281
     0
  0
ENDSEC
  0
SECTION
  2
TABLES
  0
TABLE
  2
VPORT
  5
8
330
0
100
AcDbSymbolTable
 70
     1
  0
VPORT
  5
3A6
330
8
100
AcDbSymbolTableRecord
100
AcDbViewportTableRecord
  2
*Active
 70
     0
 10
0.0
 20
0.0
 11
1.0
 21
1.0
 12
-69.74565067780779
 22
-49.08791204656262
 13
0.0
 23
0.0
 14
0.5
 24
0.5
 15
0.5
 25
0.5
 16
0.0
 26
0.0
 36
1.0
 17
0.0
 27
0.0
 37
0.0
 40
491.0619789209473
 41
1.831002331002331
 42
50.0
 43
0.0
 44
0.0
 50
0.0
 51
0.0
 71
    16
 72
   100
 73
     1
 74
     3
 75
     0
 76
     0
 77
     0
 78
     0
281
     0
 65
     1
110
0.0
120
0.0
130
0.0
111
1.0
121
0.0
131
0.0
112
0.0
122
1.0
132
0.0
 79
     0
146
0.0
348
3D8
 60
     3
 61
     5
292
     1
282
     1
141
0.0
142
0.0
 63
   256
361
4A0
  0
ENDTAB
  0
TABLE
  2
LTYPE
  5
5
330
0
100
AcDbSymbolTable
 70
     8
  0
LTYPE
  5
14
330
5
100
AcDbSymbolTableRecord
100
AcDbLinetypeTableRecord
  2
ByBlock
 70
     0
  3

 72
    65
 73
     0
 40
0.0
  0
LTYPE
  5
15
330
5
100
AcDbSymbolTableRecord
100
AcDbLinetypeTableRecord
  2
ByLayer
 70
     0
  3

 72
    65
 73
     0
 40
0.0
  0
LTYPE
  5
16
330
5
100
AcDbSymbolTableRecord
100
AcDbLinetypeTableRecord
  2
Continuous
 70
     0
  3
Solid line
 72
    65
 73
     0
 40
0.0
  0
LTYPE
  5
20
330
5
100
AcDbSymbolTableRecord
100
AcDbLinetypeTableRecord
  2
PUNKT
 70
     0
  3
..............
 72
    65
 73
     2
 40
1.5
 49
0.7
 74
     0
 49
-0.8
 74
     0
  0
LTYPE
  5
21
330
5
100
AcDbSymbolTableRecord
100
AcDbLinetypeTableRecord
  2
GESTRICHELT
 70
     0
  3
-- -- -- -- --
 72
    65
 73
     7
 40
2.8
 49
0.9
 74
     0
 49
0.0
 74
     0
 49
0.9
 74
     0
 49
0.0
 74
     0
 49
0.2
 74
     0
 49
0.0
 74
     0
 49
-0.8
 74
     0
  0
LTYPE
  5
22
330
5
100
AcDbSymbolTableRecord
100
AcDbLinetypeTableRecord
  2
STRICHPUNKT
 70
     0
  3
--.--.--.--.--
 72
    65
 73
     4
 40
8.8
 49
5.5
 74
     0
 49
-1.3
 74
     0
 49
0.7
 74
     0
 49
-1.3
 74
     0
  0
LTYPE
  5
25
330
5
100
AcDbSymbolTableRecord
100
AcDbLinetypeTableRecord
  2
PHANTOM
 70
     0
  3
--..--..--..--
 72
    65
 73
     6
 40
14.2
 49
7.0
 74
     0
 49
-1.8
 74
     0
 49
0.9
 74
     0
 49
-1.8
 74
     0
 49
0.9
 74
     0
 49
-1.8
 74
     0
  0
LTYPE
  5
420
330
5
100
AcDbSymbolTableRecord
100
AcDbLinetypeTableRecord
  2
DASH
 70
     0
  3
DASH _ _ _ _ _
 72
    65
 73
     2
 40
0.75
 49
0.4
 74
     0
 49
-0.35
 74
     0
  0
LTYPE
  5
421
330
5
100
AcDbSymbolTableRecord
100
AcDbLinetypeTableRecord
  2
LONGDASH_DASH
 70
     0
  3
LONGDASH_DASH __ . __ . __
 72
    65
 73
     4
 40
0.85
 49
0.4
 74
     0
 49
-0.2
 74
     0
 49
0.05
 74
     0
 49
-0.2
 74
     0
  0
LTYPE
  5
422
330
5
100
AcDbSymbolTableRecord
100
AcDbLinetypeTableRecord
  2
LONGDASH_DASH_DASH
 70
     0
  3
LONGDASH_DASH_DASH __ . . __ . . __
 72
    65
 73
     6
 40
1.1
 49
0.4
 74
     0
 49
-0.2
 74
     0
 49
0.05
 74
     0
 49
-0.2
 74
     0
 49
0.05
 74
     0
 49
-0.2
 74
     0
  0
ENDTAB
  0
TABLE
  2
LAYER
  5
2
102
{ACAD_XDICTIONARY
360
43F
102
}
330
0
100
AcDbSymbolTable
 70
    15
  0
LAYER
  5
3E9
330
2
100
AcDbSymbolTableRecord
100
AcDbLayerTableRecord
  2
200
 70
     0
 62
     2
  6
Continuous
370
    50
390
F
347
3E7
348
0
  0
LAYER
  5
423
330
2
100
AcDbSymbolTableRecord
100
AcDbLayerTableRecord
  2
0
 70
     0
 62
     1
  6
Continuous
370
    -3
390
F
347
3E7
348
0
  0
LAYER
  5
424
330
2
100
AcDbSymbolTableRecord
100
AcDbLayerTableRecord
  2
1
 70
     0
 62
     4
  6
Continuous
370
    50
390
F
347
3E7
348
0
  0
LAYER
  5
425
330
2
100
AcDbSymbolTableRecord
100
AcDbLayerTableRecord
  2
2
 70
     0
 62
     7
  6
Continuous
370
    25
390
F
347
3E7
348
0
  0
LAYER
  5
426
330
2
100
AcDbSymbolTableRecord
100
AcDbLayerTableRecord
  2
3
 70
     0
 62
     1
  6
DASH
370
    35
390
F
347
3E7
348
0
  0
LAYER
  5
427
330
2
100
AcDbSymbolTableRecord
100
AcDbLayerTableRecord
  2
4
 70
     0
 62
     2
  6
LONGDASH_DASH
370
    25
390
F
347
3E7
348
0
  0
LAYER
  5
428
330
2
100
AcDbSymbolTableRecord
100
AcDbLayerTableRecord
  2
6
 70
     0
 62
     5
  6
Continuous
370
    -3
390
F
347
3E7
348
0
  0
LAYER
  5
429
330
2
100
AcDbSymbolTableRecord
100
AcDbLayerTableRecord
  2
CUT
 70
     0
 62
     1
  6
Continuous
370
    25
390
F
347
3E7
348
0
  0
LAYER
  5
42A
330
2
100
AcDbSymbolTableRecord
100
AcDbLayerTableRecord
  2
NOCUT
 70
     0
 62
     7
  6
Continuous
370
    25
390
F
347
3E7
348
0
  0
LAYER
  5
42B
330
2
100
AcDbSymbolTableRecord
100
AcDbLayerTableRecord
  2
SK1
 70
     0
 62
     4
  6
Continuous
370
    50
390
F
347
3E7
348
0
  0
LAYER
  5
42C
330
2
100
AcDbSymbolTableRecord
100
AcDbLayerTableRecord
  2
SK2
 70
     0
 62
     7
  6
Continuous
370
    25
390
F
347
3E7
348
0
  0
LAYER
  5
42D
330
2
100
AcDbSymbolTableRecord
100
AcDbLayerTableRecord
  2
SK3
 70
     0
 62
     1
  6
DASH
370
    35
390
F
347
3E7
348
0
  0
LAYER
  5
42E
330
2
100
AcDbSymbolTableRecord
100
AcDbLayerTableRecord
  2
SK4
 70
     0
 62
     2
  6
LONGDASH_DASH
370
    25
390
F
347
3E7
348
0
  0
LAYER
  5
42F
330
2
100
AcDbSymbolTableRecord
100
AcDbLayerTableRecord
  2
SK6
 70
     0
 62
     5
  6
Continuous
370
    -3
390
F
347
3E7
348
0
  0
LAYER
  5
430
330
2
100
AcDbSymbolTableRecord
100
AcDbLayerTableRecord
  2
INFTOTAL
 70
     0
 62
     9
  6
Continuous
370
    18
390
F
347
3E7
348
0
  0
ENDTAB
  0
TABLE
  2
STYLE
  5
3
330
0
100
AcDbSymbolTable
 70
     2
  0
STYLE
  5
11
330
3
100
AcDbSymbolTableRecord
100
AcDbTextStyleTableRecord
  2
Standard
 70
     0
 40
0.0
 41
1.0
 50
0.0
 71
     0
 42
0.2
  3
txt
  4

  0
STYLE
  5
3E8
330
3
100
AcDbSymbolTableRecord
100
AcDbTextStyleTableRecord
  2
BMG_Text
 70
     0
 40
3.5
 41
1.0
 50
0.0
 71
     0
 42
0.2
  3
monos.ttf
  4

1001
ACAD
1000
Monospac821 BT
1071
       49
  0
ENDTAB
  0
TABLE
  2
VIEW
  5
6
330
0
100
AcDbSymbolTable
 70
     0
  0
ENDTAB
  0
TABLE
  2
UCS
  5
7
330
0
100
AcDbSymbolTable
 70
     0
  0
ENDTAB
  0
TABLE
  2
APPID
  5
9
330
0
100
AcDbSymbolTable
 70
     1
  0
APPID
  5
12
330
9
100
AcDbSymbolTableRecord
100
AcDbRegAppTableRecord
  2
ACAD
 70
     0
  0
ENDTAB
  0
TABLE
  2
DIMSTYLE
  5
A
330
0
100
AcDbSymbolTable
 70
     1
100
AcDbDimStyleTable
  0
DIMSTYLE
105
28
330
A
100
AcDbSymbolTableRecord
100
AcDbDimStyleTableRecord
  2
Standard
 70
     0
178
     0
340
11
  0
ENDTAB
  0
TABLE
  2
BLOCK_RECORD
  5
1
330
0
100
AcDbSymbolTable
 70
     0
  0
BLOCK_RECORD
  5
1D
330
1
100
AcDbSymbolTableRecord
100
AcDbBlockTableRecord
  2
*Model_Space
340
1E
 70
     0
280
     1
281
     0
  0
BLOCK_RECORD
  5
1B
330
1
100
AcDbSymbolTableRecord
100
AcDbBlockTableRecord
  2
*Paper_Space
340
1C
 70
     0
280
     1
281
     0
  0
ENDTAB
  0
ENDSEC
  0
SECTION
  2
BLOCKS
  0
BLOCK
  5
3D1
330
1D
100
AcDbEntity
  8
0
100
AcDbBlockBegin
  2
*Model_Space
 70
     0
 10
0.0
 20
0.0
 30
0.0
  3
*Model_Space
  1

  0
ENDBLK
  5
3D2
330
1D
100
AcDbEntity
  8
0
100
AcDbBlockEnd
  0
BLOCK
  5
3CF
330
1B
100
AcDbEntity
 67
     1
  8
0
100
AcDbBlockBegin
  2
*Paper_Space
 70
     0
 10
0.0
 20
0.0
 30
0.0
  3
*Paper_Space
  1

  0
ENDBLK
  5
3D0
330
1B
100
AcDbEntity
 67
     1
  8
0
100
AcDbBlockEnd
  0
ENDSEC
  0
SECTION
  2
ENTITIES
  0
LINE
  5
29
330
1D
100
AcDbEntity
  8
3
100
AcDbLine
 10
-16.0
 20
-83.798203593
 30
0.0
 11
-8.0
 21
-83.798203593
 31
0.0
  0
LINE
  5
2A
330
1D
100
AcDbEntity
  8
1
100
AcDbLine
 10
-16.0
 20
-66.298203593
 30
0.0
 11
-14.0
 21
-66.298203593
 31
0.0
  0
LINE
  5
2B
330
1D
100
AcDbEntity
  8
3
100
AcDbLine
 10
0.0
 20
-95.259915738
 30
0.0
 11
0.0
 21
-11.298203593
 31
0.0
  0
LINE
  5
2C
330
1D
100
AcDbEntity
  8
3
100
AcDbLine
 10
0.0
 20
11.298203593
 30
0.0
 11
0.0
 21
94.996125046
 31
0.0
  0
ARC
  5
2D
330
1D
100
AcDbEntity
  8
1
100
AcDbCircle
 10
-4.416917957
 20
33.298203593
 30
0.0
 40
9.741558471
100
AcDbArc
 50
169.651050409
 51
190.348949591
  0
LINE
  5
2E
330
1D
100
AcDbEntity
  8
1
100
AcDbLine
 10
-8.0
 20
36.184954939
 30
0.0
 11
-10.5
 21
34.741579266
 31
0.0
  0
LINE
  5
2F
330
1D
100
AcDbEntity
  8
1
100
AcDbLine
 10
-10.5
 20
31.85482792
 30
0.0
 11
-10.5
 21
34.741579266
 31
0.0
  0
LINE
  5
30
330
1D
100
AcDbEntity
  8
1
100
AcDbLine
 10
-8.0
 20
30.411452247
 30
0.0
 11
-10.5
 21
31.85482792
 31
0.0
  0
LINE
  5
31
330
1D
100
AcDbEntity
  8
1
100
AcDbLine
 10
-8.0
 20
30.411452247
 30
0.0
 11
-5.5
 21
31.85482792
 31
0.0
  0
LINE
  5
32
330
1D
100
AcDbEntity
  8
1
100
AcDbLine
 10
-5.5
 20
31.85482792
 30
0.0
 11
-5.5
 21
34.741579266
 31
0.0
  0
LINE
  5
33
330
1D
100
AcDbEntity
  8
1
100
AcDbLine
 10
-8.0
 20
36.184954939
 30
0.0
 11
-5.5
 21
34.741579266
 31
0.0
  0
ARC
  5
34
330
1D
100
AcDbEntity
  8
1
100
AcDbCircle
 10
-8.0
 20
33.298203593
 30
0.0
 40
6.25
100
AcDbArc
 50
196.260204708
 51
163.739795292
  0
LINE
  5
35
330
1D
100
AcDbEntity
  8
1
100
AcDbLine
 10
42.25
 20
83.798203593
 30
0.0
 11
31.45
 21
83.798203593
 31
0.0
  0
LINE
  5
36
330
1D
100
AcDbEntity
  8
1
100
AcDbLine
 10
31.45
 20
65.798203593
 30
0.0
 11
42.25
 21
65.798203593
 31
0.0
  0
ARC
  5
37
330
1D
100
AcDbEntity
  8
1
100
AcDbCircle
 10
42.25
 20
82.598203593
 30
0.0
 40
1.2
100
AcDbArc
 50
0.0
 51
90.0
  0
ARC
  5
38
330
1D
100
AcDbEntity
  8
1
100
AcDbCircle
 10
42.25
 20
66.998203593
 30
0.0
 40
1.2
100
AcDbArc
 50
270.0
 51
0.0
  0
LINE
  5
39
330
1D
100
AcDbEntity
  8
1
100
AcDbLine
 10
29.45
 20
80.798203593
 30
0.0
 11
25.0
 21
80.798203593
 31
0.0
  0
LINE
  5
3A
330
1D
100
AcDbEntity
  8
1
100
AcDbLine
 10
25.0
 20
68.798203593
 30
0.0
 11
29.45
 21
68.798203593
 31
0.0
  0
LINE
  5
3B
330
1D
100
AcDbEntity
  8
1
100
AcDbLine
 10
42.25
 20
55.798203593
 30
0.0
 11
31.45
 21
55.798203593
 31
0.0
  0
LINE
  5
3C
330
1D
100
AcDbEntity
  8
1
100
AcDbLine
 10
31.45
 20
37.798203593
 30
0.0
 11
42.25
 21
37.798203593
 31
0.0
  0
ARC
  5
3D
330
1D
100
AcDbEntity
  8
1
100
AcDbCircle
 10
42.25
 20
54.598203593
 30
0.0
 40
1.2
100
AcDbArc
 50
0.0
 51
90.0
  0
ARC
  5
3E
330
1D
100
AcDbEntity
  8
1
100
AcDbCircle
 10
42.25
 20
38.998203593
 30
0.0
 40
1.2
100
AcDbArc
 50
270.0
 51
0.0
  0
LINE
  5
3F
330
1D
100
AcDbEntity
  8
1
100
AcDbLine
 10
29.45
 20
52.798203593
 30
0.0
 11
25.0
 21
52.798203593
 31
0.0
  0
LINE
  5
40
330
1D
100
AcDbEntity
  8
1
100
AcDbLine
 10
25.0
 20
40.798203593
 30
0.0
 11
29.45
 21
40.798203593
 31
0.0
  0
LINE
  5
41
330
1D
100
AcDbEntity
  8
1
100
AcDbLine
 10
29.45
 20
63.798203593
 30
0.0
 11
31.45
 21
63.798203593
 31
0.0
  0
LINE
  5
42
330
1D
100
AcDbEntity
  8
1
100
AcDbLine
 10
31.45
 20
85.798203593
 30
0.0
 11
29.45
 21
85.798203593
 31
0.0
  0
LINE
  5
43
330
1D
100
AcDbEntity
  8
1
100
AcDbLine
 10
29.45
 20
35.798203593
 30
0.0
 11
31.45
 21
35.798203593
 31
0.0
  0
LINE
  5
44
330
1D
100
AcDbEntity
  8
1
100
AcDbLine
 10
31.45
 20
57.798203593
 30
0.0
 11
29.45
 21
57.798203593
 31
0.0
  0
LINE
  5
45
330
1D
100
AcDbEntity
  8
1
100
AcDbLine
 10
14.95
 20
97.298203593
 30
0.0
 11
0.4
 21
97.298203593
 31
0.0
  0
LINE
  5
46
330
1D
100
AcDbEntity
  8
1
100
AcDbLine
 10
-8.0
 20
47.911452247
 30
0.0
 11
-5.5
 21
49.35482792
 31
0.0
  0
LINE
  5
47
330
1D
100
AcDbEntity
  8
1
100
AcDbLine
 10
-5.5
 20
49.35482792
 30
0.0
 11
-5.5
 21
52.241579266
 31
0.0
  0
LINE
  5
48
330
1D
100
AcDbEntity
  8
1
100
AcDbLine
 10
-8.0
 20
53.684954939
 30
0.0
 11
-5.5
 21
52.241579266
 31
0.0
  0
LINE
  5
49
330
1D
100
AcDbEntity
  8
1
100
AcDbLine
 10
-8.0
 20
53.684954939
 30
0.0
 11
-10.5
 21
52.241579266
 31
0.0
  0
LINE
  5
4A
330
1D
100
AcDbEntity
  8
1
100
AcDbLine
 10
-10.5
 20
49.35482792
 30
0.0
 11
-10.5
 21
52.241579266
 31
0.0
  0
LINE
  5
4B
330
1D
100
AcDbEntity
  8
1
100
AcDbLine
 10
-8.0
 20
47.911452247
 30
0.0
 11
-10.5
 21
49.35482792
 31
0.0
  0
LINE
  5
4C
330
1D
100
AcDbEntity
  8
1
100
AcDbLine
 10
-8.0
 20
65.411452247
 30
0.0
 11
-5.5
 21
66.85482792
 31
0.0
  0
LINE
  5
4D
330
1D
100
AcDbEntity
  8
1
100
AcDbLine
 10
-5.5
 20
66.85482792
 30
0.0
 11
-5.5
 21
69.741579266
 31
0.0
  0
LINE
  5
4E
330
1D
100
AcDbEntity
  8
1
100
AcDbLine
 10
-8.0
 20
71.184954939
 30
0.0
 11
-5.5
 21
69.741579266
 31
0.0
  0
LINE
  5
4F
330
1D
100
AcDbEntity
  8
1
100
AcDbLine
 10
-8.0
 20
71.184954939
 30
0.0
 11
-10.5
 21
69.741579266
 31
0.0
  0
LINE
  5
50
330
1D
100
AcDbEntity
  8
1
100
AcDbLine
 10
-10.5
 20
66.85482792
 30
0.0
 11
-10.5
 21
69.741579266
 31
0.0
  0
LINE
  5
51
330
1D
100
AcDbEntity
  8
1
100
AcDbLine
 10
-8.0
 20
65.411452247
 30
0.0
 11
-10.5
 21
66.85482792
 31
0.0
  0
LINE
  5
52
330
1D
100
AcDbEntity
  8
1
100
AcDbLine
 10
43.45
 20
82.598203593
 30
0.0
 11
43.45
 21
66.998203593
 31
0.0
  0
LINE
  5
53
330
1D
100
AcDbEntity
  8
1
100
AcDbLine
 10
43.45
 20
54.598203593
 30
0.0
 11
43.45
 21
38.998203593
 31
0.0
  0
LINE
  5
55
330
1D
100
AcDbEntity
  8
1
100
AcDbLine
 10
29.45
 20
63.798203593
 30
0.0
 11
29.45
 21
85.798203593
 31
0.0
  0
LINE
  5
57
330
1D
100
AcDbEntity
  8
1
100
AcDbLine
 10
31.45
 20
63.798203593
 30
0.0
 11
31.45
 21
85.798203593
 31
0.0
  0
LINE
  5
59
330
1D
100
AcDbEntity
  8
1
100
AcDbLine
 10
29.45
 20
35.798203593
 30
0.0
 11
29.45
 21
57.798203593
 31
0.0
  0
LINE
  5
5B
330
1D
100
AcDbEntity
  8
1
100
AcDbLine
 10
31.45
 20
35.798203593
 30
0.0
 11
31.45
 21
57.798203593
 31
0.0
  0
LINE
  5
5C
330
1D
100
AcDbEntity
  8
1
100
AcDbLine
 10
0.0
 20
96.188920642
 30
0.0
 11
0.4
 21
96.188920642
 31
0.0
  0
LINE
  5
5D
330
1D
100
AcDbEntity
  8
1
100
AcDbLine
 10
0.4
 20
96.188920642
 30
0.0
 11
0.4
 21
97.298203593
 31
0.0
  0
LINE
  5
5E
330
1D
100
AcDbEntity
  8
1
100
AcDbLine
 10
14.95
 20
94.920046933
 30
0.0
 11
14.95
 21
97.298203593
 31
0.0
  0
LINE
  5
5F
330
1D
100
AcDbEntity
  8
1
100
AcDbLine
 10
15.0
 20
94.920046933
 30
0.0
 11
14.95
 21
94.920046933
 31
0.0
  0
LINE
  5
60
330
1D
100
AcDbEntity
  8
1
100
AcDbLine
 10
15.0
 20
94.920046933
 30
0.0
 11
15.0
 21
94.902307542
 31
0.0
  0
LINE
  5
61
330
1D
100
AcDbEntity
  8
1
100
AcDbLine
 10
15.0
 20
94.902307542
 30
0.0
 11
15.088617708
 21
94.780357895
 31
0.0
  0
LINE
  5
62
330
1D
100
AcDbEntity
  8
1
100
AcDbLine
 10
15.088617708
 20
94.780357895
 30
0.0
 11
15.345765876
 21
94.669662913
 31
0.0
  0
LINE
  5
63
330
1D
100
AcDbEntity
  8
1
100
AcDbLine
 10
15.345765876
 20
94.669662913
 30
0.0
 11
15.739625246
 21
94.585647384
 31
0.0
  0
LINE
  5
64
330
1D
100
AcDbEntity
  8
1
100
AcDbLine
 10
15.739625246
 20
94.585647384
 30
0.0
 11
16.213922429
 21
94.540067315
 31
0.0
  0
LINE
  5
65
330
1D
100
AcDbEntity
  8
1
100
AcDbLine
 10
16.213922429
 20
94.540067315
 30
0.0
 11
16.5
 21
94.533039751
 31
0.0
  0
LINE
  5
66
330
1D
100
AcDbEntity
  8
1
100
AcDbLine
 10
16.5
 20
94.533039751
 30
0.0
 11
25.0
 21
94.533039751
 31
0.0
  0
LINE
  5
67
330
1D
100
AcDbEntity
  8
1
100
AcDbLine
 10
25.0
 20
92.80939453
 30
0.0
 11
24.907580015
 21
92.636337137
 31
0.0
  0
LINE
  5
68
330
1D
100
AcDbEntity
  8
1
100
AcDbLine
 10
24.907580015
 20
92.636337137
 30
0.0
 11
24.637954622
 21
92.480176038
 31
0.0
  0
LINE
  5
69
330
1D
100
AcDbEntity
  8
1
100
AcDbLine
 10
24.637954622
 20
92.480176038
 30
0.0
 11
24.228192331
 21
92.364715598
 31
0.0
  0
LINE
  5
6A
330
1D
100
AcDbEntity
  8
1
100
AcDbLine
 10
24.228192331
 20
92.364715598
 30
0.0
 11
23.888228568
 21
92.31676658
 31
0.0
  0
LINE
  5
6B
330
1D
100
AcDbEntity
  8
1
100
AcDbLine
 10
23.888228568
 20
92.31676658
 30
0.0
 11
18.051145879
 21
91.753457807
 31
0.0
  0
LINE
  5
6C
330
1D
100
AcDbEntity
  8
1
100
AcDbLine
 10
18.051145879
 20
91.753457807
 30
0.0
 11
12.254394033
 21
91.161001913
 31
0.0
  0
LINE
  5
6D
330
1D
100
AcDbEntity
  8
1
100
AcDbLine
 10
12.254394033
 20
91.161001913
 30
0.0
 11
6.5
 21
90.539606064
 31
0.0
  0
LINE
  5
6F
330
1D
100
AcDbEntity
  8
1
100
AcDbLine
 10
-14.0
 20
90.539606064
 30
0.0
 11
-16.0
 21
91.339206722
 31
0.0
  0
LINE
  5
71
330
1D
100
AcDbEntity
  8
1
100
AcDbLine
 10
-16.0
 20
94.944366014
 30
0.0
 11
-12.9
 21
95.34518688
 31
0.0
  0
LINE
  5
72
330
1D
100
AcDbEntity
  8
1
100
AcDbLine
 10
-12.9
 20
95.34518688
 30
0.0
 11
-7.997967505
 21
94.945678849
 31
0.0
  0
LINE
  5
73
330
1D
100
AcDbEntity
  8
1
100
AcDbLine
 10
-7.997967505
 20
94.945678849
 30
0.0
 11
-3.119545323
 21
94.509562367
 31
0.0
  0
LINE
  5
74
330
1D
100
AcDbEntity
  8
1
100
AcDbLine
 10
-3.119545323
 20
94.509562367
 30
0.0
 11
-2.399072321
 21
94.474775138
 31
0.0
  0
LINE
  5
75
330
1D
100
AcDbEntity
  8
1
100
AcDbLine
 10
-2.399072321
 20
94.474775138
 30
0.0
 11
-1.672953062
 21
94.501498081
 31
0.0
  0
LINE
  5
76
330
1D
100
AcDbEntity
  8
1
100
AcDbLine
 10
-1.672953062
 20
94.501498081
 30
0.0
 11
-1.022777529
 21
94.585325149
 31
0.0
  0
LINE
  5
77
330
1D
100
AcDbEntity
  8
1
100
AcDbLine
 10
-1.022777529
 20
94.585325149
 30
0.0
 11
-0.507685469
 21
94.716434149
 31
0.0
  0
LINE
  5
78
330
1D
100
AcDbEntity
  8
1
100
AcDbLine
 10
-0.507685469
 20
94.716434149
 30
0.0
 11
-0.185118865
 21
94.880828695
 31
0.0
  0
LINE
  5
79
330
1D
100
AcDbEntity
  8
1
100
AcDbLine
 10
-0.185118865
 20
94.880828695
 30
0.0
 11
-0.140964281
 21
94.924813992
 31
0.0
  0
LINE
  5
7A
330
1D
100
AcDbEntity
  8
1
100
AcDbLine
 10
0.0
 20
94.996125046
 30
0.0
 11
-0.023527247
 21
94.964642203
 31
0.0
  0
LINE
  5
7B
330
1D
100
AcDbEntity
  8
1
100
AcDbLine
 10
-0.023527247
 20
94.964642203
 30
0.0
 11
-0.091850939
 21
94.936532939
 31
0.0
  0
LINE
  5
7C
330
1D
100
AcDbEntity
  8
1
100
AcDbLine
 10
-0.091850939
 20
94.936532939
 30
0.0
 11
-0.140964281
 21
94.924813992
 31
0.0
  0
LINE
  5
7D
330
1D
100
AcDbEntity
  8
1
100
AcDbLine
 10
0.0
 20
96.188920642
 30
0.0
 11
0.0
 21
94.996125046
 31
0.0
  0
ARC
  5
7E
330
1D
100
AcDbEntity
  8
1
100
AcDbCircle
 10
-8.0
 20
68.298203593
 30
0.0
 40
6.25
100
AcDbArc
 50
196.260204708
 51
163.739795292
  0
LINE
  5
7F
330
1D
100
AcDbEntity
  8
1
100
AcDbLine
 10
-14.0
 20
90.539606064
 30
0.0
 11
-14.0
 21
70.048203593
 31
0.0
  0
LINE
  5
81
330
1D
100
AcDbEntity
  8
1
100
AcDbLine
 10
6.5
 20
90.539606064
 30
0.0
 11
6.5
 21
11.298203593
 31
0.0
  0
LINE
  5
83
330
1D
100
AcDbEntity
  8
1
100
AcDbLine
 10
-14.0
 20
31.548203593
 30
0.0
 11
-14.0
 21
11.298203593
 31
0.0
  0
LINE
  5
84
330
1D
100
AcDbEntity
  8
1
100
AcDbLine
 10
-14.0
 20
49.048203593
 30
0.0
 11
-14.0
 21
35.048203593
 31
0.0
  0
ARC
  5
85
330
1D
100
AcDbEntity
  8
1
100
AcDbCircle
 10
-8.0
 20
50.798203593
 30
0.0
 40
6.25
100
AcDbArc
 50
196.260204708
 51
163.739795292
  0
LINE
  5
86
330
1D
100
AcDbEntity
  8
1
100
AcDbLine
 10
-14.0
 20
66.548203593
 30
0.0
 11
-14.0
 21
52.548203593
 31
0.0
  0
ARC
  5
88
330
1D
100
AcDbEntity
  8
1
100
AcDbCircle
 10
-4.416917957
 20
68.298203593
 30
0.0
 40
9.741558471
100
AcDbArc
 50
169.651050409
 51
190.348949591
  0
LINE
  5
89
330
1D
100
AcDbEntity
  8
1
100
AcDbLine
 10
-16.0
 20
94.944366014
 30
0.0
 11
-16.0
 21
11.298203593
 31
0.0
  0
LINE
  5
8A
330
1D
100
AcDbEntity
  8
1
100
AcDbLine
 10
23.888228568
 20
38.393588243
 30
0.0
 11
16.345090951
 21
42.298203593
 31
0.0
  0
LINE
  5
8C
330
1D
100
AcDbEntity
  8
1
100
AcDbLine
 10
16.345090951
 20
79.298203593
 30
0.0
 11
23.888228568
 21
83.202818943
 31
0.0
  0
LINE
  5
8D
330
1D
100
AcDbEntity
  8
1
100
AcDbLine
 10
16.345090951
 20
79.298203593
 30
0.0
 11
16.345090951
 21
42.298203593
 31
0.0
  0
ARC
  5
8E
330
1D
100
AcDbEntity
  8
1
100
AcDbCircle
 10
-4.416917957
 20
50.798203593
 30
0.0
 40
9.741558471
100
AcDbArc
 50
169.651050409
 51
190.348949591
  0
LINE
  5
8F
330
1D
100
AcDbEntity
  8
1
100
AcDbLine
 10
-16.0
 20
11.298203593
 30
0.0
 11
0.0
 21
11.298203593
 31
0.0
  0
LINE
  5
90
330
1D
100
AcDbEntity
  8
1
100
AcDbLine
 10
23.888228568
 20
83.202818943
 30
0.0
 11
24.150825609
 21
83.319605833
 31
0.0
  0
LINE
  5
91
330
1D
100
AcDbEntity
  8
1
100
AcDbLine
 10
24.150825609
 20
83.319605833
 30
0.0
 11
24.390730278
 21
83.387027077
 31
0.0
  0
LINE
  5
92
330
1D
100
AcDbEntity
  8
1
100
AcDbLine
 10
24.390730278
 20
83.387027077
 30
0.0
 11
24.599577808
 21
83.402731894
 31
0.0
  0
LINE
  5
93
330
1D
100
AcDbEntity
  8
1
100
AcDbLine
 10
24.599577808
 20
83.402731894
 30
0.0
 11
24.770086299
 21
83.366172705
 31
0.0
  0
LINE
  5
94
330
1D
100
AcDbEntity
  8
1
100
AcDbLine
 10
24.770086299
 20
83.366172705
 30
0.0
 11
24.896310623
 21
83.278624221
 31
0.0
  0
LINE
  5
95
330
1D
100
AcDbEntity
  8
1
100
AcDbLine
 10
24.896310623
 20
83.278624221
 30
0.0
 11
24.97384971
 21
83.143138999
 31
0.0
  0
LINE
  5
96
330
1D
100
AcDbEntity
  8
1
100
AcDbLine
 10
24.97384971
 20
83.143138999
 30
0.0
 11
25.0
 21
82.964441009
 31
0.0
  0
LINE
  5
97
330
1D
100
AcDbEntity
  8
1
100
AcDbLine
 10
16.345090951
 20
79.298203593
 30
0.0
 11
25.0
 21
79.298203593
 31
0.0
  0
LINE
  5
98
330
1D
100
AcDbEntity
  8
1
100
AcDbLine
 10
25.0
 20
42.298203593
 30
0.0
 11
16.345090951
 21
42.298203593
 31
0.0
  0
LINE
  5
99
330
1D
100
AcDbEntity
  8
1
100
AcDbLine
 10
25.0
 20
38.631966177
 30
0.0
 11
24.97384971
 21
38.453268187
 31
0.0
  0
LINE
  5
9A
330
1D
100
AcDbEntity
  8
1
100
AcDbLine
 10
24.97384971
 20
38.453268187
 30
0.0
 11
24.896310623
 21
38.317782965
 31
0.0
  0
LINE
  5
9B
330
1D
100
AcDbEntity
  8
1
100
AcDbLine
 10
24.896310623
 20
38.317782965
 30
0.0
 11
24.770086299
 21
38.23023448
 31
0.0
  0
LINE
  5
9C
330
1D
100
AcDbEntity
  8
1
100
AcDbLine
 10
24.770086299
 20
38.23023448
 30
0.0
 11
24.599577808
 21
38.193675291
 31
0.0
  0
LINE
  5
9D
330
1D
100
AcDbEntity
  8
1
100
AcDbLine
 10
24.599577808
 20
38.193675291
 30
0.0
 11
24.390730278
 21
38.209380109
 31
0.0
  0
LINE
  5
9E
330
1D
100
AcDbEntity
  8
1
100
AcDbLine
 10
24.390730278
 20
38.209380109
 30
0.0
 11
24.150825609
 21
38.276801353
 31
0.0
  0
LINE
  5
9F
330
1D
100
AcDbEntity
  8
1
100
AcDbLine
 10
24.150825609
 20
38.276801353
 30
0.0
 11
23.888228568
 21
38.393588243
 31
0.0
  0
LINE
  5
A0
330
1D
100
AcDbEntity
  8
1
100
AcDbLine
 10
25.0
 20
94.533039751
 30
0.0
 11
25.0
 21
11.298203593
 31
0.0
  0
ARC
  5
A2
330
1D
100
AcDbEntity
  8
1
100
AcDbCircle
 10
42.25
 20
-66.998203593
 30
0.0
 40
1.2
100
AcDbArc
 50
0.0
 51
90.0
  0
ARC
  5
A3
330
1D
100
AcDbEntity
  8
1
100
AcDbCircle
 10
42.25
 20
-82.598203593
 30
0.0
 40
1.2
100
AcDbArc
 50
270.0
 51
0.0
  0
LINE
  5
A4
330
1D
100
AcDbEntity
  8
1
100
AcDbLine
 10
42.25
 20
-65.798203593
 30
0.0
 11
31.45
 21
-65.798203593
 31
0.0
  0
LINE
  5
A5
330
1D
100
AcDbEntity
  8
1
100
AcDbLine
 10
31.45
 20
-83.798203593
 30
0.0
 11
42.25
 21
-83.798203593
 31
0.0
  0
LINE
  5
A6
330
1D
100
AcDbEntity
  8
1
100
AcDbLine
 10
29.45
 20
-68.798203593
 30
0.0
 11
25.0
 21
-68.798203593
 31
0.0
  0
LINE
  5
A7
330
1D
100
AcDbEntity
  8
1
100
AcDbLine
 10
25.0
 20
-80.798203593
 30
0.0
 11
29.45
 21
-80.798203593
 31
0.0
  0
ARC
  5
A8
330
1D
100
AcDbEntity
  8
1
100
AcDbCircle
 10
42.25
 20
-38.998203593
 30
0.0
 40
1.2
100
AcDbArc
 50
0.0
 51
90.0
  0
ARC
  5
A9
330
1D
100
AcDbEntity
  8
1
100
AcDbCircle
 10
42.25
 20
-54.598203593
 30
0.0
 40
1.2
100
AcDbArc
 50
270.0
 51
0.0
  0
LINE
  5
AA
330
1D
100
AcDbEntity
  8
1
100
AcDbLine
 10
42.25
 20
-37.798203593
 30
0.0
 11
31.45
 21
-37.798203593
 31
0.0
  0
LINE
  5
AB
330
1D
100
AcDbEntity
  8
1
100
AcDbLine
 10
31.45
 20
-55.798203593
 30
0.0
 11
42.25
 21
-55.798203593
 31
0.0
  0
LINE
  5
AC
330
1D
100
AcDbEntity
  8
1
100
AcDbLine
 10
29.45
 20
-40.798203593
 30
0.0
 11
25.0
 21
-40.798203593
 31
0.0
  0
LINE
  5
AD
330
1D
100
AcDbEntity
  8
1
100
AcDbLine
 10
25.0
 20
-52.798203593
 30
0.0
 11
29.45
 21
-52.798203593
 31
0.0
  0
LINE
  5
AE
330
1D
100
AcDbEntity
  8
1
100
AcDbLine
 10
29.45
 20
-85.798203593
 30
0.0
 11
31.45
 21
-85.798203593
 31
0.0
  0
LINE
  5
AF
330
1D
100
AcDbEntity
  8
1
100
AcDbLine
 10
31.45
 20
-63.798203593
 30
0.0
 11
29.45
 21
-63.798203593
 31
0.0
  0
LINE
  5
B0
330
1D
100
AcDbEntity
  8
1
100
AcDbLine
 10
29.45
 20
-57.798203593
 30
0.0
 11
31.45
 21
-57.798203593
 31
0.0
  0
LINE
  5
B1
330
1D
100
AcDbEntity
  8
1
100
AcDbLine
 10
31.45
 20
-35.798203593
 30
0.0
 11
29.45
 21
-35.798203593
 31
0.0
  0
LINE
  5
B2
330
1D
100
AcDbEntity
  8
1
100
AcDbLine
 10
0.4
 20
-97.298203593
 30
0.0
 11
14.95
 21
-97.298203593
 31
0.0
  0
LINE
  5
B3
330
1D
100
AcDbEntity
  8
1
100
AcDbLine
 10
-10.417831284
 20
-29.126203593
 30
0.0
 11
-10.929545856
 21
-29.161895631
 31
0.0
  0
LINE
  5
B4
330
1D
100
AcDbEntity
  8
1
100
AcDbLine
 10
-10.929545856
 20
-29.161895631
 30
0.0
 11
-11.432504851
 21
-29.268361046
 31
0.0
  0
LINE
  5
B5
330
1D
100
AcDbEntity
  8
1
100
AcDbLine
 10
-11.432504851
 20
-29.268361046
 30
0.0
 11
-11.918102499
 21
-29.443778183
 31
0.0
  0
LINE
  5
B6
330
1D
100
AcDbEntity
  8
1
100
AcDbLine
 10
-11.918102499
 20
-29.443778183
 30
0.0
 11
-12.378030091
 21
-29.685145608
 31
0.0
  0
LINE
  5
B7
330
1D
100
AcDbEntity
  8
1
100
AcDbLine
 10
-12.378030091
 20
-29.685145608
 30
0.0
 11
-12.804418138
 21
-29.988333457
 31
0.0
  0
LINE
  5
B8
330
1D
100
AcDbEntity
  8
1
100
AcDbLine
 10
-12.804418138
 20
-29.988333457
 30
0.0
 11
-13.189971022
 21
-30.348154102
 31
0.0
  0
LINE
  5
B9
330
1D
100
AcDbEntity
  8
1
100
AcDbLine
 10
-13.189971022
 20
-30.348154102
 30
0.0
 11
-13.528091826
 21
-30.758450911
 31
0.0
  0
LINE
  5
BA
330
1D
100
AcDbEntity
  8
1
100
AcDbLine
 10
-13.528091826
 20
-30.758450911
 30
0.0
 11
-13.81299521
 21
-31.212203593
 31
0.0
  0
LINE
  5
BB
330
1D
100
AcDbEntity
  8
1
100
AcDbLine
 10
-13.81299521
 20
-31.212203593
 30
0.0
 11
-14.039806399
 21
-31.701648313
 31
0.0
  0
LINE
  5
BC
330
1D
100
AcDbEntity
  8
1
100
AcDbLine
 10
-14.039806399
 20
-31.701648313
 30
0.0
 11
-14.204644589
 21
-32.218410537
 31
0.0
  0
LINE
  5
BD
330
1D
100
AcDbEntity
  8
1
100
AcDbLine
 10
-14.204644589
 20
-32.218410537
 30
0.0
 11
-14.304689353
 21
-32.753648319
 31
0.0
  0
LINE
  5
BE
330
1D
100
AcDbEntity
  8
1
100
AcDbLine
 10
-14.304689353
 20
-32.753648319
 30
0.0
 11
-14.338228898
 21
-33.298203593
 31
0.0
  0
LINE
  5
BF
330
1D
100
AcDbEntity
  8
1
100
AcDbLine
 10
-14.338228898
 20
-33.298203593
 30
0.0
 11
-14.304689353
 21
-33.842758867
 31
0.0
  0
LINE
  5
C0
330
1D
100
AcDbEntity
  8
1
100
AcDbLine
 10
-14.304689353
 20
-33.842758867
 30
0.0
 11
-14.204644589
 21
-34.377996649
 31
0.0
  0
LINE
  5
C1
330
1D
100
AcDbEntity
  8
1
100
AcDbLine
 10
-14.204644589
 20
-34.377996649
 30
0.0
 11
-14.039806399
 21
-34.894758873
 31
0.0
  0
LINE
  5
C2
330
1D
100
AcDbEntity
  8
1
100
AcDbLine
 10
-14.039806399
 20
-34.894758873
 30
0.0
 11
-13.81299521
 21
-35.384203593
 31
0.0
  0
LINE
  5
C3
330
1D
100
AcDbEntity
  8
1
100
AcDbLine
 10
-13.81299521
 20
-35.384203593
 30
0.0
 11
-13.528091826
 21
-35.837956275
 31
0.0
  0
LINE
  5
C4
330
1D
100
AcDbEntity
  8
1
100
AcDbLine
 10
-13.528091826
 20
-35.837956275
 30
0.0
 11
-13.189971022
 21
-36.248253084
 31
0.0
  0
LINE
  5
C5
330
1D
100
AcDbEntity
  8
1
100
AcDbLine
 10
-13.189971022
 20
-36.248253084
 30
0.0
 11
-12.804418138
 21
-36.608073729
 31
0.0
  0
LINE
  5
C6
330
1D
100
AcDbEntity
  8
1
100
AcDbLine
 10
-12.804418138
 20
-36.608073729
 30
0.0
 11
-12.378030091
 21
-36.911261577
 31
0.0
  0
LINE
  5
C7
330
1D
100
AcDbEntity
  8
1
100
AcDbLine
 10
-12.378030091
 20
-36.911261577
 30
0.0
 11
-11.918102499
 21
-37.152629002
 31
0.0
  0
LINE
  5
C8
330
1D
100
AcDbEntity
  8
1
100
AcDbLine
 10
-11.918102499
 20
-37.152629002
 30
0.0
 11
-11.432504851
 21
-37.32804614
 31
0.0
  0
LINE
  5
C9
330
1D
100
AcDbEntity
  8
1
100
AcDbLine
 10
-11.432504851
 20
-37.32804614
 30
0.0
 11
-10.929545856
 21
-37.434511555
 31
0.0
  0
LINE
  5
CA
330
1D
100
AcDbEntity
  8
1
100
AcDbLine
 10
-10.929545856
 20
-37.434511555
 30
0.0
 11
-10.417831284
 21
-37.470203593
 31
0.0
  0
LINE
  5
CB
330
1D
100
AcDbEntity
  8
1
100
AcDbLine
 10
-10.417831284
 20
-37.470203593
 30
0.0
 11
-9.906116711
 21
-37.434511555
 31
0.0
  0
LINE
  5
CC
330
1D
100
AcDbEntity
  8
1
100
AcDbLine
 10
-9.906116711
 20
-37.434511555
 30
0.0
 11
-9.403157717
 21
-37.32804614
 31
0.0
  0
LINE
  5
CD
330
1D
100
AcDbEntity
  8
1
100
AcDbLine
 10
-9.403157717
 20
-37.32804614
 30
0.0
 11
-8.917560069
 21
-37.152629002
 31
0.0
  0
LINE
  5
CE
330
1D
100
AcDbEntity
  8
1
100
AcDbLine
 10
-8.917560069
 20
-37.152629002
 30
0.0
 11
-8.457632477
 21
-36.911261577
 31
0.0
  0
LINE
  5
CF
330
1D
100
AcDbEntity
  8
1
100
AcDbLine
 10
-8.457632477
 20
-36.911261577
 30
0.0
 11
-8.03124443
 21
-36.608073729
 31
0.0
  0
LINE
  5
D0
330
1D
100
AcDbEntity
  8
1
100
AcDbLine
 10
-8.03124443
 20
-36.608073729
 30
0.0
 11
-7.645691546
 21
-36.248253084
 31
0.0
  0
LINE
  5
D1
330
1D
100
AcDbEntity
  8
1
100
AcDbLine
 10
-7.645691546
 20
-36.248253084
 30
0.0
 11
-7.307570742
 21
-35.837956275
 31
0.0
  0
LINE
  5
D2
330
1D
100
AcDbEntity
  8
1
100
AcDbLine
 10
-7.307570742
 20
-35.837956275
 30
0.0
 11
-7.022667357
 21
-35.384203593
 31
0.0
  0
LINE
  5
D3
330
1D
100
AcDbEntity
  8
1
100
AcDbLine
 10
-7.022667357
 20
-35.384203593
 30
0.0
 11
-6.795856169
 21
-34.894758873
 31
0.0
  0
LINE
  5
D4
330
1D
100
AcDbEntity
  8
1
100
AcDbLine
 10
-6.795856169
 20
-34.894758873
 30
0.0
 11
-6.631017979
 21
-34.377996649
 31
0.0
  0
LINE
  5
D5
330
1D
100
AcDbEntity
  8
1
100
AcDbLine
 10
-6.631017979
 20
-34.377996649
 30
0.0
 11
-6.530973215
 21
-33.842758867
 31
0.0
  0
LINE
  5
D6
330
1D
100
AcDbEntity
  8
1
100
AcDbLine
 10
-6.530973215
 20
-33.842758867
 30
0.0
 11
-6.49743367
 21
-33.298203593
 31
0.0
  0
LINE
  5
D7
330
1D
100
AcDbEntity
  8
1
100
AcDbLine
 10
-6.49743367
 20
-33.298203593
 30
0.0
 11
-6.530973215
 21
-32.753648319
 31
0.0
  0
LINE
  5
D8
330
1D
100
AcDbEntity
  8
1
100
AcDbLine
 10
-6.530973215
 20
-32.753648319
 30
0.0
 11
-6.631017979
 21
-32.218410537
 31
0.0
  0
LINE
  5
D9
330
1D
100
AcDbEntity
  8
1
100
AcDbLine
 10
-6.631017979
 20
-32.218410537
 30
0.0
 11
-6.795856169
 21
-31.701648313
 31
0.0
  0
LINE
  5
DA
330
1D
100
AcDbEntity
  8
1
100
AcDbLine
 10
-6.795856169
 20
-31.701648313
 30
0.0
 11
-7.022667357
 21
-31.212203593
 31
0.0
  0
LINE
  5
DB
330
1D
100
AcDbEntity
  8
1
100
AcDbLine
 10
-7.022667357
 20
-31.212203593
 30
0.0
 11
-7.307570742
 21
-30.758450911
 31
0.0
  0
LINE
  5
DC
330
1D
100
AcDbEntity
  8
1
100
AcDbLine
 10
-7.307570742
 20
-30.758450911
 30
0.0
 11
-7.645691546
 21
-30.348154102
 31
0.0
  0
LINE
  5
DD
330
1D
100
AcDbEntity
  8
1
100
AcDbLine
 10
-7.645691546
 20
-30.348154102
 30
0.0
 11
-8.03124443
 21
-29.988333457
 31
0.0
  0
LINE
  5
DE
330
1D
100
AcDbEntity
  8
1
100
AcDbLine
 10
-8.03124443
 20
-29.988333457
 30
0.0
 11
-8.457632477
 21
-29.685145608
 31
0.0
  0
LINE
  5
DF
330
1D
100
AcDbEntity
  8
1
100
AcDbLine
 10
-8.457632477
 20
-29.685145608
 30
0.0
 11
-8.917560069
 21
-29.443778183
 31
0.0
  0
LINE
  5
E0
330
1D
100
AcDbEntity
  8
1
100
AcDbLine
 10
-8.917560069
 20
-29.443778183
 30
0.0
 11
-9.403157717
 21
-29.268361046
 31
0.0
  0
LINE
  5
E1
330
1D
100
AcDbEntity
  8
1
100
AcDbLine
 10
-9.403157717
 20
-29.268361046
 30
0.0
 11
-9.906116711
 21
-29.161895631
 31
0.0
  0
LINE
  5
E2
330
1D
100
AcDbEntity
  8
1
100
AcDbLine
 10
-9.906116711
 20
-29.161895631
 30
0.0
 11
-10.417831284
 21
-29.126203593
 31
0.0
  0
LINE
  5
E3
330
1D
100
AcDbEntity
  8
1
100
AcDbLine
 10
-10.254329915
 20
-28.298203593
 30
0.0
 11
-10.82066706
 21
-28.334659222
 31
0.0
  0
LINE
  5
E4
330
1D
100
AcDbEntity
  8
1
100
AcDbLine
 10
-10.82066706
 20
-28.334659222
 30
0.0
 11
-11.378745734
 21
-28.443494506
 31
0.0
  0
LINE
  5
E5
330
1D
100
AcDbEntity
  8
1
100
AcDbLine
 10
-11.378745734
 20
-28.443494506
 30
0.0
 11
-11.920427893
 21
-28.623122379
 31
0.0
  0
LINE
  5
E6
330
1D
100
AcDbEntity
  8
1
100
AcDbLine
 10
-11.920427893
 20
-28.623122379
 30
0.0
 11
-12.437814592
 21
-28.870923465
 31
0.0
  0
LINE
  5
E7
330
1D
100
AcDbEntity
  8
1
100
AcDbLine
 10
-12.437814592
 20
-28.870923465
 30
0.0
 11
-12.923361168
 21
-29.183284263
 31
0.0
  0
LINE
  5
E8
330
1D
100
AcDbEntity
  8
1
100
AcDbLine
 10
-12.923361168
 20
-29.183284263
 30
0.0
 11
-13.369987258
 21
-29.555649852
 31
0.0
  0
LINE
  5
E9
330
1D
100
AcDbEntity
  8
1
100
AcDbLine
 10
-13.369987258
 20
-29.555649852
 30
0.0
 11
-13.771180048
 21
-29.982590302
 31
0.0
  0
LINE
  5
EA
330
1D
100
AcDbEntity
  8
1
100
AcDbLine
 10
-13.771180048
 20
-29.982590302
 30
0.0
 11
-14.121089244
 21
-30.457879859
 31
0.0
  0
LINE
  5
EB
330
1D
100
AcDbEntity
  8
1
100
AcDbLine
 10
-14.121089244
 20
-30.457879859
 30
0.0
 11
-14.414612381
 21
-30.974587733
 31
0.0
  0
LINE
  5
EC
330
1D
100
AcDbEntity
  8
1
100
AcDbLine
 10
-14.414612381
 20
-30.974587733
 30
0.0
 11
-14.647469232
 21
-31.525179158
 31
0.0
  0
LINE
  5
ED
330
1D
100
AcDbEntity
  8
1
100
AcDbLine
 10
-14.647469232
 20
-31.525179158
 30
0.0
 11
-14.81626422
 21
-32.101625271
 31
0.0
  0
LINE
  5
EE
330
1D
100
AcDbEntity
  8
1
100
AcDbLine
 10
-14.81626422
 20
-32.101625271
 30
0.0
 11
-14.918535933
 21
-32.695520192
 31
0.0
  0
LINE
  5
EF
330
1D
100
AcDbEntity
  8
1
100
AcDbLine
 10
-14.918535933
 20
-32.695520192
 30
0.0
 11
-14.952793019
 21
-33.298203593
 31
0.0
  0
LINE
  5
F0
330
1D
100
AcDbEntity
  8
1
100
AcDbLine
 10
-14.952793019
 20
-33.298203593
 30
0.0
 11
-14.918535933
 21
-33.900886994
 31
0.0
  0
LINE
  5
F1
330
1D
100
AcDbEntity
  8
1
100
AcDbLine
 10
-14.918535933
 20
-33.900886994
 30
0.0
 11
-14.81626422
 21
-34.494781914
 31
0.0
  0
LINE
  5
F2
330
1D
100
AcDbEntity
  8
1
100
AcDbLine
 10
-14.81626422
 20
-34.494781914
 30
0.0
 11
-14.647469232
 21
-35.071228028
 31
0.0
  0
LINE
  5
F3
330
1D
100
AcDbEntity
  8
1
100
AcDbLine
 10
-14.647469232
 20
-35.071228028
 30
0.0
 11
-14.414612381
 21
-35.621819453
 31
0.0
  0
LINE
  5
F4
330
1D
100
AcDbEntity
  8
1
100
AcDbLine
 10
-14.414612381
 20
-35.621819453
 30
0.0
 11
-14.121089244
 21
-36.138527327
 31
0.0
  0
LINE
  5
F5
330
1D
100
AcDbEntity
  8
1
100
AcDbLine
 10
-14.121089244
 20
-36.138527327
 30
0.0
 11
-13.771180048
 21
-36.613816884
 31
0.0
  0
LINE
  5
F6
330
1D
100
AcDbEntity
  8
1
100
AcDbLine
 10
-13.771180048
 20
-36.613816884
 30
0.0
 11
-13.369987258
 21
-37.040757334
 31
0.0
  0
LINE
  5
F7
330
1D
100
AcDbEntity
  8
1
100
AcDbLine
 10
-13.369987258
 20
-37.040757334
 30
0.0
 11
-12.923361168
 21
-37.413122922
 31
0.0
  0
LINE
  5
F8
330
1D
100
AcDbEntity
  8
1
100
AcDbLine
 10
-12.923361168
 20
-37.413122922
 30
0.0
 11
-12.437814592
 21
-37.725483721
 31
0.0
  0
LINE
  5
F9
330
1D
100
AcDbEntity
  8
1
100
AcDbLine
 10
-12.437814592
 20
-37.725483721
 30
0.0
 11
-11.920427893
 21
-37.973284806
 31
0.0
  0
LINE
  5
FA
330
1D
100
AcDbEntity
  8
1
100
AcDbLine
 10
-11.920427893
 20
-37.973284806
 30
0.0
 11
-11.378745734
 21
-38.15291268
 31
0.0
  0
LINE
  5
FB
330
1D
100
AcDbEntity
  8
1
100
AcDbLine
 10
-11.378745734
 20
-38.15291268
 30
0.0
 11
-10.82066706
 21
-38.261747963
 31
0.0
  0
LINE
  5
FC
330
1D
100
AcDbEntity
  8
1
100
AcDbLine
 10
-10.82066706
 20
-38.261747963
 30
0.0
 11
-10.254329915
 21
-38.298203593
 31
0.0
  0
LINE
  5
FD
330
1D
100
AcDbEntity
  8
1
100
AcDbLine
 10
-10.254329915
 20
-38.298203593
 30
0.0
 11
-9.68799277
 21
-38.261747963
 31
0.0
  0
LINE
  5
FE
330
1D
100
AcDbEntity
  8
1
100
AcDbLine
 10
-9.68799277
 20
-38.261747963
 30
0.0
 11
-9.129914096
 21
-38.15291268
 31
0.0
  0
LINE
  5
FF
330
1D
100
AcDbEntity
  8
1
100
AcDbLine
 10
-9.129914096
 20
-38.15291268
 30
0.0
 11
-8.588231936
 21
-37.973284806
 31
0.0
  0
LINE
  5
100
330
1D
100
AcDbEntity
  8
1
100
AcDbLine
 10
-8.588231936
 20
-37.973284806
 30
0.0
 11
-8.070845237
 21
-37.725483721
 31
0.0
  0
LINE
  5
101
330
1D
100
AcDbEntity
  8
1
100
AcDbLine
 10
-8.070845237
 20
-37.725483721
 30
0.0
 11
-7.585298662
 21
-37.413122922
 31
0.0
  0
LINE
  5
102
330
1D
100
AcDbEntity
  8
1
100
AcDbLine
 10
-7.585298662
 20
-37.413122922
 30
0.0
 11
-7.138672572
 21
-37.040757334
 31
0.0
  0
LINE
  5
103
330
1D
100
AcDbEntity
  8
1
100
AcDbLine
 10
-7.138672572
 20
-37.040757334
 30
0.0
 11
-6.737479781
 21
-36.613816884
 31
0.0
  0
LINE
  5
104
330
1D
100
AcDbEntity
  8
1
100
AcDbLine
 10
-6.737479781
 20
-36.613816884
 30
0.0
 11
-6.387570586
 21
-36.138527327
 31
0.0
  0
LINE
  5
105
330
1D
100
AcDbEntity
  8
1
100
AcDbLine
 10
-6.387570586
 20
-36.138527327
 30
0.0
 11
-6.094047448
 21
-35.621819453
 31
0.0
  0
LINE
  5
106
330
1D
100
AcDbEntity
  8
1
100
AcDbLine
 10
-6.094047448
 20
-35.621819453
 30
0.0
 11
-5.861190597
 21
-35.071228028
 31
0.0
  0
LINE
  5
107
330
1D
100
AcDbEntity
  8
1
100
AcDbLine
 10
-5.861190597
 20
-35.071228028
 30
0.0
 11
-5.692395609
 21
-34.494781914
 31
0.0
  0
LINE
  5
108
330
1D
100
AcDbEntity
  8
1
100
AcDbLine
 10
-5.692395609
 20
-34.494781914
 30
0.0
 11
-5.590123897
 21
-33.900886994
 31
0.0
  0
LINE
  5
109
330
1D
100
AcDbEntity
  8
1
100
AcDbLine
 10
-5.590123897
 20
-33.900886994
 30
0.0
 11
-5.555866811
 21
-33.298203593
 31
0.0
  0
LINE
  5
10A
330
1D
100
AcDbEntity
  8
1
100
AcDbLine
 10
-5.555866811
 20
-33.298203593
 30
0.0
 11
-5.590123897
 21
-32.695520192
 31
0.0
  0
LINE
  5
10B
330
1D
100
AcDbEntity
  8
1
100
AcDbLine
 10
-5.590123897
 20
-32.695520192
 30
0.0
 11
-5.692395609
 21
-32.101625271
 31
0.0
  0
LINE
  5
10C
330
1D
100
AcDbEntity
  8
1
100
AcDbLine
 10
-5.692395609
 20
-32.101625271
 30
0.0
 11
-5.861190597
 21
-31.525179158
 31
0.0
  0
LINE
  5
10D
330
1D
100
AcDbEntity
  8
1
100
AcDbLine
 10
-5.861190597
 20
-31.525179158
 30
0.0
 11
-6.094047448
 21
-30.974587733
 31
0.0
  0
LINE
  5
10E
330
1D
100
AcDbEntity
  8
1
100
AcDbLine
 10
-6.094047448
 20
-30.974587733
 30
0.0
 11
-6.387570586
 21
-30.457879859
 31
0.0
  0
LINE
  5
10F
330
1D
100
AcDbEntity
  8
1
100
AcDbLine
 10
-6.387570586
 20
-30.457879859
 30
0.0
 11
-6.737479781
 21
-29.982590302
 31
0.0
  0
LINE
  5
110
330
1D
100
AcDbEntity
  8
1
100
AcDbLine
 10
-6.737479781
 20
-29.982590302
 30
0.0
 11
-7.138672572
 21
-29.555649852
 31
0.0
  0
LINE
  5
111
330
1D
100
AcDbEntity
  8
1
100
AcDbLine
 10
-7.138672572
 20
-29.555649852
 30
0.0
 11
-7.585298662
 21
-29.183284263
 31
0.0
  0
LINE
  5
112
330
1D
100
AcDbEntity
  8
1
100
AcDbLine
 10
-7.585298662
 20
-29.183284263
 30
0.0
 11
-8.070845237
 21
-28.870923465
 31
0.0
  0
LINE
  5
113
330
1D
100
AcDbEntity
  8
1
100
AcDbLine
 10
-8.070845237
 20
-28.870923465
 30
0.0
 11
-8.588231936
 21
-28.623122379
 31
0.0
  0
LINE
  5
114
330
1D
100
AcDbEntity
  8
1
100
AcDbLine
 10
-8.588231936
 20
-28.623122379
 30
0.0
 11
-9.129914096
 21
-28.443494506
 31
0.0
  0
LINE
  5
115
330
1D
100
AcDbEntity
  8
1
100
AcDbLine
 10
-9.129914096
 20
-28.443494506
 30
0.0
 11
-9.68799277
 21
-28.334659222
 31
0.0
  0
LINE
  5
116
330
1D
100
AcDbEntity
  8
1
100
AcDbLine
 10
-9.68799277
 20
-28.334659222
 30
0.0
 11
-10.254329915
 21
-28.298203593
 31
0.0
  0
LINE
  5
117
330
1D
100
AcDbEntity
  8
1
100
AcDbLine
 10
-12.767062836
 20
-34.741579266
 30
0.0
 11
-10.417831284
 21
-36.184954939
 31
0.0
  0
LINE
  5
118
330
1D
100
AcDbEntity
  8
1
100
AcDbLine
 10
-8.068599732
 20
-34.741579266
 30
0.0
 11
-10.417831284
 21
-36.184954939
 31
0.0
  0
LINE
  5
119
330
1D
100
AcDbEntity
  8
1
100
AcDbLine
 10
-8.068599732
 20
-31.85482792
 30
0.0
 11
-8.068599732
 21
-34.741579266
 31
0.0
  0
LINE
  5
11A
330
1D
100
AcDbEntity
  8
1
100
AcDbLine
 10
-8.068599732
 20
-31.85482792
 30
0.0
 11
-10.417831284
 21
-30.411452247
 31
0.0
  0
LINE
  5
11B
330
1D
100
AcDbEntity
  8
1
100
AcDbLine
 10
-12.767062836
 20
-31.85482792
 30
0.0
 11
-10.417831284
 21
-30.411452247
 31
0.0
  0
LINE
  5
11C
330
1D
100
AcDbEntity
  8
1
100
AcDbLine
 10
-12.767062836
 20
-31.85482792
 30
0.0
 11
-12.767062836
 21
-34.741579266
 31
0.0
  0
LINE
  5
11D
330
1D
100
AcDbEntity
  8
1
100
AcDbLine
 10
-10.714941976
 20
-31.85482792
 30
0.0
 11
-9.391770854
 21
-31.041867185
 31
0.0
  0
LINE
  5
11E
330
1D
100
AcDbEntity
  8
1
100
AcDbLine
 10
-10.714941976
 20
-31.85482792
 30
0.0
 11
-12.767062836
 21
-31.85482792
 31
0.0
  0
LINE
  5
11F
330
1D
100
AcDbEntity
  8
1
100
AcDbLine
 10
-10.714941976
 20
-34.741579266
 30
0.0
 11
-12.767062836
 21
-34.741579266
 31
0.0
  0
LINE
  5
120
330
1D
100
AcDbEntity
  8
1
100
AcDbLine
 10
-10.714941976
 20
-34.741579266
 30
0.0
 11
-9.391770854
 21
-35.554540001
 31
0.0
  0
LINE
  5
121
330
1D
100
AcDbEntity
  8
1
100
AcDbLine
 10
-10.714941976
 20
-31.85482792
 30
0.0
 11
-10.714941976
 21
-34.741579266
 31
0.0
  0
LINE
  5
122
330
1D
100
AcDbEntity
  8
1
100
AcDbLine
 10
-10.472426819
 20
-42.126203593
 30
0.0
 11
-10.984141392
 21
-42.161895631
 31
0.0
  0
LINE
  5
123
330
1D
100
AcDbEntity
  8
1
100
AcDbLine
 10
-10.984141392
 20
-42.161895631
 30
0.0
 11
-11.487100386
 21
-42.268361046
 31
0.0
  0
LINE
  5
124
330
1D
100
AcDbEntity
  8
1
100
AcDbLine
 10
-11.487100386
 20
-42.268361046
 30
0.0
 11
-11.972698034
 21
-42.443778183
 31
0.0
  0
LINE
  5
125
330
1D
100
AcDbEntity
  8
1
100
AcDbLine
 10
-11.972698034
 20
-42.443778183
 30
0.0
 11
-12.432625626
 21
-42.685145608
 31
0.0
  0
LINE
  5
126
330
1D
100
AcDbEntity
  8
1
100
AcDbLine
 10
-12.432625626
 20
-42.685145608
 30
0.0
 11
-12.859013673
 21
-42.988333457
 31
0.0
  0
LINE
  5
127
330
1D
100
AcDbEntity
  8
1
100
AcDbLine
 10
-12.859013673
 20
-42.988333457
 30
0.0
 11
-13.244566557
 21
-43.348154102
 31
0.0
  0
LINE
  5
128
330
1D
100
AcDbEntity
  8
1
100
AcDbLine
 10
-13.244566557
 20
-43.348154102
 30
0.0
 11
-13.582687361
 21
-43.758450911
 31
0.0
  0
LINE
  5
129
330
1D
100
AcDbEntity
  8
1
100
AcDbLine
 10
-13.582687361
 20
-43.758450911
 30
0.0
 11
-13.867590746
 21
-44.212203593
 31
0.0
  0
LINE
  5
12A
330
1D
100
AcDbEntity
  8
1
100
AcDbLine
 10
-13.867590746
 20
-44.212203593
 30
0.0
 11
-14.094401934
 21
-44.701648313
 31
0.0
  0
LINE
  5
12B
330
1D
100
AcDbEntity
  8
1
100
AcDbLine
 10
-14.094401934
 20
-44.701648313
 30
0.0
 11
-14.259240124
 21
-45.218410537
 31
0.0
  0
LINE
  5
12C
330
1D
100
AcDbEntity
  8
1
100
AcDbLine
 10
-14.259240124
 20
-45.218410537
 30
0.0
 11
-14.359284888
 21
-45.753648319
 31
0.0
  0
LINE
  5
12D
330
1D
100
AcDbEntity
  8
1
100
AcDbLine
 10
-14.359284888
 20
-45.753648319
 30
0.0
 11
-14.392824433
 21
-46.298203593
 31
0.0
  0
LINE
  5
12E
330
1D
100
AcDbEntity
  8
1
100
AcDbLine
 10
-14.392824433
 20
-46.298203593
 30
0.0
 11
-14.359284888
 21
-46.842758867
 31
0.0
  0
LINE
  5
12F
330
1D
100
AcDbEntity
  8
1
100
AcDbLine
 10
-14.359284888
 20
-46.842758867
 30
0.0
 11
-14.259240124
 21
-47.377996649
 31
0.0
  0
LINE
  5
130
330
1D
100
AcDbEntity
  8
1
100
AcDbLine
 10
-14.259240124
 20
-47.377996649
 30
0.0
 11
-14.094401934
 21
-47.894758873
 31
0.0
  0
LINE
  5
131
330
1D
100
AcDbEntity
  8
1
100
AcDbLine
 10
-14.094401934
 20
-47.894758873
 30
0.0
 11
-13.867590746
 21
-48.384203593
 31
0.0
  0
LINE
  5
132
330
1D
100
AcDbEntity
  8
1
100
AcDbLine
 10
-13.867590746
 20
-48.384203593
 30
0.0
 11
-13.582687361
 21
-48.837956275
 31
0.0
  0
LINE
  5
133
330
1D
100
AcDbEntity
  8
1
100
AcDbLine
 10
-13.582687361
 20
-48.837956275
 30
0.0
 11
-13.244566557
 21
-49.248253084
 31
0.0
  0
LINE
  5
134
330
1D
100
AcDbEntity
  8
1
100
AcDbLine
 10
-13.244566557
 20
-49.248253084
 30
0.0
 11
-12.859013673
 21
-49.608073729
 31
0.0
  0
LINE
  5
135
330
1D
100
AcDbEntity
  8
1
100
AcDbLine
 10
-12.859013673
 20
-49.608073729
 30
0.0
 11
-12.432625626
 21
-49.911261577
 31
0.0
  0
LINE
  5
136
330
1D
100
AcDbEntity
  8
1
100
AcDbLine
 10
-12.432625626
 20
-49.911261577
 30
0.0
 11
-11.972698034
 21
-50.152629002
 31
0.0
  0
LINE
  5
137
330
1D
100
AcDbEntity
  8
1
100
AcDbLine
 10
-11.972698034
 20
-50.152629002
 30
0.0
 11
-11.487100386
 21
-50.32804614
 31
0.0
  0
LINE
  5
138
330
1D
100
AcDbEntity
  8
1
100
AcDbLine
 10
-11.487100386
 20
-50.32804614
 30
0.0
 11
-10.984141392
 21
-50.434511555
 31
0.0
  0
LINE
  5
139
330
1D
100
AcDbEntity
  8
1
100
AcDbLine
 10
-10.984141392
 20
-50.434511555
 30
0.0
 11
-10.472426819
 21
-50.470203593
 31
0.0
  0
LINE
  5
13A
330
1D
100
AcDbEntity
  8
1
100
AcDbLine
 10
-10.472426819
 20
-50.470203593
 30
0.0
 11
-9.960712247
 21
-50.434511555
 31
0.0
  0
LINE
  5
13B
330
1D
100
AcDbEntity
  8
1
100
AcDbLine
 10
-9.960712247
 20
-50.434511555
 30
0.0
 11
-9.457753252
 21
-50.32804614
 31
0.0
  0
LINE
  5
13C
330
1D
100
AcDbEntity
  8
1
100
AcDbLine
 10
-9.457753252
 20
-50.32804614
 30
0.0
 11
-8.972155604
 21
-50.152629002
 31
0.0
  0
LINE
  5
13D
330
1D
100
AcDbEntity
  8
1
100
AcDbLine
 10
-8.972155604
 20
-50.152629002
 30
0.0
 11
-8.512228012
 21
-49.911261577
 31
0.0
  0
LINE
  5
13E
330
1D
100
AcDbEntity
  8
1
100
AcDbLine
 10
-8.512228012
 20
-49.911261577
 30
0.0
 11
-8.085839965
 21
-49.608073729
 31
0.0
  0
LINE
  5
13F
330
1D
100
AcDbEntity
  8
1
100
AcDbLine
 10
-8.085839965
 20
-49.608073729
 30
0.0
 11
-7.700287081
 21
-49.248253084
 31
0.0
  0
LINE
  5
140
330
1D
100
AcDbEntity
  8
1
100
AcDbLine
 10
-7.700287081
 20
-49.248253084
 30
0.0
 11
-7.362166277
 21
-48.837956275
 31
0.0
  0
LINE
  5
141
330
1D
100
AcDbEntity
  8
1
100
AcDbLine
 10
-7.362166277
 20
-48.837956275
 30
0.0
 11
-7.077262893
 21
-48.384203593
 31
0.0
  0
LINE
  5
142
330
1D
100
AcDbEntity
  8
1
100
AcDbLine
 10
-7.077262893
 20
-48.384203593
 30
0.0
 11
-6.850451704
 21
-47.894758873
 31
0.0
  0
LINE
  5
143
330
1D
100
AcDbEntity
  8
1
100
AcDbLine
 10
-6.850451704
 20
-47.894758873
 30
0.0
 11
-6.685613515
 21
-47.377996649
 31
0.0
  0
LINE
  5
144
330
1D
100
AcDbEntity
  8
1
100
AcDbLine
 10
-6.685613515
 20
-47.377996649
 30
0.0
 11
-6.58556875
 21
-46.842758867
 31
0.0
  0
LINE
  5
145
330
1D
100
AcDbEntity
  8
1
100
AcDbLine
 10
-6.58556875
 20
-46.842758867
 30
0.0
 11
-6.552029205
 21
-46.298203593
 31
0.0
  0
LINE
  5
146
330
1D
100
AcDbEntity
  8
1
100
AcDbLine
 10
-6.552029205
 20
-46.298203593
 30
0.0
 11
-6.58556875
 21
-45.753648319
 31
0.0
  0
LINE
  5
147
330
1D
100
AcDbEntity
  8
1
100
AcDbLine
 10
-6.58556875
 20
-45.753648319
 30
0.0
 11
-6.685613515
 21
-45.218410537
 31
0.0
  0
LINE
  5
148
330
1D
100
AcDbEntity
  8
1
100
AcDbLine
 10
-6.685613515
 20
-45.218410537
 30
0.0
 11
-6.850451704
 21
-44.701648313
 31
0.0
  0
LINE
  5
149
330
1D
100
AcDbEntity
  8
1
100
AcDbLine
 10
-6.850451704
 20
-44.701648313
 30
0.0
 11
-7.077262893
 21
-44.212203593
 31
0.0
  0
LINE
  5
14A
330
1D
100
AcDbEntity
  8
1
100
AcDbLine
 10
-7.077262893
 20
-44.212203593
 30
0.0
 11
-7.362166277
 21
-43.758450911
 31
0.0
  0
LINE
  5
14B
330
1D
100
AcDbEntity
  8
1
100
AcDbLine
 10
-7.362166277
 20
-43.758450911
 30
0.0
 11
-7.700287081
 21
-43.348154102
 31
0.0
  0
LINE
  5
14C
330
1D
100
AcDbEntity
  8
1
100
AcDbLine
 10
-7.700287081
 20
-43.348154102
 30
0.0
 11
-8.085839965
 21
-42.988333457
 31
0.0
  0
LINE
  5
14D
330
1D
100
AcDbEntity
  8
1
100
AcDbLine
 10
-8.085839965
 20
-42.988333457
 30
0.0
 11
-8.512228012
 21
-42.685145608
 31
0.0
  0
LINE
  5
14E
330
1D
100
AcDbEntity
  8
1
100
AcDbLine
 10
-8.512228012
 20
-42.685145608
 30
0.0
 11
-8.972155604
 21
-42.443778183
 31
0.0
  0
LINE
  5
14F
330
1D
100
AcDbEntity
  8
1
100
AcDbLine
 10
-8.972155604
 20
-42.443778183
 30
0.0
 11
-9.457753252
 21
-42.268361046
 31
0.0
  0
LINE
  5
150
330
1D
100
AcDbEntity
  8
1
100
AcDbLine
 10
-9.457753252
 20
-42.268361046
 30
0.0
 11
-9.960712247
 21
-42.161895631
 31
0.0
  0
LINE
  5
151
330
1D
100
AcDbEntity
  8
1
100
AcDbLine
 10
-9.960712247
 20
-42.161895631
 30
0.0
 11
-10.472426819
 21
-42.126203593
 31
0.0
  0
LINE
  5
152
330
1D
100
AcDbEntity
  8
1
100
AcDbLine
 10
-10.30892545
 20
-41.298203593
 30
0.0
 11
-10.875262595
 21
-41.334659222
 31
0.0
  0
LINE
  5
153
330
1D
100
AcDbEntity
  8
1
100
AcDbLine
 10
-10.875262595
 20
-41.334659222
 30
0.0
 11
-11.433341269
 21
-41.443494506
 31
0.0
  0
LINE
  5
154
330
1D
100
AcDbEntity
  8
1
100
AcDbLine
 10
-11.433341269
 20
-41.443494506
 30
0.0
 11
-11.975023428
 21
-41.623122379
 31
0.0
  0
LINE
  5
155
330
1D
100
AcDbEntity
  8
1
100
AcDbLine
 10
-11.975023428
 20
-41.623122379
 30
0.0
 11
-12.492410127
 21
-41.870923465
 31
0.0
  0
LINE
  5
156
330
1D
100
AcDbEntity
  8
1
100
AcDbLine
 10
-12.492410127
 20
-41.870923465
 30
0.0
 11
-12.977956703
 21
-42.183284263
 31
0.0
  0
LINE
  5
157
330
1D
100
AcDbEntity
  8
1
100
AcDbLine
 10
-12.977956703
 20
-42.183284263
 30
0.0
 11
-13.424582793
 21
-42.555649852
 31
0.0
  0
LINE
  5
158
330
1D
100
AcDbEntity
  8
1
100
AcDbLine
 10
-13.424582793
 20
-42.555649852
 30
0.0
 11
-13.825775583
 21
-42.982590302
 31
0.0
  0
LINE
  5
159
330
1D
100
AcDbEntity
  8
1
100
AcDbLine
 10
-13.825775583
 20
-42.982590302
 30
0.0
 11
-14.175684779
 21
-43.457879859
 31
0.0
  0
LINE
  5
15A
330
1D
100
AcDbEntity
  8
1
100
AcDbLine
 10
-14.175684779
 20
-43.457879859
 30
0.0
 11
-14.469207917
 21
-43.974587733
 31
0.0
  0
LINE
  5
15B
330
1D
100
AcDbEntity
  8
1
100
AcDbLine
 10
-14.469207917
 20
-43.974587733
 30
0.0
 11
-14.702064768
 21
-44.525179158
 31
0.0
  0
LINE
  5
15C
330
1D
100
AcDbEntity
  8
1
100
AcDbLine
 10
-14.702064768
 20
-44.525179158
 30
0.0
 11
-14.870859755
 21
-45.101625271
 31
0.0
  0
LINE
  5
15D
330
1D
100
AcDbEntity
  8
1
100
AcDbLine
 10
-14.870859755
 20
-45.101625271
 30
0.0
 11
-14.973131468
 21
-45.695520192
 31
0.0
  0
LINE
  5
15E
330
1D
100
AcDbEntity
  8
1
100
AcDbLine
 10
-14.973131468
 20
-45.695520192
 30
0.0
 11
-15.007388554
 21
-46.298203593
 31
0.0
  0
LINE
  5
15F
330
1D
100
AcDbEntity
  8
1
100
AcDbLine
 10
-15.007388554
 20
-46.298203593
 30
0.0
 11
-14.973131468
 21
-46.900886994
 31
0.0
  0
LINE
  5
160
330
1D
100
AcDbEntity
  8
1
100
AcDbLine
 10
-14.973131468
 20
-46.900886994
 30
0.0
 11
-14.870859755
 21
-47.494781914
 31
0.0
  0
LINE
  5
161
330
1D
100
AcDbEntity
  8
1
100
AcDbLine
 10
-14.870859755
 20
-47.494781914
 30
0.0
 11
-14.702064768
 21
-48.071228028
 31
0.0
  0
LINE
  5
162
330
1D
100
AcDbEntity
  8
1
100
AcDbLine
 10
-14.702064768
 20
-48.071228028
 30
0.0
 11
-14.469207917
 21
-48.621819453
 31
0.0
  0
LINE
  5
163
330
1D
100
AcDbEntity
  8
1
100
AcDbLine
 10
-14.469207917
 20
-48.621819453
 30
0.0
 11
-14.175684779
 21
-49.138527327
 31
0.0
  0
LINE
  5
164
330
1D
100
AcDbEntity
  8
1
100
AcDbLine
 10
-14.175684779
 20
-49.138527327
 30
0.0
 11
-13.825775583
 21
-49.613816884
 31
0.0
  0
LINE
  5
165
330
1D
100
AcDbEntity
  8
1
100
AcDbLine
 10
-13.825775583
 20
-49.613816884
 30
0.0
 11
-13.424582793
 21
-50.040757334
 31
0.0
  0
LINE
  5
166
330
1D
100
AcDbEntity
  8
1
100
AcDbLine
 10
-13.424582793
 20
-50.040757334
 30
0.0
 11
-12.977956703
 21
-50.413122922
 31
0.0
  0
LINE
  5
167
330
1D
100
AcDbEntity
  8
1
100
AcDbLine
 10
-12.977956703
 20
-50.413122922
 30
0.0
 11
-12.492410127
 21
-50.725483721
 31
0.0
  0
LINE
  5
168
330
1D
100
AcDbEntity
  8
1
100
AcDbLine
 10
-12.492410127
 20
-50.725483721
 30
0.0
 11
-11.975023428
 21
-50.973284806
 31
0.0
  0
LINE
  5
169
330
1D
100
AcDbEntity
  8
1
100
AcDbLine
 10
-11.975023428
 20
-50.973284806
 30
0.0
 11
-11.433341269
 21
-51.15291268
 31
0.0
  0
LINE
  5
16A
330
1D
100
AcDbEntity
  8
1
100
AcDbLine
 10
-11.433341269
 20
-51.15291268
 30
0.0
 11
-10.875262595
 21
-51.261747963
 31
0.0
  0
LINE
  5
16B
330
1D
100
AcDbEntity
  8
1
100
AcDbLine
 10
-10.875262595
 20
-51.261747963
 30
0.0
 11
-10.30892545
 21
-51.298203593
 31
0.0
  0
LINE
  5
16C
330
1D
100
AcDbEntity
  8
1
100
AcDbLine
 10
-10.30892545
 20
-51.298203593
 30
0.0
 11
-9.742588305
 21
-51.261747963
 31
0.0
  0
LINE
  5
16D
330
1D
100
AcDbEntity
  8
1
100
AcDbLine
 10
-9.742588305
 20
-51.261747963
 30
0.0
 11
-9.184509631
 21
-51.15291268
 31
0.0
  0
LINE
  5
16E
330
1D
100
AcDbEntity
  8
1
100
AcDbLine
 10
-9.184509631
 20
-51.15291268
 30
0.0
 11
-8.642827472
 21
-50.973284806
 31
0.0
  0
LINE
  5
16F
330
1D
100
AcDbEntity
  8
1
100
AcDbLine
 10
-8.642827472
 20
-50.973284806
 30
0.0
 11
-8.125440772
 21
-50.725483721
 31
0.0
  0
LINE
  5
170
330
1D
100
AcDbEntity
  8
1
100
AcDbLine
 10
-8.125440772
 20
-50.725483721
 30
0.0
 11
-7.639894197
 21
-50.413122922
 31
0.0
  0
LINE
  5
171
330
1D
100
AcDbEntity
  8
1
100
AcDbLine
 10
-7.639894197
 20
-50.413122922
 30
0.0
 11
-7.193268107
 21
-50.040757334
 31
0.0
  0
LINE
  5
172
330
1D
100
AcDbEntity
  8
1
100
AcDbLine
 10
-7.193268107
 20
-50.040757334
 30
0.0
 11
-6.792075317
 21
-49.613816884
 31
0.0
  0
LINE
  5
173
330
1D
100
AcDbEntity
  8
1
100
AcDbLine
 10
-6.792075317
 20
-49.613816884
 30
0.0
 11
-6.442166121
 21
-49.138527327
 31
0.0
  0
LINE
  5
174
330
1D
100
AcDbEntity
  8
1
100
AcDbLine
 10
-6.442166121
 20
-49.138527327
 30
0.0
 11
-6.148642983
 21
-48.621819453
 31
0.0
  0
LINE
  5
175
330
1D
100
AcDbEntity
  8
1
100
AcDbLine
 10
-6.148642983
 20
-48.621819453
 30
0.0
 11
-5.915786132
 21
-48.071228028
 31
0.0
  0
LINE
  5
176
330
1D
100
AcDbEntity
  8
1
100
AcDbLine
 10
-5.915786132
 20
-48.071228028
 30
0.0
 11
-5.746991145
 21
-47.494781914
 31
0.0
  0
LINE
  5
177
330
1D
100
AcDbEntity
  8
1
100
AcDbLine
 10
-5.746991145
 20
-47.494781914
 30
0.0
 11
-5.644719432
 21
-46.900886994
 31
0.0
  0
LINE
  5
178
330
1D
100
AcDbEntity
  8
1
100
AcDbLine
 10
-5.644719432
 20
-46.900886994
 30
0.0
 11
-5.610462346
 21
-46.298203593
 31
0.0
  0
LINE
  5
179
330
1D
100
AcDbEntity
  8
1
100
AcDbLine
 10
-5.610462346
 20
-46.298203593
 30
0.0
 11
-5.644719432
 21
-45.695520192
 31
0.0
  0
LINE
  5
17A
330
1D
100
AcDbEntity
  8
1
100
AcDbLine
 10
-5.644719432
 20
-45.695520192
 30
0.0
 11
-5.746991145
 21
-45.101625271
 31
0.0
  0
LINE
  5
17B
330
1D
100
AcDbEntity
  8
1
100
AcDbLine
 10
-5.746991145
 20
-45.101625271
 30
0.0
 11
-5.915786132
 21
-44.525179158
 31
0.0
  0
LINE
  5
17C
330
1D
100
AcDbEntity
  8
1
100
AcDbLine
 10
-5.915786132
 20
-44.525179158
 30
0.0
 11
-6.148642983
 21
-43.974587733
 31
0.0
  0
LINE
  5
17D
330
1D
100
AcDbEntity
  8
1
100
AcDbLine
 10
-6.148642983
 20
-43.974587733
 30
0.0
 11
-6.442166121
 21
-43.457879859
 31
0.0
  0
LINE
  5
17E
330
1D
100
AcDbEntity
  8
1
100
AcDbLine
 10
-6.442166121
 20
-43.457879859
 30
0.0
 11
-6.792075317
 21
-42.982590302
 31
0.0
  0
LINE
  5
17F
330
1D
100
AcDbEntity
  8
1
100
AcDbLine
 10
-6.792075317
 20
-42.982590302
 30
0.0
 11
-7.193268107
 21
-42.555649852
 31
0.0
  0
LINE
  5
180
330
1D
100
AcDbEntity
  8
1
100
AcDbLine
 10
-7.193268107
 20
-42.555649852
 30
0.0
 11
-7.639894197
 21
-42.183284263
 31
0.0
  0
LINE
  5
181
330
1D
100
AcDbEntity
  8
1
100
AcDbLine
 10
-7.639894197
 20
-42.183284263
 30
0.0
 11
-8.125440772
 21
-41.870923465
 31
0.0
  0
LINE
  5
182
330
1D
100
AcDbEntity
  8
1
100
AcDbLine
 10
-8.125440772
 20
-41.870923465
 30
0.0
 11
-8.642827472
 21
-41.623122379
 31
0.0
  0
LINE
  5
183
330
1D
100
AcDbEntity
  8
1
100
AcDbLine
 10
-8.642827472
 20
-41.623122379
 30
0.0
 11
-9.184509631
 21
-41.443494506
 31
0.0
  0
LINE
  5
184
330
1D
100
AcDbEntity
  8
1
100
AcDbLine
 10
-9.184509631
 20
-41.443494506
 30
0.0
 11
-9.742588305
 21
-41.334659222
 31
0.0
  0
LINE
  5
185
330
1D
100
AcDbEntity
  8
1
100
AcDbLine
 10
-9.742588305
 20
-41.334659222
 30
0.0
 11
-10.30892545
 21
-41.298203593
 31
0.0
  0
LINE
  5
186
330
1D
100
AcDbEntity
  8
1
100
AcDbLine
 10
-12.821658371
 20
-47.741579266
 30
0.0
 11
-10.472426819
 21
-49.184954939
 31
0.0
  0
LINE
  5
187
330
1D
100
AcDbEntity
  8
1
100
AcDbLine
 10
-8.123195267
 20
-47.741579266
 30
0.0
 11
-10.472426819
 21
-49.184954939
 31
0.0
  0
LINE
  5
188
330
1D
100
AcDbEntity
  8
1
100
AcDbLine
 10
-8.123195267
 20
-44.85482792
 30
0.0
 11
-8.123195267
 21
-47.741579266
 31
0.0
  0
LINE
  5
189
330
1D
100
AcDbEntity
  8
1
100
AcDbLine
 10
-8.123195267
 20
-44.85482792
 30
0.0
 11
-10.472426819
 21
-43.411452247
 31
0.0
  0
LINE
  5
18A
330
1D
100
AcDbEntity
  8
1
100
AcDbLine
 10
-12.821658371
 20
-44.85482792
 30
0.0
 11
-10.472426819
 21
-43.411452247
 31
0.0
  0
LINE
  5
18B
330
1D
100
AcDbEntity
  8
1
100
AcDbLine
 10
-12.821658371
 20
-44.85482792
 30
0.0
 11
-12.821658371
 21
-47.741579266
 31
0.0
  0
LINE
  5
18C
330
1D
100
AcDbEntity
  8
1
100
AcDbLine
 10
-10.769537511
 20
-44.85482792
 30
0.0
 11
-9.446366389
 21
-44.041867185
 31
0.0
  0
LINE
  5
18D
330
1D
100
AcDbEntity
  8
1
100
AcDbLine
 10
-10.769537511
 20
-44.85482792
 30
0.0
 11
-12.821658371
 21
-44.85482792
 31
0.0
  0
LINE
  5
18E
330
1D
100
AcDbEntity
  8
1
100
AcDbLine
 10
-10.769537511
 20
-47.741579266
 30
0.0
 11
-12.821658371
 21
-47.741579266
 31
0.0
  0
LINE
  5
18F
330
1D
100
AcDbEntity
  8
1
100
AcDbLine
 10
-10.769537511
 20
-47.741579266
 30
0.0
 11
-9.446366389
 21
-48.554540001
 31
0.0
  0
LINE
  5
190
330
1D
100
AcDbEntity
  8
1
100
AcDbLine
 10
-10.769537511
 20
-44.85482792
 30
0.0
 11
-10.769537511
 21
-47.741579266
 31
0.0
  0
LINE
  5
191
330
1D
100
AcDbEntity
  8
1
100
AcDbLine
 10
-10.545220866
 20
-55.126203593
 30
0.0
 11
-11.056935438
 21
-55.161895631
 31
0.0
  0
LINE
  5
192
330
1D
100
AcDbEntity
  8
1
100
AcDbLine
 10
-11.056935438
 20
-55.161895631
 30
0.0
 11
-11.559894433
 21
-55.268361046
 31
0.0
  0
LINE
  5
193
330
1D
100
AcDbEntity
  8
1
100
AcDbLine
 10
-11.559894433
 20
-55.268361046
 30
0.0
 11
-12.045492081
 21
-55.443778183
 31
0.0
  0
LINE
  5
194
330
1D
100
AcDbEntity
  8
1
100
AcDbLine
 10
-12.045492081
 20
-55.443778183
 30
0.0
 11
-12.505419673
 21
-55.685145608
 31
0.0
  0
LINE
  5
195
330
1D
100
AcDbEntity
  8
1
100
AcDbLine
 10
-12.505419673
 20
-55.685145608
 30
0.0
 11
-12.93180772
 21
-55.988333457
 31
0.0
  0
LINE
  5
196
330
1D
100
AcDbEntity
  8
1
100
AcDbLine
 10
-12.93180772
 20
-55.988333457
 30
0.0
 11
-13.317360604
 21
-56.348154102
 31
0.0
  0
LINE
  5
197
330
1D
100
AcDbEntity
  8
1
100
AcDbLine
 10
-13.317360604
 20
-56.348154102
 30
0.0
 11
-13.655481408
 21
-56.758450911
 31
0.0
  0
LINE
  5
198
330
1D
100
AcDbEntity
  8
1
100
AcDbLine
 10
-13.655481408
 20
-56.758450911
 30
0.0
 11
-13.940384792
 21
-57.212203593
 31
0.0
  0
LINE
  5
199
330
1D
100
AcDbEntity
  8
1
100
AcDbLine
 10
-13.940384792
 20
-57.212203593
 30
0.0
 11
-14.167195981
 21
-57.701648313
 31
0.0
  0
LINE
  5
19A
330
1D
100
AcDbEntity
  8
1
100
AcDbLine
 10
-14.167195981
 20
-57.701648313
 30
0.0
 11
-14.33203417
 21
-58.218410537
 31
0.0
  0
LINE
  5
19B
330
1D
100
AcDbEntity
  8
1
100
AcDbLine
 10
-14.33203417
 20
-58.218410537
 30
0.0
 11
-14.432078935
 21
-58.753648319
 31
0.0
  0
LINE
  5
19C
330
1D
100
AcDbEntity
  8
1
100
AcDbLine
 10
-14.432078935
 20
-58.753648319
 30
0.0
 11
-14.46561848
 21
-59.298203593
 31
0.0
  0
LINE
  5
19D
330
1D
100
AcDbEntity
  8
1
100
AcDbLine
 10
-14.46561848
 20
-59.298203593
 30
0.0
 11
-14.432078935
 21
-59.842758867
 31
0.0
  0
LINE
  5
19E
330
1D
100
AcDbEntity
  8
1
100
AcDbLine
 10
-14.432078935
 20
-59.842758867
 30
0.0
 11
-14.33203417
 21
-60.377996649
 31
0.0
  0
LINE
  5
19F
330
1D
100
AcDbEntity
  8
1
100
AcDbLine
 10
-14.33203417
 20
-60.377996649
 30
0.0
 11
-14.167195981
 21
-60.894758873
 31
0.0
  0
LINE
  5
1A0
330
1D
100
AcDbEntity
  8
1
100
AcDbLine
 10
-14.167195981
 20
-60.894758873
 30
0.0
 11
-13.940384792
 21
-61.384203593
 31
0.0
  0
LINE
  5
1A1
330
1D
100
AcDbEntity
  8
1
100
AcDbLine
 10
-13.940384792
 20
-61.384203593
 30
0.0
 11
-13.655481408
 21
-61.837956275
 31
0.0
  0
LINE
  5
1A2
330
1D
100
AcDbEntity
  8
1
100
AcDbLine
 10
-13.655481408
 20
-61.837956275
 30
0.0
 11
-13.317360604
 21
-62.248253084
 31
0.0
  0
LINE
  5
1A3
330
1D
100
AcDbEntity
  8
1
100
AcDbLine
 10
-13.317360604
 20
-62.248253084
 30
0.0
 11
-12.93180772
 21
-62.608073729
 31
0.0
  0
LINE
  5
1A4
330
1D
100
AcDbEntity
  8
1
100
AcDbLine
 10
-12.93180772
 20
-62.608073729
 30
0.0
 11
-12.505419673
 21
-62.911261577
 31
0.0
  0
LINE
  5
1A5
330
1D
100
AcDbEntity
  8
1
100
AcDbLine
 10
-12.505419673
 20
-62.911261577
 30
0.0
 11
-12.045492081
 21
-63.152629002
 31
0.0
  0
LINE
  5
1A6
330
1D
100
AcDbEntity
  8
1
100
AcDbLine
 10
-12.045492081
 20
-63.152629002
 30
0.0
 11
-11.559894433
 21
-63.32804614
 31
0.0
  0
LINE
  5
1A7
330
1D
100
AcDbEntity
  8
1
100
AcDbLine
 10
-11.559894433
 20
-63.32804614
 30
0.0
 11
-11.056935438
 21
-63.434511555
 31
0.0
  0
LINE
  5
1A8
330
1D
100
AcDbEntity
  8
1
100
AcDbLine
 10
-11.056935438
 20
-63.434511555
 30
0.0
 11
-10.545220866
 21
-63.470203593
 31
0.0
  0
LINE
  5
1A9
330
1D
100
AcDbEntity
  8
1
100
AcDbLine
 10
-10.545220866
 20
-63.470203593
 30
0.0
 11
-10.033506293
 21
-63.434511555
 31
0.0
  0
LINE
  5
1AA
330
1D
100
AcDbEntity
  8
1
100
AcDbLine
 10
-10.033506293
 20
-63.434511555
 30
0.0
 11
-9.530547299
 21
-63.32804614
 31
0.0
  0
LINE
  5
1AB
330
1D
100
AcDbEntity
  8
1
100
AcDbLine
 10
-9.530547299
 20
-63.32804614
 30
0.0
 11
-9.044949651
 21
-63.152629002
 31
0.0
  0
LINE
  5
1AC
330
1D
100
AcDbEntity
  8
1
100
AcDbLine
 10
-9.044949651
 20
-63.152629002
 30
0.0
 11
-8.585022059
 21
-62.911261577
 31
0.0
  0
LINE
  5
1AD
330
1D
100
AcDbEntity
  8
1
100
AcDbLine
 10
-8.585022059
 20
-62.911261577
 30
0.0
 11
-8.158634012
 21
-62.608073729
 31
0.0
  0
LINE
  5
1AE
330
1D
100
AcDbEntity
  8
1
100
AcDbLine
 10
-8.158634012
 20
-62.608073729
 30
0.0
 11
-7.773081128
 21
-62.248253084
 31
0.0
  0
LINE
  5
1AF
330
1D
100
AcDbEntity
  8
1
100
AcDbLine
 10
-7.773081128
 20
-62.248253084
 30
0.0
 11
-7.434960324
 21
-61.837956275
 31
0.0
  0
LINE
  5
1B0
330
1D
100
AcDbEntity
  8
1
100
AcDbLine
 10
-7.434960324
 20
-61.837956275
 30
0.0
 11
-7.150056939
 21
-61.384203593
 31
0.0
  0
LINE
  5
1B1
330
1D
100
AcDbEntity
  8
1
100
AcDbLine
 10
-7.150056939
 20
-61.384203593
 30
0.0
 11
-6.923245751
 21
-60.894758873
 31
0.0
  0
LINE
  5
1B2
330
1D
100
AcDbEntity
  8
1
100
AcDbLine
 10
-6.923245751
 20
-60.894758873
 30
0.0
 11
-6.758407561
 21
-60.377996649
 31
0.0
  0
LINE
  5
1B3
330
1D
100
AcDbEntity
  8
1
100
AcDbLine
 10
-6.758407561
 20
-60.377996649
 30
0.0
 11
-6.658362797
 21
-59.842758867
 31
0.0
  0
LINE
  5
1B4
330
1D
100
AcDbEntity
  8
1
100
AcDbLine
 10
-6.658362797
 20
-59.842758867
 30
0.0
 11
-6.624823252
 21
-59.298203593
 31
0.0
  0
LINE
  5
1B5
330
1D
100
AcDbEntity
  8
1
100
AcDbLine
 10
-6.624823252
 20
-59.298203593
 30
0.0
 11
-6.658362797
 21
-58.753648319
 31
0.0
  0
LINE
  5
1B6
330
1D
100
AcDbEntity
  8
1
100
AcDbLine
 10
-6.658362797
 20
-58.753648319
 30
0.0
 11
-6.758407561
 21
-58.218410537
 31
0.0
  0
LINE
  5
1B7
330
1D
100
AcDbEntity
  8
1
100
AcDbLine
 10
-6.758407561
 20
-58.218410537
 30
0.0
 11
-6.923245751
 21
-57.701648313
 31
0.0
  0
LINE
  5
1B8
330
1D
100
AcDbEntity
  8
1
100
AcDbLine
 10
-6.923245751
 20
-57.701648313
 30
0.0
 11
-7.150056939
 21
-57.212203593
 31
0.0
  0
LINE
  5
1B9
330
1D
100
AcDbEntity
  8
1
100
AcDbLine
 10
-7.150056939
 20
-57.212203593
 30
0.0
 11
-7.434960324
 21
-56.758450911
 31
0.0
  0
LINE
  5
1BA
330
1D
100
AcDbEntity
  8
1
100
AcDbLine
 10
-7.434960324
 20
-56.758450911
 30
0.0
 11
-7.773081128
 21
-56.348154102
 31
0.0
  0
LINE
  5
1BB
330
1D
100
AcDbEntity
  8
1
100
AcDbLine
 10
-7.773081128
 20
-56.348154102
 30
0.0
 11
-8.158634012
 21
-55.988333457
 31
0.0
  0
LINE
  5
1BC
330
1D
100
AcDbEntity
  8
1
100
AcDbLine
 10
-8.158634012
 20
-55.988333457
 30
0.0
 11
-8.585022059
 21
-55.685145608
 31
0.0
  0
LINE
  5
1BD
330
1D
100
AcDbEntity
  8
1
100
AcDbLine
 10
-8.585022059
 20
-55.685145608
 30
0.0
 11
-9.044949651
 21
-55.443778183
 31
0.0
  0
LINE
  5
1BE
330
1D
100
AcDbEntity
  8
1
100
AcDbLine
 10
-9.044949651
 20
-55.443778183
 30
0.0
 11
-9.530547299
 21
-55.268361046
 31
0.0
  0
LINE
  5
1BF
330
1D
100
AcDbEntity
  8
1
100
AcDbLine
 10
-9.530547299
 20
-55.268361046
 30
0.0
 11
-10.033506293
 21
-55.161895631
 31
0.0
  0
LINE
  5
1C0
330
1D
100
AcDbEntity
  8
1
100
AcDbLine
 10
-10.033506293
 20
-55.161895631
 30
0.0
 11
-10.545220866
 21
-55.126203593
 31
0.0
  0
LINE
  5
1C1
330
1D
100
AcDbEntity
  8
1
100
AcDbLine
 10
-10.381719497
 20
-54.298203593
 30
0.0
 11
-10.948056641
 21
-54.334659222
 31
0.0
  0
LINE
  5
1C2
330
1D
100
AcDbEntity
  8
1
100
AcDbLine
 10
-10.948056641
 20
-54.334659222
 30
0.0
 11
-11.506135315
 21
-54.443494506
 31
0.0
  0
LINE
  5
1C3
330
1D
100
AcDbEntity
  8
1
100
AcDbLine
 10
-11.506135315
 20
-54.443494506
 30
0.0
 11
-12.047817475
 21
-54.623122379
 31
0.0
  0
LINE
  5
1C4
330
1D
100
AcDbEntity
  8
1
100
AcDbLine
 10
-12.047817475
 20
-54.623122379
 30
0.0
 11
-12.565204174
 21
-54.870923465
 31
0.0
  0
LINE
  5
1C5
330
1D
100
AcDbEntity
  8
1
100
AcDbLine
 10
-12.565204174
 20
-54.870923465
 30
0.0
 11
-13.05075075
 21
-55.183284263
 31
0.0
  0
LINE
  5
1C6
330
1D
100
AcDbEntity
  8
1
100
AcDbLine
 10
-13.05075075
 20
-55.183284263
 30
0.0
 11
-13.49737684
 21
-55.555649852
 31
0.0
  0
LINE
  5
1C7
330
1D
100
AcDbEntity
  8
1
100
AcDbLine
 10
-13.49737684
 20
-55.555649852
 30
0.0
 11
-13.89856963
 21
-55.982590302
 31
0.0
  0
LINE
  5
1C8
330
1D
100
AcDbEntity
  8
1
100
AcDbLine
 10
-13.89856963
 20
-55.982590302
 30
0.0
 11
-14.248478826
 21
-56.457879859
 31
0.0
  0
LINE
  5
1C9
330
1D
100
AcDbEntity
  8
1
100
AcDbLine
 10
-14.248478826
 20
-56.457879859
 30
0.0
 11
-14.542001963
 21
-56.974587733
 31
0.0
  0
LINE
  5
1CA
330
1D
100
AcDbEntity
  8
1
100
AcDbLine
 10
-14.542001963
 20
-56.974587733
 30
0.0
 11
-14.774858815
 21
-57.525179158
 31
0.0
  0
LINE
  5
1CB
330
1D
100
AcDbEntity
  8
1
100
AcDbLine
 10
-14.774858815
 20
-57.525179158
 30
0.0
 11
-14.943653802
 21
-58.101625271
 31
0.0
  0
LINE
  5
1CC
330
1D
100
AcDbEntity
  8
1
100
AcDbLine
 10
-14.943653802
 20
-58.101625271
 30
0.0
 11
-15.045925515
 21
-58.695520192
 31
0.0
  0
LINE
  5
1CD
330
1D
100
AcDbEntity
  8
1
100
AcDbLine
 10
-15.045925515
 20
-58.695520192
 30
0.0
 11
-15.080182601
 21
-59.298203593
 31
0.0
  0
LINE
  5
1CE
330
1D
100
AcDbEntity
  8
1
100
AcDbLine
 10
-15.080182601
 20
-59.298203593
 30
0.0
 11
-15.045925515
 21
-59.900886994
 31
0.0
  0
LINE
  5
1CF
330
1D
100
AcDbEntity
  8
1
100
AcDbLine
 10
-15.045925515
 20
-59.900886994
 30
0.0
 11
-14.943653802
 21
-60.494781914
 31
0.0
  0
LINE
  5
1D0
330
1D
100
AcDbEntity
  8
1
100
AcDbLine
 10
-14.943653802
 20
-60.494781914
 30
0.0
 11
-14.774858815
 21
-61.071228028
 31
0.0
  0
LINE
  5
1D1
330
1D
100
AcDbEntity
  8
1
100
AcDbLine
 10
-14.774858815
 20
-61.071228028
 30
0.0
 11
-14.542001963
 21
-61.621819453
 31
0.0
  0
LINE
  5
1D2
330
1D
100
AcDbEntity
  8
1
100
AcDbLine
 10
-14.542001963
 20
-61.621819453
 30
0.0
 11
-14.248478826
 21
-62.138527327
 31
0.0
  0
LINE
  5
1D3
330
1D
100
AcDbEntity
  8
1
100
AcDbLine
 10
-14.248478826
 20
-62.138527327
 30
0.0
 11
-13.89856963
 21
-62.613816884
 31
0.0
  0
LINE
  5
1D4
330
1D
100
AcDbEntity
  8
1
100
AcDbLine
 10
-13.89856963
 20
-62.613816884
 30
0.0
 11
-13.49737684
 21
-63.040757334
 31
0.0
  0
LINE
  5
1D5
330
1D
100
AcDbEntity
  8
1
100
AcDbLine
 10
-13.49737684
 20
-63.040757334
 30
0.0
 11
-13.05075075
 21
-63.413122922
 31
0.0
  0
LINE
  5
1D6
330
1D
100
AcDbEntity
  8
1
100
AcDbLine
 10
-13.05075075
 20
-63.413122922
 30
0.0
 11
-12.565204174
 21
-63.725483721
 31
0.0
  0
LINE
  5
1D7
330
1D
100
AcDbEntity
  8
1
100
AcDbLine
 10
-12.565204174
 20
-63.725483721
 30
0.0
 11
-12.047817475
 21
-63.973284806
 31
0.0
  0
LINE
  5
1D8
330
1D
100
AcDbEntity
  8
1
100
AcDbLine
 10
-12.047817475
 20
-63.973284806
 30
0.0
 11
-11.506135315
 21
-64.15291268
 31
0.0
  0
LINE
  5
1D9
330
1D
100
AcDbEntity
  8
1
100
AcDbLine
 10
-11.506135315
 20
-64.15291268
 30
0.0
 11
-10.948056641
 21
-64.261747963
 31
0.0
  0
LINE
  5
1DA
330
1D
100
AcDbEntity
  8
1
100
AcDbLine
 10
-10.948056641
 20
-64.261747963
 30
0.0
 11
-10.381719497
 21
-64.298203593
 31
0.0
  0
LINE
  5
1DB
330
1D
100
AcDbEntity
  8
1
100
AcDbLine
 10
-10.381719497
 20
-64.298203593
 30
0.0
 11
-9.815382352
 21
-64.261747963
 31
0.0
  0
LINE
  5
1DC
330
1D
100
AcDbEntity
  8
1
100
AcDbLine
 10
-9.815382352
 20
-64.261747963
 30
0.0
 11
-9.257303678
 21
-64.15291268
 31
0.0
  0
LINE
  5
1DD
330
1D
100
AcDbEntity
  8
1
100
AcDbLine
 10
-9.257303678
 20
-64.15291268
 30
0.0
 11
-8.715621518
 21
-63.973284806
 31
0.0
  0
LINE
  5
1DE
330
1D
100
AcDbEntity
  8
1
100
AcDbLine
 10
-8.715621518
 20
-63.973284806
 30
0.0
 11
-8.198234819
 21
-63.725483721
 31
0.0
  0
LINE
  5
1DF
330
1D
100
AcDbEntity
  8
1
100
AcDbLine
 10
-8.198234819
 20
-63.725483721
 30
0.0
 11
-7.712688243
 21
-63.413122922
 31
0.0
  0
LINE
  5
1E0
330
1D
100
AcDbEntity
  8
1
100
AcDbLine
 10
-7.712688243
 20
-63.413122922
 30
0.0
 11
-7.266062154
 21
-63.040757334
 31
0.0
  0
LINE
  5
1E1
330
1D
100
AcDbEntity
  8
1
100
AcDbLine
 10
-7.266062154
 20
-63.040757334
 30
0.0
 11
-6.864869364
 21
-62.613816884
 31
0.0
  0
LINE
  5
1E2
330
1D
100
AcDbEntity
  8
1
100
AcDbLine
 10
-6.864869364
 20
-62.613816884
 30
0.0
 11
-6.514960168
 21
-62.138527327
 31
0.0
  0
LINE
  5
1E3
330
1D
100
AcDbEntity
  8
1
100
AcDbLine
 10
-6.514960168
 20
-62.138527327
 30
0.0
 11
-6.22143703
 21
-61.621819453
 31
0.0
  0
LINE
  5
1E4
330
1D
100
AcDbEntity
  8
1
100
AcDbLine
 10
-6.22143703
 20
-61.621819453
 30
0.0
 11
-5.988580179
 21
-61.071228028
 31
0.0
  0
LINE
  5
1E5
330
1D
100
AcDbEntity
  8
1
100
AcDbLine
 10
-5.988580179
 20
-61.071228028
 30
0.0
 11
-5.819785191
 21
-60.494781914
 31
0.0
  0
LINE
  5
1E6
330
1D
100
AcDbEntity
  8
1
100
AcDbLine
 10
-5.819785191
 20
-60.494781914
 30
0.0
 11
-5.717513479
 21
-59.900886994
 31
0.0
  0
LINE
  5
1E7
330
1D
100
AcDbEntity
  8
1
100
AcDbLine
 10
-5.717513479
 20
-59.900886994
 30
0.0
 11
-5.683256393
 21
-59.298203593
 31
0.0
  0
LINE
  5
1E8
330
1D
100
AcDbEntity
  8
1
100
AcDbLine
 10
-5.683256393
 20
-59.298203593
 30
0.0
 11
-5.717513479
 21
-58.695520192
 31
0.0
  0
LINE
  5
1E9
330
1D
100
AcDbEntity
  8
1
100
AcDbLine
 10
-5.717513479
 20
-58.695520192
 30
0.0
 11
-5.819785191
 21
-58.101625271
 31
0.0
  0
LINE
  5
1EA
330
1D
100
AcDbEntity
  8
1
100
AcDbLine
 10
-5.819785191
 20
-58.101625271
 30
0.0
 11
-5.988580179
 21
-57.525179158
 31
0.0
  0
LINE
  5
1EB
330
1D
100
AcDbEntity
  8
1
100
AcDbLine
 10
-5.988580179
 20
-57.525179158
 30
0.0
 11
-6.22143703
 21
-56.974587733
 31
0.0
  0
LINE
  5
1EC
330
1D
100
AcDbEntity
  8
1
100
AcDbLine
 10
-6.22143703
 20
-56.974587733
 30
0.0
 11
-6.514960168
 21
-56.457879859
 31
0.0
  0
LINE
  5
1ED
330
1D
100
AcDbEntity
  8
1
100
AcDbLine
 10
-6.514960168
 20
-56.457879859
 30
0.0
 11
-6.864869364
 21
-55.982590302
 31
0.0
  0
LINE
  5
1EE
330
1D
100
AcDbEntity
  8
1
100
AcDbLine
 10
-6.864869364
 20
-55.982590302
 30
0.0
 11
-7.266062154
 21
-55.555649852
 31
0.0
  0
LINE
  5
1EF
330
1D
100
AcDbEntity
  8
1
100
AcDbLine
 10
-7.266062154
 20
-55.555649852
 30
0.0
 11
-7.712688243
 21
-55.183284263
 31
0.0
  0
LINE
  5
1F0
330
1D
100
AcDbEntity
  8
1
100
AcDbLine
 10
-7.712688243
 20
-55.183284263
 30
0.0
 11
-8.198234819
 21
-54.870923465
 31
0.0
  0
LINE
  5
1F1
330
1D
100
AcDbEntity
  8
1
100
AcDbLine
 10
-8.198234819
 20
-54.870923465
 30
0.0
 11
-8.715621518
 21
-54.623122379
 31
0.0
  0
LINE
  5
1F2
330
1D
100
AcDbEntity
  8
1
100
AcDbLine
 10
-8.715621518
 20
-54.623122379
 30
0.0
 11
-9.257303678
 21
-54.443494506
 31
0.0
  0
LINE
  5
1F3
330
1D
100
AcDbEntity
  8
1
100
AcDbLine
 10
-9.257303678
 20
-54.443494506
 30
0.0
 11
-9.815382352
 21
-54.334659222
 31
0.0
  0
LINE
  5
1F4
330
1D
100
AcDbEntity
  8
1
100
AcDbLine
 10
-9.815382352
 20
-54.334659222
 30
0.0
 11
-10.381719497
 21
-54.298203593
 31
0.0
  0
LINE
  5
1F5
330
1D
100
AcDbEntity
  8
1
100
AcDbLine
 10
-12.894452418
 20
-60.741579266
 30
0.0
 11
-10.545220866
 21
-62.184954939
 31
0.0
  0
LINE
  5
1F6
330
1D
100
AcDbEntity
  8
1
100
AcDbLine
 10
-8.195989314
 20
-60.741579266
 30
0.0
 11
-10.545220866
 21
-62.184954939
 31
0.0
  0
LINE
  5
1F7
330
1D
100
AcDbEntity
  8
1
100
AcDbLine
 10
-8.195989314
 20
-57.85482792
 30
0.0
 11
-8.195989314
 21
-60.741579266
 31
0.0
  0
LINE
  5
1F8
330
1D
100
AcDbEntity
  8
1
100
AcDbLine
 10
-8.195989314
 20
-57.85482792
 30
0.0
 11
-10.545220866
 21
-56.411452247
 31
0.0
  0
LINE
  5
1F9
330
1D
100
AcDbEntity
  8
1
100
AcDbLine
 10
-12.894452418
 20
-57.85482792
 30
0.0
 11
-10.545220866
 21
-56.411452247
 31
0.0
  0
LINE
  5
1FA
330
1D
100
AcDbEntity
  8
1
100
AcDbLine
 10
-12.894452418
 20
-57.85482792
 30
0.0
 11
-12.894452418
 21
-60.741579266
 31
0.0
  0
LINE
  5
1FB
330
1D
100
AcDbEntity
  8
1
100
AcDbLine
 10
-10.842331558
 20
-57.85482792
 30
0.0
 11
-9.519160436
 21
-57.041867185
 31
0.0
  0
LINE
  5
1FC
330
1D
100
AcDbEntity
  8
1
100
AcDbLine
 10
-10.842331558
 20
-57.85482792
 30
0.0
 11
-12.894452418
 21
-57.85482792
 31
0.0
  0
LINE
  5
1FD
330
1D
100
AcDbEntity
  8
1
100
AcDbLine
 10
-10.842331558
 20
-60.741579266
 30
0.0
 11
-12.894452418
 21
-60.741579266
 31
0.0
  0
LINE
  5
1FE
330
1D
100
AcDbEntity
  8
1
100
AcDbLine
 10
-10.842331558
 20
-60.741579266
 30
0.0
 11
-9.519160436
 21
-61.554540001
 31
0.0
  0
LINE
  5
1FF
330
1D
100
AcDbEntity
  8
1
100
AcDbLine
 10
-10.842331558
 20
-57.85482792
 30
0.0
 11
-10.842331558
 21
-60.741579266
 31
0.0
  0
LINE
  5
200
330
1D
100
AcDbEntity
  8
1
100
AcDbLine
 10
-10.363235749
 20
-16.126203593
 30
0.0
 11
-10.874950321
 21
-16.161895631
 31
0.0
  0
LINE
  5
201
330
1D
100
AcDbEntity
  8
1
100
AcDbLine
 10
-10.874950321
 20
-16.161895631
 30
0.0
 11
-11.377909316
 21
-16.268361046
 31
0.0
  0
LINE
  5
202
330
1D
100
AcDbEntity
  8
1
100
AcDbLine
 10
-11.377909316
 20
-16.268361046
 30
0.0
 11
-11.863506964
 21
-16.443778183
 31
0.0
  0
LINE
  5
203
330
1D
100
AcDbEntity
  8
1
100
AcDbLine
 10
-11.863506964
 20
-16.443778183
 30
0.0
 11
-12.323434556
 21
-16.685145608
 31
0.0
  0
LINE
  5
204
330
1D
100
AcDbEntity
  8
1
100
AcDbLine
 10
-12.323434556
 20
-16.685145608
 30
0.0
 11
-12.749822602
 21
-16.988333457
 31
0.0
  0
LINE
  5
205
330
1D
100
AcDbEntity
  8
1
100
AcDbLine
 10
-12.749822602
 20
-16.988333457
 30
0.0
 11
-13.135375486
 21
-17.348154102
 31
0.0
  0
LINE
  5
206
330
1D
100
AcDbEntity
  8
1
100
AcDbLine
 10
-13.135375486
 20
-17.348154102
 30
0.0
 11
-13.473496291
 21
-17.758450911
 31
0.0
  0
LINE
  5
207
330
1D
100
AcDbEntity
  8
1
100
AcDbLine
 10
-13.473496291
 20
-17.758450911
 30
0.0
 11
-13.758399675
 21
-18.212203593
 31
0.0
  0
LINE
  5
208
330
1D
100
AcDbEntity
  8
1
100
AcDbLine
 10
-13.758399675
 20
-18.212203593
 30
0.0
 11
-13.985210864
 21
-18.701648313
 31
0.0
  0
LINE
  5
209
330
1D
100
AcDbEntity
  8
1
100
AcDbLine
 10
-13.985210864
 20
-18.701648313
 30
0.0
 11
-14.150049053
 21
-19.218410537
 31
0.0
  0
LINE
  5
20A
330
1D
100
AcDbEntity
  8
1
100
AcDbLine
 10
-14.150049053
 20
-19.218410537
 30
0.0
 11
-14.250093818
 21
-19.753648319
 31
0.0
  0
LINE
  5
20B
330
1D
100
AcDbEntity
  8
1
100
AcDbLine
 10
-14.250093818
 20
-19.753648319
 30
0.0
 11
-14.283633363
 21
-20.298203593
 31
0.0
  0
LINE
  5
20C
330
1D
100
AcDbEntity
  8
1
100
AcDbLine
 10
-14.283633363
 20
-20.298203593
 30
0.0
 11
-14.250093818
 21
-20.842758867
 31
0.0
  0
LINE
  5
20D
330
1D
100
AcDbEntity
  8
1
100
AcDbLine
 10
-14.250093818
 20
-20.842758867
 30
0.0
 11
-14.150049053
 21
-21.377996649
 31
0.0
  0
LINE
  5
20E
330
1D
100
AcDbEntity
  8
1
100
AcDbLine
 10
-14.150049053
 20
-21.377996649
 30
0.0
 11
-13.985210864
 21
-21.894758873
 31
0.0
  0
LINE
  5
20F
330
1D
100
AcDbEntity
  8
1
100
AcDbLine
 10
-13.985210864
 20
-21.894758873
 30
0.0
 11
-13.758399675
 21
-22.384203593
 31
0.0
  0
LINE
  5
210
330
1D
100
AcDbEntity
  8
1
100
AcDbLine
 10
-13.758399675
 20
-22.384203593
 30
0.0
 11
-13.473496291
 21
-22.837956275
 31
0.0
  0
LINE
  5
211
330
1D
100
AcDbEntity
  8
1
100
AcDbLine
 10
-13.473496291
 20
-22.837956275
 30
0.0
 11
-13.135375486
 21
-23.248253084
 31
0.0
  0
LINE
  5
212
330
1D
100
AcDbEntity
  8
1
100
AcDbLine
 10
-13.135375486
 20
-23.248253084
 30
0.0
 11
-12.749822602
 21
-23.608073729
 31
0.0
  0
LINE
  5
213
330
1D
100
AcDbEntity
  8
1
100
AcDbLine
 10
-12.749822602
 20
-23.608073729
 30
0.0
 11
-12.323434556
 21
-23.911261577
 31
0.0
  0
LINE
  5
214
330
1D
100
AcDbEntity
  8
1
100
AcDbLine
 10
-12.323434556
 20
-23.911261577
 30
0.0
 11
-11.863506964
 21
-24.152629002
 31
0.0
  0
LINE
  5
215
330
1D
100
AcDbEntity
  8
1
100
AcDbLine
 10
-11.863506964
 20
-24.152629002
 30
0.0
 11
-11.377909316
 21
-24.32804614
 31
0.0
  0
LINE
  5
216
330
1D
100
AcDbEntity
  8
1
100
AcDbLine
 10
-11.377909316
 20
-24.32804614
 30
0.0
 11
-10.874950321
 21
-24.434511555
 31
0.0
  0
LINE
  5
217
330
1D
100
AcDbEntity
  8
1
100
AcDbLine
 10
-10.874950321
 20
-24.434511555
 30
0.0
 11
-10.363235749
 21
-24.470203593
 31
0.0
  0
LINE
  5
218
330
1D
100
AcDbEntity
  8
1
100
AcDbLine
 10
-10.363235749
 20
-24.470203593
 30
0.0
 11
-9.851521176
 21
-24.434511555
 31
0.0
  0
LINE
  5
219
330
1D
100
AcDbEntity
  8
1
100
AcDbLine
 10
-9.851521176
 20
-24.434511555
 30
0.0
 11
-9.348562182
 21
-24.32804614
 31
0.0
  0
LINE
  5
21A
330
1D
100
AcDbEntity
  8
1
100
AcDbLine
 10
-9.348562182
 20
-24.32804614
 30
0.0
 11
-8.862964534
 21
-24.152629002
 31
0.0
  0
LINE
  5
21B
330
1D
100
AcDbEntity
  8
1
100
AcDbLine
 10
-8.862964534
 20
-24.152629002
 30
0.0
 11
-8.403036942
 21
-23.911261577
 31
0.0
  0
LINE
  5
21C
330
1D
100
AcDbEntity
  8
1
100
AcDbLine
 10
-8.403036942
 20
-23.911261577
 30
0.0
 11
-7.976648895
 21
-23.608073729
 31
0.0
  0
LINE
  5
21D
330
1D
100
AcDbEntity
  8
1
100
AcDbLine
 10
-7.976648895
 20
-23.608073729
 30
0.0
 11
-7.591096011
 21
-23.248253084
 31
0.0
  0
LINE
  5
21E
330
1D
100
AcDbEntity
  8
1
100
AcDbLine
 10
-7.591096011
 20
-23.248253084
 30
0.0
 11
-7.252975207
 21
-22.837956275
 31
0.0
  0
LINE
  5
21F
330
1D
100
AcDbEntity
  8
1
100
AcDbLine
 10
-7.252975207
 20
-22.837956275
 30
0.0
 11
-6.968071822
 21
-22.384203593
 31
0.0
  0
LINE
  5
220
330
1D
100
AcDbEntity
  8
1
100
AcDbLine
 10
-6.968071822
 20
-22.384203593
 30
0.0
 11
-6.741260634
 21
-21.894758873
 31
0.0
  0
LINE
  5
221
330
1D
100
AcDbEntity
  8
1
100
AcDbLine
 10
-6.741260634
 20
-21.894758873
 30
0.0
 11
-6.576422444
 21
-21.377996649
 31
0.0
  0
LINE
  5
222
330
1D
100
AcDbEntity
  8
1
100
AcDbLine
 10
-6.576422444
 20
-21.377996649
 30
0.0
 11
-6.47637768
 21
-20.842758867
 31
0.0
  0
LINE
  5
223
330
1D
100
AcDbEntity
  8
1
100
AcDbLine
 10
-6.47637768
 20
-20.842758867
 30
0.0
 11
-6.442838135
 21
-20.298203593
 31
0.0
  0
LINE
  5
224
330
1D
100
AcDbEntity
  8
1
100
AcDbLine
 10
-6.442838135
 20
-20.298203593
 30
0.0
 11
-6.47637768
 21
-19.753648319
 31
0.0
  0
LINE
  5
225
330
1D
100
AcDbEntity
  8
1
100
AcDbLine
 10
-6.47637768
 20
-19.753648319
 30
0.0
 11
-6.576422444
 21
-19.218410537
 31
0.0
  0
LINE
  5
226
330
1D
100
AcDbEntity
  8
1
100
AcDbLine
 10
-6.576422444
 20
-19.218410537
 30
0.0
 11
-6.741260634
 21
-18.701648313
 31
0.0
  0
LINE
  5
227
330
1D
100
AcDbEntity
  8
1
100
AcDbLine
 10
-6.741260634
 20
-18.701648313
 30
0.0
 11
-6.968071822
 21
-18.212203593
 31
0.0
  0
LINE
  5
228
330
1D
100
AcDbEntity
  8
1
100
AcDbLine
 10
-6.968071822
 20
-18.212203593
 30
0.0
 11
-7.252975207
 21
-17.758450911
 31
0.0
  0
LINE
  5
229
330
1D
100
AcDbEntity
  8
1
100
AcDbLine
 10
-7.252975207
 20
-17.758450911
 30
0.0
 11
-7.591096011
 21
-17.348154102
 31
0.0
  0
LINE
  5
22A
330
1D
100
AcDbEntity
  8
1
100
AcDbLine
 10
-7.591096011
 20
-17.348154102
 30
0.0
 11
-7.976648895
 21
-16.988333457
 31
0.0
  0
LINE
  5
22B
330
1D
100
AcDbEntity
  8
1
100
AcDbLine
 10
-7.976648895
 20
-16.988333457
 30
0.0
 11
-8.403036942
 21
-16.685145608
 31
0.0
  0
LINE
  5
22C
330
1D
100
AcDbEntity
  8
1
100
AcDbLine
 10
-8.403036942
 20
-16.685145608
 30
0.0
 11
-8.862964534
 21
-16.443778183
 31
0.0
  0
LINE
  5
22D
330
1D
100
AcDbEntity
  8
1
100
AcDbLine
 10
-8.862964534
 20
-16.443778183
 30
0.0
 11
-9.348562182
 21
-16.268361046
 31
0.0
  0
LINE
  5
22E
330
1D
100
AcDbEntity
  8
1
100
AcDbLine
 10
-9.348562182
 20
-16.268361046
 30
0.0
 11
-9.851521176
 21
-16.161895631
 31
0.0
  0
LINE
  5
22F
330
1D
100
AcDbEntity
  8
1
100
AcDbLine
 10
-9.851521176
 20
-16.161895631
 30
0.0
 11
-10.363235749
 21
-16.126203593
 31
0.0
  0
LINE
  5
230
330
1D
100
AcDbEntity
  8
1
100
AcDbLine
 10
-10.19973438
 20
-15.298203593
 30
0.0
 11
-10.766071524
 21
-15.334659222
 31
0.0
  0
LINE
  5
231
330
1D
100
AcDbEntity
  8
1
100
AcDbLine
 10
-10.766071524
 20
-15.334659222
 30
0.0
 11
-11.324150198
 21
-15.443494506
 31
0.0
  0
LINE
  5
232
330
1D
100
AcDbEntity
  8
1
100
AcDbLine
 10
-11.324150198
 20
-15.443494506
 30
0.0
 11
-11.865832358
 21
-15.623122379
 31
0.0
  0
LINE
  5
233
330
1D
100
AcDbEntity
  8
1
100
AcDbLine
 10
-11.865832358
 20
-15.623122379
 30
0.0
 11
-12.383219057
 21
-15.870923465
 31
0.0
  0
LINE
  5
234
330
1D
100
AcDbEntity
  8
1
100
AcDbLine
 10
-12.383219057
 20
-15.870923465
 30
0.0
 11
-12.868765633
 21
-16.183284263
 31
0.0
  0
LINE
  5
235
330
1D
100
AcDbEntity
  8
1
100
AcDbLine
 10
-12.868765633
 20
-16.183284263
 30
0.0
 11
-13.315391723
 21
-16.555649852
 31
0.0
  0
LINE
  5
236
330
1D
100
AcDbEntity
  8
1
100
AcDbLine
 10
-13.315391723
 20
-16.555649852
 30
0.0
 11
-13.716584513
 21
-16.982590302
 31
0.0
  0
LINE
  5
237
330
1D
100
AcDbEntity
  8
1
100
AcDbLine
 10
-13.716584513
 20
-16.982590302
 30
0.0
 11
-14.066493709
 21
-17.457879859
 31
0.0
  0
LINE
  5
238
330
1D
100
AcDbEntity
  8
1
100
AcDbLine
 10
-14.066493709
 20
-17.457879859
 30
0.0
 11
-14.360016846
 21
-17.974587733
 31
0.0
  0
LINE
  5
239
330
1D
100
AcDbEntity
  8
1
100
AcDbLine
 10
-14.360016846
 20
-17.974587733
 30
0.0
 11
-14.592873697
 21
-18.525179158
 31
0.0
  0
LINE
  5
23A
330
1D
100
AcDbEntity
  8
1
100
AcDbLine
 10
-14.592873697
 20
-18.525179158
 30
0.0
 11
-14.761668685
 21
-19.101625271
 31
0.0
  0
LINE
  5
23B
330
1D
100
AcDbEntity
  8
1
100
AcDbLine
 10
-14.761668685
 20
-19.101625271
 30
0.0
 11
-14.863940397
 21
-19.695520192
 31
0.0
  0
LINE
  5
23C
330
1D
100
AcDbEntity
  8
1
100
AcDbLine
 10
-14.863940397
 20
-19.695520192
 30
0.0
 11
-14.898197483
 21
-20.298203593
 31
0.0
  0
LINE
  5
23D
330
1D
100
AcDbEntity
  8
1
100
AcDbLine
 10
-14.898197483
 20
-20.298203593
 30
0.0
 11
-14.863940397
 21
-20.900886994
 31
0.0
  0
LINE
  5
23E
330
1D
100
AcDbEntity
  8
1
100
AcDbLine
 10
-14.863940397
 20
-20.900886994
 30
0.0
 11
-14.761668685
 21
-21.494781914
 31
0.0
  0
LINE
  5
23F
330
1D
100
AcDbEntity
  8
1
100
AcDbLine
 10
-14.761668685
 20
-21.494781914
 30
0.0
 11
-14.592873697
 21
-22.071228028
 31
0.0
  0
LINE
  5
240
330
1D
100
AcDbEntity
  8
1
100
AcDbLine
 10
-14.592873697
 20
-22.071228028
 30
0.0
 11
-14.360016846
 21
-22.621819453
 31
0.0
  0
LINE
  5
241
330
1D
100
AcDbEntity
  8
1
100
AcDbLine
 10
-14.360016846
 20
-22.621819453
 30
0.0
 11
-14.066493709
 21
-23.138527327
 31
0.0
  0
LINE
  5
242
330
1D
100
AcDbEntity
  8
1
100
AcDbLine
 10
-14.066493709
 20
-23.138527327
 30
0.0
 11
-13.716584513
 21
-23.613816884
 31
0.0
  0
LINE
  5
243
330
1D
100
AcDbEntity
  8
1
100
AcDbLine
 10
-13.716584513
 20
-23.613816884
 30
0.0
 11
-13.315391723
 21
-24.040757334
 31
0.0
  0
LINE
  5
244
330
1D
100
AcDbEntity
  8
1
100
AcDbLine
 10
-13.315391723
 20
-24.040757334
 30
0.0
 11
-12.868765633
 21
-24.413122922
 31
0.0
  0
LINE
  5
245
330
1D
100
AcDbEntity
  8
1
100
AcDbLine
 10
-12.868765633
 20
-24.413122922
 30
0.0
 11
-12.383219057
 21
-24.725483721
 31
0.0
  0
LINE
  5
246
330
1D
100
AcDbEntity
  8
1
100
AcDbLine
 10
-12.383219057
 20
-24.725483721
 30
0.0
 11
-11.865832358
 21
-24.973284806
 31
0.0
  0
LINE
  5
247
330
1D
100
AcDbEntity
  8
1
100
AcDbLine
 10
-11.865832358
 20
-24.973284806
 30
0.0
 11
-11.324150198
 21
-25.15291268
 31
0.0
  0
LINE
  5
248
330
1D
100
AcDbEntity
  8
1
100
AcDbLine
 10
-11.324150198
 20
-25.15291268
 30
0.0
 11
-10.766071524
 21
-25.261747963
 31
0.0
  0
LINE
  5
249
330
1D
100
AcDbEntity
  8
1
100
AcDbLine
 10
-10.766071524
 20
-25.261747963
 30
0.0
 11
-10.19973438
 21
-25.298203593
 31
0.0
  0
LINE
  5
24A
330
1D
100
AcDbEntity
  8
1
100
AcDbLine
 10
-10.19973438
 20
-25.298203593
 30
0.0
 11
-9.633397235
 21
-25.261747963
 31
0.0
  0
LINE
  5
24B
330
1D
100
AcDbEntity
  8
1
100
AcDbLine
 10
-9.633397235
 20
-25.261747963
 30
0.0
 11
-9.075318561
 21
-25.15291268
 31
0.0
  0
LINE
  5
24C
330
1D
100
AcDbEntity
  8
1
100
AcDbLine
 10
-9.075318561
 20
-25.15291268
 30
0.0
 11
-8.533636401
 21
-24.973284806
 31
0.0
  0
LINE
  5
24D
330
1D
100
AcDbEntity
  8
1
100
AcDbLine
 10
-8.533636401
 20
-24.973284806
 30
0.0
 11
-8.016249702
 21
-24.725483721
 31
0.0
  0
LINE
  5
24E
330
1D
100
AcDbEntity
  8
1
100
AcDbLine
 10
-8.016249702
 20
-24.725483721
 30
0.0
 11
-7.530703126
 21
-24.413122922
 31
0.0
  0
LINE
  5
24F
330
1D
100
AcDbEntity
  8
1
100
AcDbLine
 10
-7.530703126
 20
-24.413122922
 30
0.0
 11
-7.084077036
 21
-24.040757334
 31
0.0
  0
LINE
  5
250
330
1D
100
AcDbEntity
  8
1
100
AcDbLine
 10
-7.084077036
 20
-24.040757334
 30
0.0
 11
-6.682884246
 21
-23.613816884
 31
0.0
  0
LINE
  5
251
330
1D
100
AcDbEntity
  8
1
100
AcDbLine
 10
-6.682884246
 20
-23.613816884
 30
0.0
 11
-6.332975051
 21
-23.138527327
 31
0.0
  0
LINE
  5
252
330
1D
100
AcDbEntity
  8
1
100
AcDbLine
 10
-6.332975051
 20
-23.138527327
 30
0.0
 11
-6.039451913
 21
-22.621819453
 31
0.0
  0
LINE
  5
253
330
1D
100
AcDbEntity
  8
1
100
AcDbLine
 10
-6.039451913
 20
-22.621819453
 30
0.0
 11
-5.806595062
 21
-22.071228028
 31
0.0
  0
LINE
  5
254
330
1D
100
AcDbEntity
  8
1
100
AcDbLine
 10
-5.806595062
 20
-22.071228028
 30
0.0
 11
-5.637800074
 21
-21.494781914
 31
0.0
  0
LINE
  5
255
330
1D
100
AcDbEntity
  8
1
100
AcDbLine
 10
-5.637800074
 20
-21.494781914
 30
0.0
 11
-5.535528362
 21
-20.900886994
 31
0.0
  0
LINE
  5
256
330
1D
100
AcDbEntity
  8
1
100
AcDbLine
 10
-5.535528362
 20
-20.900886994
 30
0.0
 11
-5.501271276
 21
-20.298203593
 31
0.0
  0
LINE
  5
257
330
1D
100
AcDbEntity
  8
1
100
AcDbLine
 10
-5.501271276
 20
-20.298203593
 30
0.0
 11
-5.535528362
 21
-19.695520192
 31
0.0
  0
LINE
  5
258
330
1D
100
AcDbEntity
  8
1
100
AcDbLine
 10
-5.535528362
 20
-19.695520192
 30
0.0
 11
-5.637800074
 21
-19.101625271
 31
0.0
  0
LINE
  5
259
330
1D
100
AcDbEntity
  8
1
100
AcDbLine
 10
-5.637800074
 20
-19.101625271
 30
0.0
 11
-5.806595062
 21
-18.525179158
 31
0.0
  0
LINE
  5
25A
330
1D
100
AcDbEntity
  8
1
100
AcDbLine
 10
-5.806595062
 20
-18.525179158
 30
0.0
 11
-6.039451913
 21
-17.974587733
 31
0.0
  0
LINE
  5
25B
330
1D
100
AcDbEntity
  8
1
100
AcDbLine
 10
-6.039451913
 20
-17.974587733
 30
0.0
 11
-6.332975051
 21
-17.457879859
 31
0.0
  0
LINE
  5
25C
330
1D
100
AcDbEntity
  8
1
100
AcDbLine
 10
-6.332975051
 20
-17.457879859
 30
0.0
 11
-6.682884246
 21
-16.982590302
 31
0.0
  0
LINE
  5
25D
330
1D
100
AcDbEntity
  8
1
100
AcDbLine
 10
-6.682884246
 20
-16.982590302
 30
0.0
 11
-7.084077036
 21
-16.555649852
 31
0.0
  0
LINE
  5
25E
330
1D
100
AcDbEntity
  8
1
100
AcDbLine
 10
-7.084077036
 20
-16.555649852
 30
0.0
 11
-7.530703126
 21
-16.183284263
 31
0.0
  0
LINE
  5
25F
330
1D
100
AcDbEntity
  8
1
100
AcDbLine
 10
-7.530703126
 20
-16.183284263
 30
0.0
 11
-8.016249702
 21
-15.870923465
 31
0.0
  0
LINE
  5
260
330
1D
100
AcDbEntity
  8
1
100
AcDbLine
 10
-8.016249702
 20
-15.870923465
 30
0.0
 11
-8.533636401
 21
-15.623122379
 31
0.0
  0
LINE
  5
261
330
1D
100
AcDbEntity
  8
1
100
AcDbLine
 10
-8.533636401
 20
-15.623122379
 30
0.0
 11
-9.075318561
 21
-15.443494506
 31
0.0
  0
LINE
  5
262
330
1D
100
AcDbEntity
  8
1
100
AcDbLine
 10
-9.075318561
 20
-15.443494506
 30
0.0
 11
-9.633397235
 21
-15.334659222
 31
0.0
  0
LINE
  5
263
330
1D
100
AcDbEntity
  8
1
100
AcDbLine
 10
-9.633397235
 20
-15.334659222
 30
0.0
 11
-10.19973438
 21
-15.298203593
 31
0.0
  0
LINE
  5
264
330
1D
100
AcDbEntity
  8
1
100
AcDbLine
 10
-12.712467301
 20
-21.741579266
 30
0.0
 11
-10.363235749
 21
-23.184954939
 31
0.0
  0
LINE
  5
265
330
1D
100
AcDbEntity
  8
1
100
AcDbLine
 10
-8.014004197
 20
-21.741579266
 30
0.0
 11
-10.363235749
 21
-23.184954939
 31
0.0
  0
LINE
  5
266
330
1D
100
AcDbEntity
  8
1
100
AcDbLine
 10
-8.014004197
 20
-18.85482792
 30
0.0
 11
-8.014004197
 21
-21.741579266
 31
0.0
  0
LINE
  5
267
330
1D
100
AcDbEntity
  8
1
100
AcDbLine
 10
-8.014004197
 20
-18.85482792
 30
0.0
 11
-10.363235749
 21
-17.411452247
 31
0.0
  0
LINE
  5
268
330
1D
100
AcDbEntity
  8
1
100
AcDbLine
 10
-12.712467301
 20
-18.85482792
 30
0.0
 11
-10.363235749
 21
-17.411452247
 31
0.0
  0
LINE
  5
269
330
1D
100
AcDbEntity
  8
1
100
AcDbLine
 10
-12.712467301
 20
-18.85482792
 30
0.0
 11
-12.712467301
 21
-21.741579266
 31
0.0
  0
LINE
  5
26A
330
1D
100
AcDbEntity
  8
1
100
AcDbLine
 10
-10.660346441
 20
-18.85482792
 30
0.0
 11
-9.337175319
 21
-18.041867185
 31
0.0
  0
LINE
  5
26B
330
1D
100
AcDbEntity
  8
1
100
AcDbLine
 10
-10.660346441
 20
-18.85482792
 30
0.0
 11
-12.712467301
 21
-18.85482792
 31
0.0
  0
LINE
  5
26C
330
1D
100
AcDbEntity
  8
1
100
AcDbLine
 10
-10.660346441
 20
-21.741579266
 30
0.0
 11
-12.712467301
 21
-21.741579266
 31
0.0
  0
LINE
  5
26D
330
1D
100
AcDbEntity
  8
1
100
AcDbLine
 10
-10.660346441
 20
-21.741579266
 30
0.0
 11
-9.337175319
 21
-22.554540001
 31
0.0
  0
LINE
  5
26E
330
1D
100
AcDbEntity
  8
1
100
AcDbLine
 10
-10.660346441
 20
-18.85482792
 30
0.0
 11
-10.660346441
 21
-21.741579266
 31
0.0
  0
LINE
  5
26F
330
1D
100
AcDbEntity
  8
1
100
AcDbLine
 10
43.45
 20
-66.998203593
 30
0.0
 11
43.45
 21
-82.598203593
 31
0.0
  0
LINE
  5
271
330
1D
100
AcDbEntity
  8
1
100
AcDbLine
 10
43.45
 20
-38.998203593
 30
0.0
 11
43.45
 21
-54.598203593
 31
0.0
  0
LINE
  5
273
330
1D
100
AcDbEntity
  8
1
100
AcDbLine
 10
29.45
 20
-85.798203593
 30
0.0
 11
29.45
 21
-63.798203593
 31
0.0
  0
LINE
  5
274
330
1D
100
AcDbEntity
  8
1
100
AcDbLine
 10
31.45
 20
-85.798203593
 30
0.0
 11
31.45
 21
-63.798203593
 31
0.0
  0
LINE
  5
275
330
1D
100
AcDbEntity
  8
1
100
AcDbLine
 10
29.45
 20
-57.798203593
 30
0.0
 11
29.45
 21
-35.798203593
 31
0.0
  0
LINE
  5
276
330
1D
100
AcDbEntity
  8
1
100
AcDbLine
 10
31.45
 20
-57.798203593
 30
0.0
 11
31.45
 21
-35.798203593
 31
0.0
  0
LINE
  5
277
330
1D
100
AcDbEntity
  8
1
100
AcDbLine
 10
9.5
 20
-71.432178189
 30
0.0
 11
8.0
 21
-70.566152785
 31
0.0
  0
LINE
  5
278
330
1D
100
AcDbEntity
  8
1
100
AcDbLine
 10
6.5
 20
-71.432178189
 30
0.0
 11
8.0
 21
-70.566152785
 31
0.0
  0
LINE
  5
279
330
1D
100
AcDbEntity
  8
1
100
AcDbLine
 10
6.5
 20
-73.164228997
 30
0.0
 11
6.5
 21
-71.432178189
 31
0.0
  0
LINE
  5
27A
330
1D
100
AcDbEntity
  8
1
100
AcDbLine
 10
6.5
 20
-73.164228997
 30
0.0
 11
8.0
 21
-74.0302544
 31
0.0
  0
LINE
  5
27B
330
1D
100
AcDbEntity
  8
1
100
AcDbLine
 10
9.5
 20
-73.164228997
 30
0.0
 11
8.0
 21
-74.0302544
 31
0.0
  0
LINE
  5
27C
330
1D
100
AcDbEntity
  8
1
100
AcDbLine
 10
9.5
 20
-73.164228997
 30
0.0
 11
9.5
 21
-71.432178189
 31
0.0
  0
LINE
  5
27D
330
1D
100
AcDbEntity
  8
1
100
AcDbLine
 10
6.5
 20
-90.539606064
 30
0.0
 11
12.254394033
 21
-91.161001913
 31
0.0
  0
LINE
  5
27E
330
1D
100
AcDbEntity
  8
1
100
AcDbLine
 10
12.254394033
 20
-91.161001913
 30
0.0
 11
18.051145879
 21
-91.753457807
 31
0.0
  0
LINE
  5
27F
330
1D
100
AcDbEntity
  8
1
100
AcDbLine
 10
18.051145879
 20
-91.753457807
 30
0.0
 11
23.888228568
 21
-92.31676658
 31
0.0
  0
LINE
  5
280
330
1D
100
AcDbEntity
  8
1
100
AcDbLine
 10
6.5
 20
-90.539606064
 30
0.0
 11
6.5
 21
-75.181344242
 31
0.0
  0
LINE
  5
282
330
1D
100
AcDbEntity
  8
1
100
AcDbLine
 10
6.5
 20
-69.415062944
 30
0.0
 11
6.5
 21
-11.298203593
 31
0.0
  0
LINE
  5
285
330
1D
100
AcDbEntity
  8
1
100
AcDbLine
 10
-14.0
 20
-90.539606064
 30
0.0
 11
-14.0
 21
-63.60173152
 31
0.0
  0
LINE
  5
286
330
1D
100
AcDbEntity
  8
1
100
AcDbLine
 10
-14.0
 20
-54.994675666
 30
0.0
 11
-13.45447581
 21
-54.678624388
 31
0.0
  0
LINE
  5
287
330
1D
100
AcDbEntity
  8
1
100
AcDbLine
 10
-13.45447581
 20
-54.678624388
 30
0.0
 11
-12.874023499
 21
-54.423358452
 31
0.0
  0
LINE
  5
288
330
1D
100
AcDbEntity
  8
1
100
AcDbLine
 10
-12.874023499
 20
-54.423358452
 30
0.0
 11
-12.266280775
 21
-54.232236699
 31
0.0
  0
LINE
  5
289
330
1D
100
AcDbEntity
  8
1
100
AcDbLine
 10
-12.266280775
 20
-54.232236699
 30
0.0
 11
-11.639244437
 21
-54.107773946
 31
0.0
  0
LINE
  5
28A
330
1D
100
AcDbEntity
  8
1
100
AcDbLine
 10
-11.639244437
 20
-54.107773946
 30
0.0
 11
-11.001165155
 21
-54.051607899
 31
0.0
  0
LINE
  5
28B
330
1D
100
AcDbEntity
  8
1
100
AcDbLine
 10
-11.001165155
 20
-54.051607899
 30
0.0
 11
-10.360438902
 21
-54.064477601
 31
0.0
  0
LINE
  5
28C
330
1D
100
AcDbEntity
  8
1
100
AcDbLine
 10
-10.360438902
 20
-54.064477601
 30
0.0
 11
-9.725496481
 21
-54.146213711
 31
0.0
  0
LINE
  5
28D
330
1D
100
AcDbEntity
  8
1
100
AcDbLine
 10
-9.725496481
 20
-54.146213711
 30
0.0
 11
-9.104692592
 21
-54.295740729
 31
0.0
  0
LINE
  5
28E
330
1D
100
AcDbEntity
  8
1
100
AcDbLine
 10
-9.104692592
 20
-54.295740729
 30
0.0
 11
-8.506195895
 21
-54.511091149
 31
0.0
  0
LINE
  5
28F
330
1D
100
AcDbEntity
  8
1
100
AcDbLine
 10
-8.506195895
 20
-54.511091149
 30
0.0
 11
-7.93788153
 21
-54.789431347
 31
0.0
  0
LINE
  5
290
330
1D
100
AcDbEntity
  8
1
100
AcDbLine
 10
-7.93788153
 20
-54.789431347
 30
0.0
 11
-7.407227489
 21
-55.127098866
 31
0.0
  0
LINE
  5
291
330
1D
100
AcDbEntity
  8
1
100
AcDbLine
 10
-7.407227489
 20
-55.127098866
 30
0.0
 11
-6.921216224
 21
-55.519650612
 31
0.0
  0
LINE
  5
292
330
1D
100
AcDbEntity
  8
1
100
AcDbLine
 10
-6.921216224
 20
-55.519650612
 30
0.0
 11
-6.486242768
 21
-55.961921309
 31
0.0
  0
LINE
  5
293
330
1D
100
AcDbEntity
  8
1
100
AcDbLine
 10
-6.486242768
 20
-55.961921309
 30
0.0
 11
-6.108030589
 21
-56.448091472
 31
0.0
  0
LINE
  5
294
330
1D
100
AcDbEntity
  8
1
100
AcDbLine
 10
-6.108030589
 20
-56.448091472
 30
0.0
 11
-5.791556276
 21
-56.971763978
 31
0.0
  0
LINE
  5
295
330
1D
100
AcDbEntity
  8
1
100
AcDbLine
 10
-5.791556276
 20
-56.971763978
 30
0.0
 11
-5.540984063
 21
-57.526048238
 31
0.0
  0
LINE
  5
296
330
1D
100
AcDbEntity
  8
1
100
AcDbLine
 10
-5.540984063
 20
-57.526048238
 30
0.0
 11
-5.359611028
 21
-58.103650872
 31
0.0
  0
LINE
  5
297
330
1D
100
AcDbEntity
  8
1
100
AcDbLine
 10
-5.359611028
 20
-58.103650872
 30
0.0
 11
-5.249823714
 21
-58.696971668
 31
0.0
  0
LINE
  5
298
330
1D
100
AcDbEntity
  8
1
100
AcDbLine
 10
-5.249823714
 20
-58.696971668
 30
0.0
 11
-5.213066724
 21
-59.298203593
 31
0.0
  0
LINE
  5
299
330
1D
100
AcDbEntity
  8
1
100
AcDbLine
 10
-5.213066724
 20
-59.298203593
 30
0.0
 11
-5.249823714
 21
-59.899435518
 31
0.0
  0
LINE
  5
29A
330
1D
100
AcDbEntity
  8
1
100
AcDbLine
 10
-5.249823714
 20
-59.899435518
 30
0.0
 11
-5.359611028
 21
-60.492756314
 31
0.0
  0
LINE
  5
29B
330
1D
100
AcDbEntity
  8
1
100
AcDbLine
 10
-5.359611028
 20
-60.492756314
 30
0.0
 11
-5.540984063
 21
-61.070358947
 31
0.0
  0
LINE
  5
29C
330
1D
100
AcDbEntity
  8
1
100
AcDbLine
 10
-5.540984063
 20
-61.070358947
 30
0.0
 11
-5.791556276
 21
-61.624643208
 31
0.0
  0
LINE
  5
29D
330
1D
100
AcDbEntity
  8
1
100
AcDbLine
 10
-5.791556276
 20
-61.624643208
 30
0.0
 11
-6.108030589
 21
-62.148315714
 31
0.0
  0
LINE
  5
29E
330
1D
100
AcDbEntity
  8
1
100
AcDbLine
 10
-6.108030589
 20
-62.148315714
 30
0.0
 11
-6.486242768
 21
-62.634485877
 31
0.0
  0
LINE
  5
29F
330
1D
100
AcDbEntity
  8
1
100
AcDbLine
 10
-6.486242768
 20
-62.634485877
 30
0.0
 11
-6.921216224
 21
-63.076756574
 31
0.0
  0
LINE
  5
2A0
330
1D
100
AcDbEntity
  8
1
100
AcDbLine
 10
-6.921216224
 20
-63.076756574
 30
0.0
 11
-7.407227489
 21
-63.469308319
 31
0.0
  0
LINE
  5
2A1
330
1D
100
AcDbEntity
  8
1
100
AcDbLine
 10
-7.407227489
 20
-63.469308319
 30
0.0
 11
-7.93788153
 21
-63.806975839
 31
0.0
  0
LINE
  5
2A2
330
1D
100
AcDbEntity
  8
1
100
AcDbLine
 10
-7.93788153
 20
-63.806975839
 30
0.0
 11
-8.506195895
 21
-64.085316037
 31
0.0
  0
LINE
  5
2A3
330
1D
100
AcDbEntity
  8
1
100
AcDbLine
 10
-8.506195895
 20
-64.085316037
 30
0.0
 11
-9.104692592
 21
-64.300666456
 31
0.0
  0
LINE
  5
2A4
330
1D
100
AcDbEntity
  8
1
100
AcDbLine
 10
-9.104692592
 20
-64.300666456
 30
0.0
 11
-9.725496481
 21
-64.450193474
 31
0.0
  0
LINE
  5
2A5
330
1D
100
AcDbEntity
  8
1
100
AcDbLine
 10
-9.725496481
 20
-64.450193474
 30
0.0
 11
-10.360438902
 21
-64.531929585
 31
0.0
  0
LINE
  5
2A6
330
1D
100
AcDbEntity
  8
1
100
AcDbLine
 10
-10.360438902
 20
-64.531929585
 30
0.0
 11
-11.001165155
 21
-64.544799287
 31
0.0
  0
LINE
  5
2A7
330
1D
100
AcDbEntity
  8
1
100
AcDbLine
 10
-11.001165155
 20
-64.544799287
 30
0.0
 11
-11.639244437
 21
-64.48863324
 31
0.0
  0
LINE
  5
2A8
330
1D
100
AcDbEntity
  8
1
100
AcDbLine
 10
-11.639244437
 20
-64.48863324
 30
0.0
 11
-12.266280775
 21
-64.364170487
 31
0.0
  0
LINE
  5
2A9
330
1D
100
AcDbEntity
  8
1
100
AcDbLine
 10
-12.266280775
 20
-64.364170487
 30
0.0
 11
-12.874023499
 21
-64.173048733
 31
0.0
  0
LINE
  5
2AA
330
1D
100
AcDbEntity
  8
1
100
AcDbLine
 10
-12.874023499
 20
-64.173048733
 30
0.0
 11
-13.45447581
 21
-63.917782798
 31
0.0
  0
LINE
  5
2AB
330
1D
100
AcDbEntity
  8
1
100
AcDbLine
 10
-13.45447581
 20
-63.917782798
 30
0.0
 11
-14.0
 21
-63.60173152
 31
0.0
  0
LINE
  5
2AC
330
1D
100
AcDbEntity
  8
1
100
AcDbLine
 10
-14.0
 20
-54.994675666
 30
0.0
 11
-14.0
 21
-50.60173152
 31
0.0
  0
LINE
  5
2AD
330
1D
100
AcDbEntity
  8
1
100
AcDbLine
 10
-14.0
 20
-41.994675666
 30
0.0
 11
-13.45447581
 21
-41.678624388
 31
0.0
  0
LINE
  5
2AE
330
1D
100
AcDbEntity
  8
1
100
AcDbLine
 10
-13.45447581
 20
-41.678624388
 30
0.0
 11
-12.874023499
 21
-41.423358452
 31
0.0
  0
LINE
  5
2AF
330
1D
100
AcDbEntity
  8
1
100
AcDbLine
 10
-12.874023499
 20
-41.423358452
 30
0.0
 11
-12.266280775
 21
-41.232236699
 31
0.0
  0
LINE
  5
2B0
330
1D
100
AcDbEntity
  8
1
100
AcDbLine
 10
-12.266280775
 20
-41.232236699
 30
0.0
 11
-11.639244437
 21
-41.107773946
 31
0.0
  0
LINE
  5
2B1
330
1D
100
AcDbEntity
  8
1
100
AcDbLine
 10
-11.639244437
 20
-41.107773946
 30
0.0
 11
-11.001165155
 21
-41.051607899
 31
0.0
  0
LINE
  5
2B2
330
1D
100
AcDbEntity
  8
1
100
AcDbLine
 10
-11.001165155
 20
-41.051607899
 30
0.0
 11
-10.360438902
 21
-41.064477601
 31
0.0
  0
LINE
  5
2B3
330
1D
100
AcDbEntity
  8
1
100
AcDbLine
 10
-10.360438902
 20
-41.064477601
 30
0.0
 11
-9.725496481
 21
-41.146213711
 31
0.0
  0
LINE
  5
2B4
330
1D
100
AcDbEntity
  8
1
100
AcDbLine
 10
-9.725496481
 20
-41.146213711
 30
0.0
 11
-9.104692592
 21
-41.295740729
 31
0.0
  0
LINE
  5
2B5
330
1D
100
AcDbEntity
  8
1
100
AcDbLine
 10
-9.104692592
 20
-41.295740729
 30
0.0
 11
-8.506195895
 21
-41.511091149
 31
0.0
  0
LINE
  5
2B6
330
1D
100
AcDbEntity
  8
1
100
AcDbLine
 10
-8.506195895
 20
-41.511091149
 30
0.0
 11
-7.93788153
 21
-41.789431347
 31
0.0
  0
LINE
  5
2B7
330
1D
100
AcDbEntity
  8
1
100
AcDbLine
 10
-7.93788153
 20
-41.789431347
 30
0.0
 11
-7.407227489
 21
-42.127098866
 31
0.0
  0
LINE
  5
2B8
330
1D
100
AcDbEntity
  8
1
100
AcDbLine
 10
-7.407227489
 20
-42.127098866
 30
0.0
 11
-6.921216224
 21
-42.519650612
 31
0.0
  0
LINE
  5
2B9
330
1D
100
AcDbEntity
  8
1
100
AcDbLine
 10
-6.921216224
 20
-42.519650612
 30
0.0
 11
-6.486242768
 21
-42.961921309
 31
0.0
  0
LINE
  5
2BA
330
1D
100
AcDbEntity
  8
1
100
AcDbLine
 10
-6.486242768
 20
-42.961921309
 30
0.0
 11
-6.108030589
 21
-43.448091472
 31
0.0
  0
LINE
  5
2BB
330
1D
100
AcDbEntity
  8
1
100
AcDbLine
 10
-6.108030589
 20
-43.448091472
 30
0.0
 11
-5.791556276
 21
-43.971763978
 31
0.0
  0
LINE
  5
2BC
330
1D
100
AcDbEntity
  8
1
100
AcDbLine
 10
-5.791556276
 20
-43.971763978
 30
0.0
 11
-5.540984063
 21
-44.526048238
 31
0.0
  0
LINE
  5
2BD
330
1D
100
AcDbEntity
  8
1
100
AcDbLine
 10
-5.540984063
 20
-44.526048238
 30
0.0
 11
-5.359611028
 21
-45.103650872
 31
0.0
  0
LINE
  5
2BE
330
1D
100
AcDbEntity
  8
1
100
AcDbLine
 10
-5.359611028
 20
-45.103650872
 30
0.0
 11
-5.249823714
 21
-45.696971668
 31
0.0
  0
LINE
  5
2BF
330
1D
100
AcDbEntity
  8
1
100
AcDbLine
 10
-5.249823714
 20
-45.696971668
 30
0.0
 11
-5.213066724
 21
-46.298203593
 31
0.0
  0
LINE
  5
2C0
330
1D
100
AcDbEntity
  8
1
100
AcDbLine
 10
-5.213066724
 20
-46.298203593
 30
0.0
 11
-5.249823714
 21
-46.899435518
 31
0.0
  0
LINE
  5
2C1
330
1D
100
AcDbEntity
  8
1
100
AcDbLine
 10
-5.249823714
 20
-46.899435518
 30
0.0
 11
-5.359611028
 21
-47.492756314
 31
0.0
  0
LINE
  5
2C2
330
1D
100
AcDbEntity
  8
1
100
AcDbLine
 10
-5.359611028
 20
-47.492756314
 30
0.0
 11
-5.540984063
 21
-48.070358947
 31
0.0
  0
LINE
  5
2C3
330
1D
100
AcDbEntity
  8
1
100
AcDbLine
 10
-5.540984063
 20
-48.070358947
 30
0.0
 11
-5.791556276
 21
-48.624643208
 31
0.0
  0
LINE
  5
2C4
330
1D
100
AcDbEntity
  8
1
100
AcDbLine
 10
-5.791556276
 20
-48.624643208
 30
0.0
 11
-6.108030589
 21
-49.148315714
 31
0.0
  0
LINE
  5
2C5
330
1D
100
AcDbEntity
  8
1
100
AcDbLine
 10
-6.108030589
 20
-49.148315714
 30
0.0
 11
-6.486242768
 21
-49.634485877
 31
0.0
  0
LINE
  5
2C6
330
1D
100
AcDbEntity
  8
1
100
AcDbLine
 10
-6.486242768
 20
-49.634485877
 30
0.0
 11
-6.921216224
 21
-50.076756574
 31
0.0
  0
LINE
  5
2C7
330
1D
100
AcDbEntity
  8
1
100
AcDbLine
 10
-6.921216224
 20
-50.076756574
 30
0.0
 11
-7.407227489
 21
-50.469308319
 31
0.0
  0
LINE
  5
2C8
330
1D
100
AcDbEntity
  8
1
100
AcDbLine
 10
-7.407227489
 20
-50.469308319
 30
0.0
 11
-7.93788153
 21
-50.806975839
 31
0.0
  0
LINE
  5
2C9
330
1D
100
AcDbEntity
  8
1
100
AcDbLine
 10
-7.93788153
 20
-50.806975839
 30
0.0
 11
-8.506195895
 21
-51.085316037
 31
0.0
  0
LINE
  5
2CA
330
1D
100
AcDbEntity
  8
1
100
AcDbLine
 10
-8.506195895
 20
-51.085316037
 30
0.0
 11
-9.104692592
 21
-51.300666456
 31
0.0
  0
LINE
  5
2CB
330
1D
100
AcDbEntity
  8
1
100
AcDbLine
 10
-9.104692592
 20
-51.300666456
 30
0.0
 11
-9.725496481
 21
-51.450193474
 31
0.0
  0
LINE
  5
2CC
330
1D
100
AcDbEntity
  8
1
100
AcDbLine
 10
-9.725496481
 20
-51.450193474
 30
0.0
 11
-10.360438902
 21
-51.531929585
 31
0.0
  0
LINE
  5
2CD
330
1D
100
AcDbEntity
  8
1
100
AcDbLine
 10
-10.360438902
 20
-51.531929585
 30
0.0
 11
-11.001165155
 21
-51.544799287
 31
0.0
  0
LINE
  5
2CE
330
1D
100
AcDbEntity
  8
1
100
AcDbLine
 10
-11.001165155
 20
-51.544799287
 30
0.0
 11
-11.639244437
 21
-51.48863324
 31
0.0
  0
LINE
  5
2CF
330
1D
100
AcDbEntity
  8
1
100
AcDbLine
 10
-11.639244437
 20
-51.48863324
 30
0.0
 11
-12.266280775
 21
-51.364170487
 31
0.0
  0
LINE
  5
2D0
330
1D
100
AcDbEntity
  8
1
100
AcDbLine
 10
-12.266280775
 20
-51.364170487
 30
0.0
 11
-12.874023499
 21
-51.173048733
 31
0.0
  0
LINE
  5
2D1
330
1D
100
AcDbEntity
  8
1
100
AcDbLine
 10
-12.874023499
 20
-51.173048733
 30
0.0
 11
-13.45447581
 21
-50.917782798
 31
0.0
  0
LINE
  5
2D2
330
1D
100
AcDbEntity
  8
1
100
AcDbLine
 10
-13.45447581
 20
-50.917782798
 30
0.0
 11
-14.0
 21
-50.60173152
 31
0.0
  0
LINE
  5
2D3
330
1D
100
AcDbEntity
  8
1
100
AcDbLine
 10
-14.0
 20
-41.994675666
 30
0.0
 11
-14.0
 21
-37.60173152
 31
0.0
  0
LINE
  5
2D4
330
1D
100
AcDbEntity
  8
1
100
AcDbLine
 10
-14.0
 20
-28.994675666
 30
0.0
 11
-13.45447581
 21
-28.678624388
 31
0.0
  0
LINE
  5
2D5
330
1D
100
AcDbEntity
  8
1
100
AcDbLine
 10
-13.45447581
 20
-28.678624388
 30
0.0
 11
-12.874023499
 21
-28.423358452
 31
0.0
  0
LINE
  5
2D6
330
1D
100
AcDbEntity
  8
1
100
AcDbLine
 10
-12.874023499
 20
-28.423358452
 30
0.0
 11
-12.266280775
 21
-28.232236699
 31
0.0
  0
LINE
  5
2D7
330
1D
100
AcDbEntity
  8
1
100
AcDbLine
 10
-12.266280775
 20
-28.232236699
 30
0.0
 11
-11.639244437
 21
-28.107773946
 31
0.0
  0
LINE
  5
2D8
330
1D
100
AcDbEntity
  8
1
100
AcDbLine
 10
-11.639244437
 20
-28.107773946
 30
0.0
 11
-11.001165155
 21
-28.051607899
 31
0.0
  0
LINE
  5
2D9
330
1D
100
AcDbEntity
  8
1
100
AcDbLine
 10
-11.001165155
 20
-28.051607899
 30
0.0
 11
-10.360438902
 21
-28.064477601
 31
0.0
  0
LINE
  5
2DA
330
1D
100
AcDbEntity
  8
1
100
AcDbLine
 10
-10.360438902
 20
-28.064477601
 30
0.0
 11
-9.725496481
 21
-28.146213711
 31
0.0
  0
LINE
  5
2DB
330
1D
100
AcDbEntity
  8
1
100
AcDbLine
 10
-9.725496481
 20
-28.146213711
 30
0.0
 11
-9.104692592
 21
-28.295740729
 31
0.0
  0
LINE
  5
2DC
330
1D
100
AcDbEntity
  8
1
100
AcDbLine
 10
-9.104692592
 20
-28.295740729
 30
0.0
 11
-8.506195895
 21
-28.511091149
 31
0.0
  0
LINE
  5
2DD
330
1D
100
AcDbEntity
  8
1
100
AcDbLine
 10
-8.506195895
 20
-28.511091149
 30
0.0
 11
-7.93788153
 21
-28.789431347
 31
0.0
  0
LINE
  5
2DE
330
1D
100
AcDbEntity
  8
1
100
AcDbLine
 10
-7.93788153
 20
-28.789431347
 30
0.0
 11
-7.407227489
 21
-29.127098866
 31
0.0
  0
LINE
  5
2DF
330
1D
100
AcDbEntity
  8
1
100
AcDbLine
 10
-7.407227489
 20
-29.127098866
 30
0.0
 11
-6.921216224
 21
-29.519650612
 31
0.0
  0
LINE
  5
2E0
330
1D
100
AcDbEntity
  8
1
100
AcDbLine
 10
-6.921216224
 20
-29.519650612
 30
0.0
 11
-6.486242768
 21
-29.961921309
 31
0.0
  0
LINE
  5
2E1
330
1D
100
AcDbEntity
  8
1
100
AcDbLine
 10
-6.486242768
 20
-29.961921309
 30
0.0
 11
-6.108030589
 21
-30.448091472
 31
0.0
  0
LINE
  5
2E2
330
1D
100
AcDbEntity
  8
1
100
AcDbLine
 10
-6.108030589
 20
-30.448091472
 30
0.0
 11
-5.791556276
 21
-30.971763978
 31
0.0
  0
LINE
  5
2E3
330
1D
100
AcDbEntity
  8
1
100
AcDbLine
 10
-5.791556276
 20
-30.971763978
 30
0.0
 11
-5.540984063
 21
-31.526048238
 31
0.0
  0
LINE
  5
2E4
330
1D
100
AcDbEntity
  8
1
100
AcDbLine
 10
-5.540984063
 20
-31.526048238
 30
0.0
 11
-5.359611028
 21
-32.103650872
 31
0.0
  0
LINE
  5
2E5
330
1D
100
AcDbEntity
  8
1
100
AcDbLine
 10
-5.359611028
 20
-32.103650872
 30
0.0
 11
-5.249823714
 21
-32.696971668
 31
0.0
  0
LINE
  5
2E6
330
1D
100
AcDbEntity
  8
1
100
AcDbLine
 10
-5.249823714
 20
-32.696971668
 30
0.0
 11
-5.213066724
 21
-33.298203593
 31
0.0
  0
LINE
  5
2E7
330
1D
100
AcDbEntity
  8
1
100
AcDbLine
 10
-5.213066724
 20
-33.298203593
 30
0.0
 11
-5.249823714
 21
-33.899435518
 31
0.0
  0
LINE
  5
2E8
330
1D
100
AcDbEntity
  8
1
100
AcDbLine
 10
-5.249823714
 20
-33.899435518
 30
0.0
 11
-5.359611028
 21
-34.492756314
 31
0.0
  0
LINE
  5
2E9
330
1D
100
AcDbEntity
  8
1
100
AcDbLine
 10
-5.359611028
 20
-34.492756314
 30
0.0
 11
-5.540984063
 21
-35.070358947
 31
0.0
  0
LINE
  5
2EA
330
1D
100
AcDbEntity
  8
1
100
AcDbLine
 10
-5.540984063
 20
-35.070358947
 30
0.0
 11
-5.791556276
 21
-35.624643208
 31
0.0
  0
LINE
  5
2EB
330
1D
100
AcDbEntity
  8
1
100
AcDbLine
 10
-5.791556276
 20
-35.624643208
 30
0.0
 11
-6.108030589
 21
-36.148315714
 31
0.0
  0
LINE
  5
2EC
330
1D
100
AcDbEntity
  8
1
100
AcDbLine
 10
-6.108030589
 20
-36.148315714
 30
0.0
 11
-6.486242768
 21
-36.634485877
 31
0.0
  0
LINE
  5
2ED
330
1D
100
AcDbEntity
  8
1
100
AcDbLine
 10
-6.486242768
 20
-36.634485877
 30
0.0
 11
-6.921216224
 21
-37.076756574
 31
0.0
  0
LINE
  5
2EE
330
1D
100
AcDbEntity
  8
1
100
AcDbLine
 10
-6.921216224
 20
-37.076756574
 30
0.0
 11
-7.407227489
 21
-37.469308319
 31
0.0
  0
LINE
  5
2EF
330
1D
100
AcDbEntity
  8
1
100
AcDbLine
 10
-7.407227489
 20
-37.469308319
 30
0.0
 11
-7.93788153
 21
-37.806975839
 31
0.0
  0
LINE
  5
2F0
330
1D
100
AcDbEntity
  8
1
100
AcDbLine
 10
-7.93788153
 20
-37.806975839
 30
0.0
 11
-8.506195895
 21
-38.085316037
 31
0.0
  0
LINE
  5
2F1
330
1D
100
AcDbEntity
  8
1
100
AcDbLine
 10
-8.506195895
 20
-38.085316037
 30
0.0
 11
-9.104692592
 21
-38.300666456
 31
0.0
  0
LINE
  5
2F2
330
1D
100
AcDbEntity
  8
1
100
AcDbLine
 10
-9.104692592
 20
-38.300666456
 30
0.0
 11
-9.725496481
 21
-38.450193474
 31
0.0
  0
LINE
  5
2F3
330
1D
100
AcDbEntity
  8
1
100
AcDbLine
 10
-9.725496481
 20
-38.450193474
 30
0.0
 11
-10.360438902
 21
-38.531929585
 31
0.0
  0
LINE
  5
2F4
330
1D
100
AcDbEntity
  8
1
100
AcDbLine
 10
-10.360438902
 20
-38.531929585
 30
0.0
 11
-11.001165155
 21
-38.544799287
 31
0.0
  0
LINE
  5
2F5
330
1D
100
AcDbEntity
  8
1
100
AcDbLine
 10
-11.001165155
 20
-38.544799287
 30
0.0
 11
-11.639244437
 21
-38.48863324
 31
0.0
  0
LINE
  5
2F6
330
1D
100
AcDbEntity
  8
1
100
AcDbLine
 10
-11.639244437
 20
-38.48863324
 30
0.0
 11
-12.266280775
 21
-38.364170487
 31
0.0
  0
LINE
  5
2F7
330
1D
100
AcDbEntity
  8
1
100
AcDbLine
 10
-12.266280775
 20
-38.364170487
 30
0.0
 11
-12.874023499
 21
-38.173048733
 31
0.0
  0
LINE
  5
2F8
330
1D
100
AcDbEntity
  8
1
100
AcDbLine
 10
-12.874023499
 20
-38.173048733
 30
0.0
 11
-13.45447581
 21
-37.917782798
 31
0.0
  0
LINE
  5
2F9
330
1D
100
AcDbEntity
  8
1
100
AcDbLine
 10
-13.45447581
 20
-37.917782798
 30
0.0
 11
-14.0
 21
-37.60173152
 31
0.0
  0
LINE
  5
2FA
330
1D
100
AcDbEntity
  8
1
100
AcDbLine
 10
-14.0
 20
-28.994675666
 30
0.0
 11
-14.0
 21
-24.60173152
 31
0.0
  0
LINE
  5
2FB
330
1D
100
AcDbEntity
  8
1
100
AcDbLine
 10
-14.0
 20
-15.994675666
 30
0.0
 11
-13.45447581
 21
-15.678624388
 31
0.0
  0
LINE
  5
2FC
330
1D
100
AcDbEntity
  8
1
100
AcDbLine
 10
-13.45447581
 20
-15.678624388
 30
0.0
 11
-12.874023499
 21
-15.423358452
 31
0.0
  0
LINE
  5
2FD
330
1D
100
AcDbEntity
  8
1
100
AcDbLine
 10
-12.874023499
 20
-15.423358452
 30
0.0
 11
-12.266280775
 21
-15.232236699
 31
0.0
  0
LINE
  5
2FE
330
1D
100
AcDbEntity
  8
1
100
AcDbLine
 10
-12.266280775
 20
-15.232236699
 30
0.0
 11
-11.639244437
 21
-15.107773946
 31
0.0
  0
LINE
  5
2FF
330
1D
100
AcDbEntity
  8
1
100
AcDbLine
 10
-11.639244437
 20
-15.107773946
 30
0.0
 11
-11.001165155
 21
-15.051607899
 31
0.0
  0
LINE
  5
300
330
1D
100
AcDbEntity
  8
1
100
AcDbLine
 10
-11.001165155
 20
-15.051607899
 30
0.0
 11
-10.360438902
 21
-15.064477601
 31
0.0
  0
LINE
  5
301
330
1D
100
AcDbEntity
  8
1
100
AcDbLine
 10
-10.360438902
 20
-15.064477601
 30
0.0
 11
-9.725496481
 21
-15.146213711
 31
0.0
  0
LINE
  5
302
330
1D
100
AcDbEntity
  8
1
100
AcDbLine
 10
-9.725496481
 20
-15.146213711
 30
0.0
 11
-9.104692592
 21
-15.295740729
 31
0.0
  0
LINE
  5
303
330
1D
100
AcDbEntity
  8
1
100
AcDbLine
 10
-9.104692592
 20
-15.295740729
 30
0.0
 11
-8.506195895
 21
-15.511091149
 31
0.0
  0
LINE
  5
304
330
1D
100
AcDbEntity
  8
1
100
AcDbLine
 10
-8.506195895
 20
-15.511091149
 30
0.0
 11
-7.93788153
 21
-15.789431347
 31
0.0
  0
LINE
  5
305
330
1D
100
AcDbEntity
  8
1
100
AcDbLine
 10
-7.93788153
 20
-15.789431347
 30
0.0
 11
-7.407227489
 21
-16.127098866
 31
0.0
  0
LINE
  5
306
330
1D
100
AcDbEntity
  8
1
100
AcDbLine
 10
-7.407227489
 20
-16.127098866
 30
0.0
 11
-6.921216224
 21
-16.519650612
 31
0.0
  0
LINE
  5
307
330
1D
100
AcDbEntity
  8
1
100
AcDbLine
 10
-6.921216224
 20
-16.519650612
 30
0.0
 11
-6.486242768
 21
-16.961921309
 31
0.0
  0
LINE
  5
308
330
1D
100
AcDbEntity
  8
1
100
AcDbLine
 10
-6.486242768
 20
-16.961921309
 30
0.0
 11
-6.108030589
 21
-17.448091472
 31
0.0
  0
LINE
  5
309
330
1D
100
AcDbEntity
  8
1
100
AcDbLine
 10
-6.108030589
 20
-17.448091472
 30
0.0
 11
-5.791556276
 21
-17.971763978
 31
0.0
  0
LINE
  5
30A
330
1D
100
AcDbEntity
  8
1
100
AcDbLine
 10
-5.791556276
 20
-17.971763978
 30
0.0
 11
-5.540984063
 21
-18.526048238
 31
0.0
  0
LINE
  5
30B
330
1D
100
AcDbEntity
  8
1
100
AcDbLine
 10
-5.540984063
 20
-18.526048238
 30
0.0
 11
-5.359611028
 21
-19.103650872
 31
0.0
  0
LINE
  5
30C
330
1D
100
AcDbEntity
  8
1
100
AcDbLine
 10
-5.359611028
 20
-19.103650872
 30
0.0
 11
-5.249823714
 21
-19.696971668
 31
0.0
  0
LINE
  5
30D
330
1D
100
AcDbEntity
  8
1
100
AcDbLine
 10
-5.249823714
 20
-19.696971668
 30
0.0
 11
-5.213066724
 21
-20.298203593
 31
0.0
  0
LINE
  5
30E
330
1D
100
AcDbEntity
  8
1
100
AcDbLine
 10
-5.213066724
 20
-20.298203593
 30
0.0
 11
-5.249823714
 21
-20.899435518
 31
0.0
  0
LINE
  5
30F
330
1D
100
AcDbEntity
  8
1
100
AcDbLine
 10
-5.249823714
 20
-20.899435518
 30
0.0
 11
-5.359611028
 21
-21.492756314
 31
0.0
  0
LINE
  5
310
330
1D
100
AcDbEntity
  8
1
100
AcDbLine
 10
-5.359611028
 20
-21.492756314
 30
0.0
 11
-5.540984063
 21
-22.070358947
 31
0.0
  0
LINE
  5
311
330
1D
100
AcDbEntity
  8
1
100
AcDbLine
 10
-5.540984063
 20
-22.070358947
 30
0.0
 11
-5.791556276
 21
-22.624643208
 31
0.0
  0
LINE
  5
312
330
1D
100
AcDbEntity
  8
1
100
AcDbLine
 10
-5.791556276
 20
-22.624643208
 30
0.0
 11
-6.108030589
 21
-23.148315714
 31
0.0
  0
LINE
  5
313
330
1D
100
AcDbEntity
  8
1
100
AcDbLine
 10
-6.108030589
 20
-23.148315714
 30
0.0
 11
-6.486242768
 21
-23.634485877
 31
0.0
  0
LINE
  5
314
330
1D
100
AcDbEntity
  8
1
100
AcDbLine
 10
-6.486242768
 20
-23.634485877
 30
0.0
 11
-6.921216224
 21
-24.076756574
 31
0.0
  0
LINE
  5
315
330
1D
100
AcDbEntity
  8
1
100
AcDbLine
 10
-6.921216224
 20
-24.076756574
 30
0.0
 11
-7.407227489
 21
-24.469308319
 31
0.0
  0
LINE
  5
316
330
1D
100
AcDbEntity
  8
1
100
AcDbLine
 10
-7.407227489
 20
-24.469308319
 30
0.0
 11
-7.93788153
 21
-24.806975839
 31
0.0
  0
LINE
  5
317
330
1D
100
AcDbEntity
  8
1
100
AcDbLine
 10
-7.93788153
 20
-24.806975839
 30
0.0
 11
-8.506195895
 21
-25.085316037
 31
0.0
  0
LINE
  5
318
330
1D
100
AcDbEntity
  8
1
100
AcDbLine
 10
-8.506195895
 20
-25.085316037
 30
0.0
 11
-9.104692592
 21
-25.300666456
 31
0.0
  0
LINE
  5
319
330
1D
100
AcDbEntity
  8
1
100
AcDbLine
 10
-9.104692592
 20
-25.300666456
 30
0.0
 11
-9.725496481
 21
-25.450193474
 31
0.0
  0
LINE
  5
31A
330
1D
100
AcDbEntity
  8
1
100
AcDbLine
 10
-9.725496481
 20
-25.450193474
 30
0.0
 11
-10.360438902
 21
-25.531929585
 31
0.0
  0
LINE
  5
31B
330
1D
100
AcDbEntity
  8
1
100
AcDbLine
 10
-10.360438902
 20
-25.531929585
 30
0.0
 11
-11.001165155
 21
-25.544799287
 31
0.0
  0
LINE
  5
31C
330
1D
100
AcDbEntity
  8
1
100
AcDbLine
 10
-11.001165155
 20
-25.544799287
 30
0.0
 11
-11.639244437
 21
-25.48863324
 31
0.0
  0
LINE
  5
31D
330
1D
100
AcDbEntity
  8
1
100
AcDbLine
 10
-11.639244437
 20
-25.48863324
 30
0.0
 11
-12.266280775
 21
-25.364170487
 31
0.0
  0
LINE
  5
31E
330
1D
100
AcDbEntity
  8
1
100
AcDbLine
 10
-12.266280775
 20
-25.364170487
 30
0.0
 11
-12.874023499
 21
-25.173048733
 31
0.0
  0
LINE
  5
31F
330
1D
100
AcDbEntity
  8
1
100
AcDbLine
 10
-12.874023499
 20
-25.173048733
 30
0.0
 11
-13.45447581
 21
-24.917782798
 31
0.0
  0
LINE
  5
320
330
1D
100
AcDbEntity
  8
1
100
AcDbLine
 10
-13.45447581
 20
-24.917782798
 30
0.0
 11
-14.0
 21
-24.60173152
 31
0.0
  0
LINE
  5
321
330
1D
100
AcDbEntity
  8
1
100
AcDbLine
 10
-14.0
 20
-15.994675666
 30
0.0
 11
-14.0
 21
-11.298203593
 31
0.0
  0
LINE
  5
324
330
1D
100
AcDbEntity
  8
1
100
AcDbLine
 10
-16.0
 20
-91.339206722
 30
0.0
 11
-14.0
 21
-90.539606064
 31
0.0
  0
LINE
  5
326
330
1D
100
AcDbEntity
  8
1
100
AcDbLine
 10
-14.0
 20
-24.60173152
 30
0.0
 11
-14.363795744
 21
-24.235042547
 31
0.0
  0
LINE
  5
327
330
1D
100
AcDbEntity
  8
1
100
AcDbLine
 10
-14.363795744
 20
-24.235042547
 30
0.0
 11
-14.692995436
 21
-23.818093531
 31
0.0
  0
LINE
  5
328
330
1D
100
AcDbEntity
  8
1
100
AcDbLine
 10
-14.692995436
 20
-23.818093531
 30
0.0
 11
-14.983396314
 21
-23.356207493
 31
0.0
  0
LINE
  5
329
330
1D
100
AcDbEntity
  8
1
100
AcDbLine
 10
-14.983396314
 20
-23.356207493
 30
0.0
 11
-15.231290949
 21
-22.855281145
 31
0.0
  0
LINE
  5
32A
330
1D
100
AcDbEntity
  8
1
100
AcDbLine
 10
-15.231290949
 20
-22.855281145
 30
0.0
 11
-15.433514567
 21
-22.321709614
 31
0.0
  0
LINE
  5
32B
330
1D
100
AcDbEntity
  8
1
100
AcDbLine
 10
-15.433514567
 20
-22.321709614
 30
0.0
 11
-15.587485463
 21
-21.762304794
 31
0.0
  0
LINE
  5
32C
330
1D
100
AcDbEntity
  8
1
100
AcDbLine
 10
-15.587485463
 20
-21.762304794
 30
0.0
 11
-15.69123795
 21
-21.184208382
 31
0.0
  0
LINE
  5
32D
330
1D
100
AcDbEntity
  8
1
100
AcDbLine
 10
-15.69123795
 20
-21.184208382
 30
0.0
 11
-15.743447462
 21
-20.594800701
 31
0.0
  0
LINE
  5
32E
330
1D
100
AcDbEntity
  8
1
100
AcDbLine
 10
-15.743447462
 20
-20.594800701
 30
0.0
 11
-15.743447462
 21
-20.001606485
 31
0.0
  0
LINE
  5
32F
330
1D
100
AcDbEntity
  8
1
100
AcDbLine
 10
-15.743447462
 20
-20.001606485
 30
0.0
 11
-15.69123795
 21
-19.412198804
 31
0.0
  0
LINE
  5
330
330
1D
100
AcDbEntity
  8
1
100
AcDbLine
 10
-15.69123795
 20
-19.412198804
 30
0.0
 11
-15.587485463
 21
-18.834102391
 31
0.0
  0
LINE
  5
331
330
1D
100
AcDbEntity
  8
1
100
AcDbLine
 10
-15.587485463
 20
-18.834102391
 30
0.0
 11
-15.433514567
 21
-18.274697571
 31
0.0
  0
LINE
  5
332
330
1D
100
AcDbEntity
  8
1
100
AcDbLine
 10
-15.433514567
 20
-18.274697571
 30
0.0
 11
-15.231290949
 21
-17.741126041
 31
0.0
  0
LINE
  5
333
330
1D
100
AcDbEntity
  8
1
100
AcDbLine
 10
-15.231290949
 20
-17.741126041
 30
0.0
 11
-14.983396314
 21
-17.240199693
 31
0.0
  0
LINE
  5
334
330
1D
100
AcDbEntity
  8
1
100
AcDbLine
 10
-14.983396314
 20
-17.240199693
 30
0.0
 11
-14.692995436
 21
-16.778313654
 31
0.0
  0
LINE
  5
335
330
1D
100
AcDbEntity
  8
1
100
AcDbLine
 10
-14.692995436
 20
-16.778313654
 30
0.0
 11
-14.363795744
 21
-16.361364638
 31
0.0
  0
LINE
  5
336
330
1D
100
AcDbEntity
  8
1
100
AcDbLine
 10
-14.363795744
 20
-16.361364638
 30
0.0
 11
-14.0
 21
-15.994675666
 31
0.0
  0
LINE
  5
337
330
1D
100
AcDbEntity
  8
1
100
AcDbLine
 10
-14.0
 20
-37.60173152
 30
0.0
 11
-14.363795744
 21
-37.235042547
 31
0.0
  0
LINE
  5
338
330
1D
100
AcDbEntity
  8
1
100
AcDbLine
 10
-14.363795744
 20
-37.235042547
 30
0.0
 11
-14.692995436
 21
-36.818093531
 31
0.0
  0
LINE
  5
339
330
1D
100
AcDbEntity
  8
1
100
AcDbLine
 10
-14.692995436
 20
-36.818093531
 30
0.0
 11
-14.983396314
 21
-36.356207493
 31
0.0
  0
LINE
  5
33A
330
1D
100
AcDbEntity
  8
1
100
AcDbLine
 10
-14.983396314
 20
-36.356207493
 30
0.0
 11
-15.231290949
 21
-35.855281145
 31
0.0
  0
LINE
  5
33B
330
1D
100
AcDbEntity
  8
1
100
AcDbLine
 10
-15.231290949
 20
-35.855281145
 30
0.0
 11
-15.433514567
 21
-35.321709614
 31
0.0
  0
LINE
  5
33C
330
1D
100
AcDbEntity
  8
1
100
AcDbLine
 10
-15.433514567
 20
-35.321709614
 30
0.0
 11
-15.587485463
 21
-34.762304794
 31
0.0
  0
LINE
  5
33D
330
1D
100
AcDbEntity
  8
1
100
AcDbLine
 10
-15.587485463
 20
-34.762304794
 30
0.0
 11
-15.69123795
 21
-34.184208382
 31
0.0
  0
LINE
  5
33E
330
1D
100
AcDbEntity
  8
1
100
AcDbLine
 10
-15.69123795
 20
-34.184208382
 30
0.0
 11
-15.743447462
 21
-33.594800701
 31
0.0
  0
LINE
  5
33F
330
1D
100
AcDbEntity
  8
1
100
AcDbLine
 10
-15.743447462
 20
-33.594800701
 30
0.0
 11
-15.743447462
 21
-33.001606485
 31
0.0
  0
LINE
  5
340
330
1D
100
AcDbEntity
  8
1
100
AcDbLine
 10
-15.743447462
 20
-33.001606485
 30
0.0
 11
-15.69123795
 21
-32.412198804
 31
0.0
  0
LINE
  5
341
330
1D
100
AcDbEntity
  8
1
100
AcDbLine
 10
-15.69123795
 20
-32.412198804
 30
0.0
 11
-15.587485463
 21
-31.834102391
 31
0.0
  0
LINE
  5
342
330
1D
100
AcDbEntity
  8
1
100
AcDbLine
 10
-15.587485463
 20
-31.834102391
 30
0.0
 11
-15.433514567
 21
-31.274697571
 31
0.0
  0
LINE
  5
343
330
1D
100
AcDbEntity
  8
1
100
AcDbLine
 10
-15.433514567
 20
-31.274697571
 30
0.0
 11
-15.231290949
 21
-30.741126041
 31
0.0
  0
LINE
  5
344
330
1D
100
AcDbEntity
  8
1
100
AcDbLine
 10
-15.231290949
 20
-30.741126041
 30
0.0
 11
-14.983396314
 21
-30.240199693
 31
0.0
  0
LINE
  5
345
330
1D
100
AcDbEntity
  8
1
100
AcDbLine
 10
-14.983396314
 20
-30.240199693
 30
0.0
 11
-14.692995436
 21
-29.778313654
 31
0.0
  0
LINE
  5
346
330
1D
100
AcDbEntity
  8
1
100
AcDbLine
 10
-14.692995436
 20
-29.778313654
 30
0.0
 11
-14.363795744
 21
-29.361364638
 31
0.0
  0
LINE
  5
347
330
1D
100
AcDbEntity
  8
1
100
AcDbLine
 10
-14.363795744
 20
-29.361364638
 30
0.0
 11
-14.0
 21
-28.994675666
 31
0.0
  0
LINE
  5
348
330
1D
100
AcDbEntity
  8
1
100
AcDbLine
 10
-14.0
 20
-50.60173152
 30
0.0
 11
-14.363795744
 21
-50.235042547
 31
0.0
  0
LINE
  5
349
330
1D
100
AcDbEntity
  8
1
100
AcDbLine
 10
-14.363795744
 20
-50.235042547
 30
0.0
 11
-14.692995436
 21
-49.818093531
 31
0.0
  0
LINE
  5
34A
330
1D
100
AcDbEntity
  8
1
100
AcDbLine
 10
-14.692995436
 20
-49.818093531
 30
0.0
 11
-14.983396314
 21
-49.356207493
 31
0.0
  0
LINE
  5
34B
330
1D
100
AcDbEntity
  8
1
100
AcDbLine
 10
-14.983396314
 20
-49.356207493
 30
0.0
 11
-15.231290949
 21
-48.855281145
 31
0.0
  0
LINE
  5
34C
330
1D
100
AcDbEntity
  8
1
100
AcDbLine
 10
-15.231290949
 20
-48.855281145
 30
0.0
 11
-15.433514567
 21
-48.321709614
 31
0.0
  0
LINE
  5
34D
330
1D
100
AcDbEntity
  8
1
100
AcDbLine
 10
-15.433514567
 20
-48.321709614
 30
0.0
 11
-15.587485463
 21
-47.762304794
 31
0.0
  0
LINE
  5
34E
330
1D
100
AcDbEntity
  8
1
100
AcDbLine
 10
-15.587485463
 20
-47.762304794
 30
0.0
 11
-15.69123795
 21
-47.184208382
 31
0.0
  0
LINE
  5
34F
330
1D
100
AcDbEntity
  8
1
100
AcDbLine
 10
-15.69123795
 20
-47.184208382
 30
0.0
 11
-15.743447462
 21
-46.594800701
 31
0.0
  0
LINE
  5
350
330
1D
100
AcDbEntity
  8
1
100
AcDbLine
 10
-15.743447462
 20
-46.594800701
 30
0.0
 11
-15.743447462
 21
-46.001606485
 31
0.0
  0
LINE
  5
351
330
1D
100
AcDbEntity
  8
1
100
AcDbLine
 10
-15.743447462
 20
-46.001606485
 30
0.0
 11
-15.69123795
 21
-45.412198804
 31
0.0
  0
LINE
  5
352
330
1D
100
AcDbEntity
  8
1
100
AcDbLine
 10
-15.69123795
 20
-45.412198804
 30
0.0
 11
-15.587485463
 21
-44.834102391
 31
0.0
  0
LINE
  5
353
330
1D
100
AcDbEntity
  8
1
100
AcDbLine
 10
-15.587485463
 20
-44.834102391
 30
0.0
 11
-15.433514567
 21
-44.274697571
 31
0.0
  0
LINE
  5
354
330
1D
100
AcDbEntity
  8
1
100
AcDbLine
 10
-15.433514567
 20
-44.274697571
 30
0.0
 11
-15.231290949
 21
-43.741126041
 31
0.0
  0
LINE
  5
355
330
1D
100
AcDbEntity
  8
1
100
AcDbLine
 10
-15.231290949
 20
-43.741126041
 30
0.0
 11
-14.983396314
 21
-43.240199693
 31
0.0
  0
LINE
  5
356
330
1D
100
AcDbEntity
  8
1
100
AcDbLine
 10
-14.983396314
 20
-43.240199693
 30
0.0
 11
-14.692995436
 21
-42.778313654
 31
0.0
  0
LINE
  5
357
330
1D
100
AcDbEntity
  8
1
100
AcDbLine
 10
-14.692995436
 20
-42.778313654
 30
0.0
 11
-14.363795744
 21
-42.361364638
 31
0.0
  0
LINE
  5
358
330
1D
100
AcDbEntity
  8
1
100
AcDbLine
 10
-14.363795744
 20
-42.361364638
 30
0.0
 11
-14.0
 21
-41.994675666
 31
0.0
  0
LINE
  5
359
330
1D
100
AcDbEntity
  8
1
100
AcDbLine
 10
-14.0
 20
-63.60173152
 30
0.0
 11
-14.363795744
 21
-63.235042547
 31
0.0
  0
LINE
  5
35A
330
1D
100
AcDbEntity
  8
1
100
AcDbLine
 10
-14.363795744
 20
-63.235042547
 30
0.0
 11
-14.692995436
 21
-62.818093531
 31
0.0
  0
LINE
  5
35B
330
1D
100
AcDbEntity
  8
1
100
AcDbLine
 10
-14.692995436
 20
-62.818093531
 30
0.0
 11
-14.983396314
 21
-62.356207493
 31
0.0
  0
LINE
  5
35C
330
1D
100
AcDbEntity
  8
1
100
AcDbLine
 10
-14.983396314
 20
-62.356207493
 30
0.0
 11
-15.231290949
 21
-61.855281145
 31
0.0
  0
LINE
  5
35D
330
1D
100
AcDbEntity
  8
1
100
AcDbLine
 10
-15.231290949
 20
-61.855281145
 30
0.0
 11
-15.433514567
 21
-61.321709614
 31
0.0
  0
LINE
  5
35E
330
1D
100
AcDbEntity
  8
1
100
AcDbLine
 10
-15.433514567
 20
-61.321709614
 30
0.0
 11
-15.587485463
 21
-60.762304794
 31
0.0
  0
LINE
  5
35F
330
1D
100
AcDbEntity
  8
1
100
AcDbLine
 10
-15.587485463
 20
-60.762304794
 30
0.0
 11
-15.69123795
 21
-60.184208382
 31
0.0
  0
LINE
  5
360
330
1D
100
AcDbEntity
  8
1
100
AcDbLine
 10
-15.69123795
 20
-60.184208382
 30
0.0
 11
-15.743447462
 21
-59.594800701
 31
0.0
  0
LINE
  5
361
330
1D
100
AcDbEntity
  8
1
100
AcDbLine
 10
-15.743447462
 20
-59.594800701
 30
0.0
 11
-15.743447462
 21
-59.001606485
 31
0.0
  0
LINE
  5
362
330
1D
100
AcDbEntity
  8
1
100
AcDbLine
 10
-15.743447462
 20
-59.001606485
 30
0.0
 11
-15.69123795
 21
-58.412198804
 31
0.0
  0
LINE
  5
363
330
1D
100
AcDbEntity
  8
1
100
AcDbLine
 10
-15.69123795
 20
-58.412198804
 30
0.0
 11
-15.587485463
 21
-57.834102391
 31
0.0
  0
LINE
  5
364
330
1D
100
AcDbEntity
  8
1
100
AcDbLine
 10
-15.587485463
 20
-57.834102391
 30
0.0
 11
-15.433514567
 21
-57.274697571
 31
0.0
  0
LINE
  5
365
330
1D
100
AcDbEntity
  8
1
100
AcDbLine
 10
-15.433514567
 20
-57.274697571
 30
0.0
 11
-15.231290949
 21
-56.741126041
 31
0.0
  0
LINE
  5
366
330
1D
100
AcDbEntity
  8
1
100
AcDbLine
 10
-15.231290949
 20
-56.741126041
 30
0.0
 11
-14.983396314
 21
-56.240199693
 31
0.0
  0
LINE
  5
367
330
1D
100
AcDbEntity
  8
1
100
AcDbLine
 10
-14.983396314
 20
-56.240199693
 30
0.0
 11
-14.692995436
 21
-55.778313654
 31
0.0
  0
LINE
  5
368
330
1D
100
AcDbEntity
  8
1
100
AcDbLine
 10
-14.692995436
 20
-55.778313654
 30
0.0
 11
-14.363795744
 21
-55.361364638
 31
0.0
  0
LINE
  5
369
330
1D
100
AcDbEntity
  8
1
100
AcDbLine
 10
-14.363795744
 20
-55.361364638
 30
0.0
 11
-14.0
 21
-54.994675666
 31
0.0
  0
LINE
  5
36A
330
1D
100
AcDbEntity
  8
1
100
AcDbLine
 10
0.0
 20
-11.298203593
 30
0.0
 11
-16.0
 21
-11.298203593
 31
0.0
  0
LINE
  5
36B
330
1D
100
AcDbEntity
  8
1
100
AcDbLine
 10
0.4
 20
-97.298203593
 30
0.0
 11
0.4
 21
-96.188920642
 31
0.0
  0
LINE
  5
36C
330
1D
100
AcDbEntity
  8
1
100
AcDbLine
 10
0.4
 20
-96.188920642
 30
0.0
 11
0.0
 21
-96.188920642
 31
0.0
  0
LINE
  5
36D
330
1D
100
AcDbEntity
  8
1
100
AcDbLine
 10
0.0
 20
-94.996125046
 30
0.0
 11
0.0
 21
-96.188920642
 31
0.0
  0
LINE
  5
36E
330
1D
100
AcDbEntity
  8
1
100
AcDbLine
 10
-0.140964281
 20
-94.924813992
 30
0.0
 11
-0.071229464
 21
-94.942926262
 31
0.0
  0
LINE
  5
36F
330
1D
100
AcDbEntity
  8
1
100
AcDbLine
 10
-0.071229464
 20
-94.942926262
 30
0.0
 11
-0.014606174
 21
-94.971195254
 31
0.0
  0
LINE
  5
370
330
1D
100
AcDbEntity
  8
1
100
AcDbLine
 10
-0.014606174
 20
-94.971195254
 30
0.0
 11
0.0
 21
-94.996125046
 31
0.0
  0
LINE
  5
371
330
1D
100
AcDbEntity
  8
1
100
AcDbLine
 10
-0.140964281
 20
-94.924813992
 30
0.0
 11
-0.232825548
 21
-94.845312042
 31
0.0
  0
LINE
  5
372
330
1D
100
AcDbEntity
  8
1
100
AcDbLine
 10
-0.232825548
 20
-94.845312042
 30
0.0
 11
-0.617869672
 21
-94.680728378
 31
0.0
  0
LINE
  5
373
330
1D
100
AcDbEntity
  8
1
100
AcDbLine
 10
-0.617869672
 20
-94.680728378
 30
0.0
 11
-0.890753055
 21
-94.611695724
 31
0.0
  0
LINE
  5
374
330
1D
100
AcDbEntity
  8
1
100
AcDbLine
 10
-0.890753055
 20
-94.611695724
 30
0.0
 11
-1.208373005
 21
-94.554382305
 31
0.0
  0
LINE
  5
375
330
1D
100
AcDbEntity
  8
1
100
AcDbLine
 10
-1.208373005
 20
-94.554382305
 30
0.0
 11
-1.920160261
 21
-94.485327265
 31
0.0
  0
LINE
  5
376
330
1D
100
AcDbEntity
  8
1
100
AcDbLine
 10
-1.920160261
 20
-94.485327265
 30
0.0
 11
-2.662227778
 21
-94.480255357
 31
0.0
  0
LINE
  5
377
330
1D
100
AcDbEntity
  8
1
100
AcDbLine
 10
-2.662227778
 20
-94.480255357
 30
0.0
 11
-3.119545323
 21
-94.509562367
 31
0.0
  0
LINE
  5
378
330
1D
100
AcDbEntity
  8
1
100
AcDbLine
 10
-3.119545323
 20
-94.509562367
 30
0.0
 11
-7.997967505
 21
-94.94567885
 31
0.0
  0
LINE
  5
379
330
1D
100
AcDbEntity
  8
1
100
AcDbLine
 10
-7.997967505
 20
-94.94567885
 30
0.0
 11
-12.9
 21
-95.34518688
 31
0.0
  0
LINE
  5
37A
330
1D
100
AcDbEntity
  8
1
100
AcDbLine
 10
-12.9
 20
-95.34518688
 30
0.0
 11
-16.0
 21
-94.944366014
 31
0.0
  0
LINE
  5
37B
330
1D
100
AcDbEntity
  8
1
100
AcDbLine
 10
-16.0
 20
-94.944366014
 30
0.0
 11
-16.0
 21
-11.298203593
 31
0.0
  0
LINE
  5
37C
330
1D
100
AcDbEntity
  8
1
100
AcDbLine
 10
23.888228568
 20
-92.31676658
 30
0.0
 11
24.337272085
 21
-92.387921672
 31
0.0
  0
LINE
  5
37D
330
1D
100
AcDbEntity
  8
1
100
AcDbLine
 10
24.337272085
 20
-92.387921672
 30
0.0
 11
24.690250461
 21
-92.502265642
 31
0.0
  0
LINE
  5
37E
330
1D
100
AcDbEntity
  8
1
100
AcDbLine
 10
24.690250461
 20
-92.502265642
 30
0.0
 11
24.922545585
 21
-92.65069363
 31
0.0
  0
LINE
  5
37F
330
1D
100
AcDbEntity
  8
1
100
AcDbLine
 10
24.922545585
 20
-92.65069363
 30
0.0
 11
25.0
 21
-92.80939453
 31
0.0
  0
LINE
  5
380
330
1D
100
AcDbEntity
  8
1
100
AcDbLine
 10
25.0
 20
-94.984504472
 30
0.0
 11
25.0
 21
-11.298203593
 31
0.0
  0
LINE
  5
381
330
1D
100
AcDbEntity
  8
1
100
AcDbLine
 10
25.0
 20
-94.984504472
 30
0.0
 11
16.5
 21
-94.984504472
 31
0.0
  0
LINE
  5
382
330
1D
100
AcDbEntity
  8
1
100
AcDbLine
 10
16.5
 20
-94.984504472
 30
0.0
 11
16.012957712
 21
-95.003377497
 31
0.0
  0
LINE
  5
383
330
1D
100
AcDbEntity
  8
1
100
AcDbLine
 10
16.012957712
 20
-95.003377497
 30
0.0
 11
15.580917544
 21
-95.057103855
 31
0.0
  0
LINE
  5
384
330
1D
100
AcDbEntity
  8
1
100
AcDbLine
 10
15.580917544
 20
-95.057103855
 30
0.0
 11
15.246200667
 21
-95.13917834
 31
0.0
  0
LINE
  5
385
330
1D
100
AcDbEntity
  8
1
100
AcDbLine
 10
15.246200667
 20
-95.13917834
 30
0.0
 11
15.044782493
 21
-95.241083844
 31
0.0
  0
LINE
  5
386
330
1D
100
AcDbEntity
  8
1
100
AcDbLine
 10
15.044782493
 20
-95.241083844
 30
0.0
 11
15.0
 21
-95.319935628
 31
0.0
  0
LINE
  5
387
330
1D
100
AcDbEntity
  8
1
100
AcDbLine
 10
15.0
 20
-95.319935628
 30
0.0
 11
15.0
 21
-95.335993851
 31
0.0
  0
LINE
  5
388
330
1D
100
AcDbEntity
  8
1
100
AcDbLine
 10
14.95
 20
-95.335993851
 30
0.0
 11
15.0
 21
-95.335993851
 31
0.0
  0
LINE
  5
389
330
1D
100
AcDbEntity
  8
1
100
AcDbLine
 10
14.95
 20
-97.298203593
 30
0.0
 11
14.95
 21
-95.335993851
 31
0.0
  0
LINE
  5
38C
330
1D
100
AcDbEntity
  8
3
100
AcDbLine
 10
14.95
 20
-95.335993851
 30
0.0
 11
14.95
 21
-11.298203593
 31
0.0
  0
LINE
  5
38D
330
1D
100
AcDbEntity
  8
3
100
AcDbLine
 10
14.95
 20
11.298203593
 30
0.0
 11
14.95
 21
94.920046933
 31
0.0
  0
LINE
  5
38E
330
1D
100
AcDbEntity
  8
SK2
100
AcDbLine
 10
58.711657715
 20
97.298203593
 30
0.0
 11
14.95
 21
97.298203593
 31
0.0
  0
LINE
  5
38F
330
1D
100
AcDbEntity
  8
SK2
100
AcDbLine
 10
56.711657715
 20
97.298203593
 30
0.0
 11
57.161657746
 21
93.798203597
 31
0.0
  0
LINE
  5
390
330
1D
100
AcDbEntity
  8
SK2
100
AcDbLine
 10
57.161657746
 20
93.798203597
 30
0.0
 11
56.261657746
 21
93.798203589
 31
0.0
  0
LINE
  5
391
330
1D
100
AcDbEntity
  8
SK2
100
AcDbLine
 10
56.261657746
 20
93.798203589
 30
0.0
 11
56.711657715
 21
97.298203593
 31
0.0
  0
LINE
  5
392
330
1D
100
AcDbEntity
  8
SK2
100
AcDbLine
 10
58.711658478
 20
11.298203593
 30
0.0
 11
25.0
 21
11.298203593
 31
0.0
  0
LINE
  5
393
330
1D
100
AcDbEntity
  8
SK2
100
AcDbLine
 10
56.711658478
 20
11.298203593
 30
0.0
 11
56.261658447
 21
14.798203589
 31
0.0
  0
LINE
  5
394
330
1D
100
AcDbEntity
  8
SK2
100
AcDbLine
 10
56.261658447
 20
14.798203589
 30
0.0
 11
57.161658447
 21
14.798203597
 31
0.0
  0
LINE
  5
395
330
1D
100
AcDbEntity
  8
SK2
100
AcDbLine
 10
57.161658447
 20
14.798203597
 30
0.0
 11
56.711658478
 21
11.298203593
 31
0.0
  0
LINE
  5
396
330
1D
100
AcDbEntity
  8
SK2
100
AcDbLine
 10
56.711658447
 20
14.798203593
 30
0.0
 11
56.711657746
 21
93.798203593
 31
0.0
  0
TEXT
  5
397
330
1D
100
AcDbEntity
  8
SK2
100
AcDbText
 10
55.211658111
 20
52.688202618
 30
0.0
 40
3.5
  1
86
 50
90.000000508
  7
BMG_Text
100
AcDbText
  0
LINE
  5
398
330
1D
100
AcDbEntity
  8
SK2
100
AcDbLine
 10
58.711657715
 20
-97.298203593
 30
0.0
 11
14.95
 21
-97.298203593
 31
0.0
  0
LINE
  5
399
330
1D
100
AcDbEntity
  8
SK2
100
AcDbLine
 10
56.711657715
 20
-97.298203593
 30
0.0
 11
56.261657746
 21
-93.798203589
 31
0.0
  0
LINE
  5
39A
330
1D
100
AcDbEntity
  8
SK2
100
AcDbLine
 10
56.261657746
 20
-93.798203589
 30
0.0
 11
57.161657746
 21
-93.798203597
 31
0.0
  0
LINE
  5
39B
330
1D
100
AcDbEntity
  8
SK2
100
AcDbLine
 10
57.161657746
 20
-93.798203597
 30
0.0
 11
56.711657715
 21
-97.298203593
 31
0.0
  0
LINE
  5
39C
330
1D
100
AcDbEntity
  8
SK2
100
AcDbLine
 10
58.711658478
 20
-11.298203593
 30
0.0
 11
25.0
 21
-11.298203593
 31
0.0
  0
LINE
  5
39D
330
1D
100
AcDbEntity
  8
SK2
100
AcDbLine
 10
56.711658478
 20
-11.298203593
 30
0.0
 11
57.161658447
 21
-14.798203597
 31
0.0
  0
LINE
  5
39E
330
1D
100
AcDbEntity
  8
SK2
100
AcDbLine
 10
57.161658447
 20
-14.798203597
 30
0.0
 11
56.261658447
 21
-14.798203589
 31
0.0
  0
LINE
  5
39F
330
1D
100
AcDbEntity
  8
SK2
100
AcDbLine
 10
56.261658447
 20
-14.798203589
 30
0.0
 11
56.711658478
 21
-11.298203593
 31
0.0
  0
LINE
  5
3A0
330
1D
100
AcDbEntity
  8
SK2
100
AcDbLine
 10
56.711657746
 20
-93.798203593
 30
0.0
 11
56.711658447
 21
-14.798203593
 31
0.0
  0
TEXT
  5
3A1
330
1D
100
AcDbEntity
  8
SK2
100
AcDbText
 10
55.211658082
 20
-55.908204541
 30
0.0
 40
3.5
  1
86
 50
89.999999492
  7
BMG_Text
100
AcDbText
  0
TEXT
  5
3A2
330
1D
100
AcDbEntity
  8
SK6
100
AcDbText
 10
0.8323630020000005
 20
-87.59039605456107
 30
0.0
 40
3.5
  1
317.289
  7
BMG_Text
100
AcDbText
  0
LINE
  5
3A3
330
1D
100
AcDbEntity
  8
4
100
AcDbLine
 10
28.802244945
 20
0.0
 30
0.0
 11
-19.344758793
 21
0.0
 31
0.0
  0
LINE
  5
3A4
330
1D
100
AcDbEntity
  8
1
100
AcDbLine
 10
-16.0
 20
66.298203593
 30
0.0
 11
-14.0
 21
66.298203593
 31
0.0
  0
LINE
  5
3A5
330
1D
100
AcDbEntity
  8
3
100
AcDbLine
 10
-16.0
 20
83.798203593
 30
0.0
 11
-8.0
 21
83.798203593
 31
0.0
  0
LINE
  5
444
330
1D
100
AcDbEntity
  8
1
100
AcDbLine
 10
-14.0
 20
90.539606064
 30
0.0
 11
-0.0000000000000018
 21
90.539606064
 31
0.0
  0
LINE
  5
447
330
1D
100
AcDbEntity
  8
1
100
AcDbLine
 10
-14.0
 20
-90.539606064
 30
0.0
 11
0.0
 21
-90.539606064
 31
0.0
  0
LINE
  5
449
330
1D
100
AcDbEntity
  8
1
100
AcDbLine
 10
6.5
 20
90.539606064
 30
0.0
 11
-0.0000000000000018
 21
90.539606064
 31
0.0
  0
LINE
  5
44A
330
1D
100
AcDbEntity
  8
1
100
AcDbLine
 10
25.0
 20
11.298203593
 30
0.0
 11
0.0
 21
11.298203593
 31
0.0
  0
LINE
  5
44B
330
1D
100
AcDbEntity
  8
1
100
AcDbLine
 10
25.0
 20
-11.298203593
 30
0.0
 11
0.0
 21
-11.298203593
 31
0.0
  0
LINE
  5
44C
330
1D
100
AcDbEntity
  8
1
100
AcDbLine
 10
6.5
 20
-90.539606064
 30
0.0
 11
0.0
 21
-90.539606064
 31
0.0
  0
LINE
  5
44F
330
1D
100
AcDbEntity
  8
NOCUT
100
AcDbLine
 10
0.0
 20
11.298203593
 30
0.0
 11
0.0
 21
96.188920642
 31
0.0
  0
LINE
  5
450
330
1D
100
AcDbEntity
  8
NOCUT
100
AcDbLine
 10
0.0
 20
96.188920642
 30
0.0
 11
0.4
 21
96.188920642
 31
0.0
  0
LINE
  5
451
330
1D
100
AcDbEntity
  8
NOCUT
100
AcDbLine
 10
0.4
 20
96.188920642
 30
0.0
 11
0.4
 21
97.298203593
 31
0.0
  0
LINE
  5
452
330
1D
100
AcDbEntity
  8
NOCUT
100
AcDbLine
 10
0.4
 20
97.298203593
 30
0.0
 11
14.95
 21
97.298203593
 31
0.0
  0
LINE
  5
453
330
1D
100
AcDbEntity
  8
NOCUT
100
AcDbLine
 10
14.95
 20
97.298203593
 30
0.0
 11
14.95
 21
94.920046933
 31
0.0
  0
LINE
  5
454
330
1D
100
AcDbEntity
  8
NOCUT
100
AcDbLine
 10
14.95
 20
94.920046933
 30
0.0
 11
15.0
 21
94.920046933
 31
0.0
  0
LINE
  5
455
330
1D
100
AcDbEntity
  8
NOCUT
100
AcDbLine
 10
16.5
 20
94.533039751
 30
0.0
 11
25.0
 21
94.533039751
 31
0.0
  0
LINE
  5
456
330
1D
100
AcDbEntity
  8
NOCUT
100
AcDbLine
 10
25.0
 20
94.533039751
 30
0.0
 11
25.0
 21
80.798203593
 31
0.0
  0
LINE
  5
457
330
1D
100
AcDbEntity
  8
NOCUT
100
AcDbLine
 10
25.0
 20
80.798203593
 30
0.0
 11
29.45
 21
80.798203593
 31
0.0
  0
LINE
  5
458
330
1D
100
AcDbEntity
  8
NOCUT
100
AcDbLine
 10
29.45
 20
80.798203593
 30
0.0
 11
29.45
 21
85.798203593
 31
0.0
  0
LINE
  5
459
330
1D
100
AcDbEntity
  8
NOCUT
100
AcDbLine
 10
29.45
 20
85.798203593
 30
0.0
 11
31.45
 21
85.798203593
 31
0.0
  0
LINE
  5
45A
330
1D
100
AcDbEntity
  8
NOCUT
100
AcDbLine
 10
31.45
 20
85.798203593
 30
0.0
 11
31.45
 21
83.798203593
 31
0.0
  0
LINE
  5
45B
330
1D
100
AcDbEntity
  8
NOCUT
100
AcDbLine
 10
31.45
 20
83.798203593
 30
0.0
 11
42.25
 21
83.798203593
 31
0.0
  0
LINE
  5
45C
330
1D
100
AcDbEntity
  8
NOCUT
100
AcDbLine
 10
43.45
 20
82.598203593
 30
0.0
 11
43.45
 21
38.998203593
 31
0.0
  0
LINE
  5
45D
330
1D
100
AcDbEntity
  8
NOCUT
100
AcDbLine
 10
42.25
 20
37.798203593
 30
0.0
 11
31.45
 21
37.798203593
 31
0.0
  0
LINE
  5
45E
330
1D
100
AcDbEntity
  8
NOCUT
100
AcDbLine
 10
31.45
 20
37.798203593
 30
0.0
 11
31.45
 21
35.798203593
 31
0.0
  0
LINE
  5
45F
330
1D
100
AcDbEntity
  8
NOCUT
100
AcDbLine
 10
31.45
 20
35.798203593
 30
0.0
 11
29.45
 21
35.798203593
 31
0.0
  0
LINE
  5
460
330
1D
100
AcDbEntity
  8
NOCUT
100
AcDbLine
 10
29.45
 20
35.798203593
 30
0.0
 11
29.45
 21
40.798203593
 31
0.0
  0
LINE
  5
461
330
1D
100
AcDbEntity
  8
NOCUT
100
AcDbLine
 10
29.45
 20
40.798203593
 30
0.0
 11
25.0
 21
40.798203593
 31
0.0
  0
LINE
  5
462
330
1D
100
AcDbEntity
  8
NOCUT
100
AcDbLine
 10
25.0
 20
40.798203593
 30
0.0
 11
25.0
 21
11.298203593
 31
0.0
  0
LINE
  5
463
330
1D
100
AcDbEntity
  8
NOCUT
100
AcDbLine
 10
25.0
 20
11.298203593
 30
0.0
 11
0.0
 21
11.298203593
 31
0.0
  0
LINE
  5
469
330
1D
100
AcDbEntity
  8
NOCUT
100
AcDbLine
 10
0.0
 20
-11.298203593
 30
0.0
 11
0.0
 21
-96.188920642
 31
0.0
  0
LINE
  5
46A
330
1D
100
AcDbEntity
  8
NOCUT
100
AcDbLine
 10
0.0
 20
-96.188920642
 30
0.0
 11
0.4
 21
-96.188920642
 31
0.0
  0
LINE
  5
46B
330
1D
100
AcDbEntity
  8
NOCUT
100
AcDbLine
 10
0.4
 20
-96.188920642
 30
0.0
 11
0.4
 21
-97.298203593
 31
0.0
  0
LINE
  5
46C
330
1D
100
AcDbEntity
  8
NOCUT
100
AcDbLine
 10
0.4
 20
-97.298203593
 30
0.0
 11
14.95
 21
-97.298203593
 31
0.0
  0
LINE
  5
46D
330
1D
100
AcDbEntity
  8
NOCUT
100
AcDbLine
 10
14.95
 20
-97.298203593
 30
0.0
 11
14.95
 21
-95.335993851
 31
0.0
  0
LINE
  5
46E
330
1D
100
AcDbEntity
  8
NOCUT
100
AcDbLine
 10
14.95
 20
-95.335993851
 30
0.0
 11
15.01470045141829
 21
-95.335993851
 31
0.0
  0
LINE
  5
46F
330
1D
100
AcDbEntity
  8
NOCUT
100
AcDbLine
 10
16.5
 20
-94.984504472
 30
0.0
 11
25.0
 21
-94.984504472
 31
0.0
  0
LINE
  5
470
330
1D
100
AcDbEntity
  8
NOCUT
100
AcDbLine
 10
25.0
 20
-94.984504472
 30
0.0
 11
25.0
 21
-80.798203593
 31
0.0
  0
LINE
  5
471
330
1D
100
AcDbEntity
  8
NOCUT
100
AcDbLine
 10
25.0
 20
-80.798203593
 30
0.0
 11
29.45
 21
-80.798203593
 31
0.0
  0
LINE
  5
472
330
1D
100
AcDbEntity
  8
NOCUT
100
AcDbLine
 10
29.45
 20
-80.798203593
 30
0.0
 11
29.45
 21
-85.798203593
 31
0.0
  0
LINE
  5
473
330
1D
100
AcDbEntity
  8
NOCUT
100
AcDbLine
 10
29.45
 20
-85.798203593
 30
0.0
 11
31.45
 21
-85.798203593
 31
0.0
  0
LINE
  5
474
330
1D
100
AcDbEntity
  8
NOCUT
100
AcDbLine
 10
31.45
 20
-85.798203593
 30
0.0
 11
31.45
 21
-83.798203593
 31
0.0
  0
LINE
  5
475
330
1D
100
AcDbEntity
  8
NOCUT
100
AcDbLine
 10
31.45
 20
-83.798203593
 30
0.0
 11
42.25
 21
-83.798203593
 31
0.0
  0
LINE
  5
476
330
1D
100
AcDbEntity
  8
NOCUT
100
AcDbLine
 10
43.45
 20
-82.598203593
 30
0.0
 11
43.45
 21
-38.998203593
 31
0.0
  0
LINE
  5
477
330
1D
100
AcDbEntity
  8
NOCUT
100
AcDbLine
 10
42.25
 20
-37.798203593
 30
0.0
 11
31.45
 21
-37.798203593
 31
0.0
  0
LINE
  5
478
330
1D
100
AcDbEntity
  8
NOCUT
100
AcDbLine
 10
31.45
 20
-37.798203593
 30
0.0
 11
31.45
 21
-35.798203593
 31
0.0
  0
LINE
  5
479
330
1D
100
AcDbEntity
  8
NOCUT
100
AcDbLine
 10
31.45
 20
-35.798203593
 30
0.0
 11
29.45
 21
-35.798203593
 31
0.0
  0
LINE
  5
47A
330
1D
100
AcDbEntity
  8
NOCUT
100
AcDbLine
 10
29.45
 20
-35.798203593
 30
0.0
 11
29.45
 21
-40.798203593
 31
0.0
  0
LINE
  5
47B
330
1D
100
AcDbEntity
  8
NOCUT
100
AcDbLine
 10
29.45
 20
-40.798203593
 30
0.0
 11
25.0
 21
-40.798203593
 31
0.0
  0
LINE
  5
47C
330
1D
100
AcDbEntity
  8
NOCUT
100
AcDbLine
 10
25.0
 20
-40.798203593
 30
0.0
 11
25.0
 21
-11.298203593
 31
0.0
  0
LINE
  5
47D
330
1D
100
AcDbEntity
  8
NOCUT
100
AcDbLine
 10
25.0
 20
-11.298203593
 30
0.0
 11
0.0
 21
-11.298203593
 31
0.0
  0
ARC
  5
47E
330
1D
100
AcDbEntity
  8
NOCUT
100
AcDbCircle
 10
15.46343236619373
 20
-95.66331460147464
 30
0.0
 40
0.5673697486888092
100
AcDbArc
 50
95.04295508000412
 51
144.7665649934928
  0
ARC
  5
47F
330
1D
100
AcDbEntity
  8
NOCUT
100
AcDbCircle
 10
16.46966611485482
 20
-99.94485571577876
 30
0.0
 40
4.960443992854423
100
AcDbArc
 50
89.64962522913628
 51
102.2926907330782
  0
ARC
  5
480
330
1D
100
AcDbEntity
  8
NOCUT
100
AcDbCircle
 10
16.53831355361839
 20
99.81092981259786
 30
0.0
 40
5.278029123707475
100
AcDbArc
 50
259.1268984339652
 51
269.5840825905817
  0
ARC
  5
481
330
1D
100
AcDbEntity
  8
NOCUT
100
AcDbCircle
 10
15.97162597844999
 20
96.65460111262485
 30
0.0
 40
2.071832822525945
100
AcDbArc
 50
244.7735671121765
 51
258.0516727991159
  0
LINE
  5
482
330
1D
100
AcDbEntity
  8
NOCUT
100
AcDbLine
 10
15.088617708
 20
94.780357895
 30
0.0
 11
15.0
 21
94.902307542
 31
0.0
  0
LWPOLYLINE
  5
484
330
1D
100
AcDbEntity
  8
INFTOTAL
100
AcDbPolyline
 90
        4
 70
     1
 43
0.0
 10
-92.95696379741526
 20
133.110975773019
 10
-92.95696379741526
 20
-134.2731071714464
 10
127.2950096110765
 20
-134.2731071714464
 10
127.2950096110765
 20
133.110975773019
  0
ARC
  5
489
330
1D
100
AcDbEntity
  8
1
100
AcDbCircle
 10
42.24999999999999
 20
82.59820359299998
 30
0.0
 40
1.200000000000015
100
AcDbArc
 50
0.0000000000006785
 51
89.99999999999933
  0
ARC
  5
48A
330
1D
100
AcDbEntity
  8
1
100
AcDbCircle
 10
42.24999999999999
 20
38.99820359300001
 30
0.0
 40
1.200000000000015
100
AcDbArc
 50
270.0000000000007
 51
359.9999999999993
  0
ARC
  5
48B
330
1D
100
AcDbEntity
  8
1
100
AcDbCircle
 10
42.24999999999999
 20
-38.99820359300001
 30
0.0
 40
1.200000000000015
100
AcDbArc
 50
0.0000000000006785
 51
89.99999999999933
  0
ARC
  5
48C
330
1D
100
AcDbEntity
  8
1
100
AcDbCircle
 10
42.24999999999999
 20
-82.59820359299998
 30
0.0
 40
1.200000000000015
100
AcDbArc
 50
270.0000000000007
 51
359.9999999999993
  0
CIRCLE
  5
4A2
330
1D
100
AcDbEntity
  8
1
100
AcDbCircle
 10
8.0
 20
-72.298203593
 30
0.0
 40
3.25
  0
ARC
  5
4D1
330
1D
100
AcDbEntity
  8
NOCUT
100
AcDbCircle
 10
42.24999999999999
 20
82.59820359299998
 30
0.0
 40
1.200000000000015
100
AcDbArc
 50
0.0000000000006785
 51
89.99999999999933
  0
ARC
  5
4D2
330
1D
100
AcDbEntity
  8
NOCUT
100
AcDbCircle
 10
42.24999999999999
 20
38.99820359300001
 30
0.0
 40
1.200000000000015
100
AcDbArc
 50
270.0000000000007
 51
359.9999999999993
  0
ARC
  5
4D3
330
1D
100
AcDbEntity
  8
NOCUT
100
AcDbCircle
 10
42.24999999999999
 20
-38.99820359300001
 30
0.0
 40
1.200000000000015
100
AcDbArc
 50
0.0000000000006785
 51
89.99999999999933
  0
ARC
  5
4D4
330
1D
100
AcDbEntity
  8
NOCUT
100
AcDbCircle
 10
42.24999999999999
 20
-82.59820359299998
 30
0.0
 40
1.200000000000015
100
AcDbArc
 50
270.0000000000007
 51
359.9999999999993
  0
ENDSEC
  0
SECTION
  2
OBJECTS
  0
DICTIONARY
  5
C
330
0
100
AcDbDictionary
281
     1
  3
ACAD_DETAILVIEWSTYLE
350
467
  3
ACAD_GROUP
350
D
  3
ACAD_LAYOUT
350
1A
  3
ACAD_MATERIAL
350
3E4
  3
ACAD_MLEADERSTYLE
350
3F2
  3
ACAD_MLINESTYLE
350
17
  3
ACAD_PLOTSETTINGS
350
19
  3
ACAD_PLOTSTYLENAME
350
E
  3
ACAD_SCALELIST
350
3AD
  3
ACAD_SECTIONVIEWSTYLE
350
468
  3
ACAD_TABLESTYLE
350
43B
  3
ACAD_VISUALSTYLE
350
3D3
  3
ACDB_RECOMPOSE_DATA
350
4D8
  3
AcDbVariableDictionary
350
3F0
  3
APPDATA
350
43E
  0
SUN
  5
4A0
330
3A6
100
AcDbSun
 90
        1
290
     0
 63
     7
421
 16777215
 40
1.0
291
     1
 91
  2455826
 92
 54000000
292
     0
 70
     2
 71
   256
280
     1
  0
DICTIONARY
  5
43F
330
2
100
AcDbDictionary
280
     1
281
     1
  3
ACAD_LAYERSTATES
360
440
  0
DICTIONARY
  5
467
102
{ACAD_REACTORS
330
C
102
}
330
C
100
AcDbDictionary
281
     1
  0
DICTIONARY
  5
D
102
{ACAD_REACTORS
330
C
102
}
330
C
100
AcDbDictionary
281
     1
  0
DICTIONARY
  5
1A
102
{ACAD_REACTORS
330
C
102
}
330
C
100
AcDbDictionary
281
     1
  3
Layout1
350
1C
  3
Model
350
1E
  0
DICTIONARY
  5
3E4
102
{ACAD_REACTORS
330
C
102
}
330
C
100
AcDbDictionary
281
     1
  3
ByBlock
350
3E6
  3
ByLayer
350
3E5
  3
Global
350
3E7
  0
DICTIONARY
  5
3F2
102
{ACAD_REACTORS
330
C
102
}
330
C
100
AcDbDictionary
281
     1
  3
Standard
350
43D
  0
DICTIONARY
  5
17
102
{ACAD_REACTORS
330
C
102
}
330
C
100
AcDbDictionary
281
     1
  3
Standard
350
18
  0
DICTIONARY
  5
19
102
{ACAD_REACTORS
330
C
102
}
330
C
100
AcDbDictionary
281
     1
  0
ACDBDICTIONARYWDFLT
  5
E
102
{ACAD_REACTORS
330
C
102
}
330
C
100
AcDbDictionary
281
     1
  3
Normal
350
F
100
AcDbDictionaryWithDefault
340
F
  0
DICTIONARY
  5
3AD
102
{ACAD_REACTORS
330
C
102
}
330
C
100
AcDbDictionary
281
     1
  3
A0
350
3AE
  3
A1
350
3AF
  3
A2
350
3B0
  3
A3
350
3B1
  3
A4
350
3B2
  3
A5
350
3B3
  3
A6
350
3B4
  3
A7
350
3B5
  3
A8
350
3B6
  3
A9
350
3B7
  3
B0
350
3B8
  3
B1
350
3B9
  3
B2
350
3BA
  3
B3
350
3BB
  3
B4
350
3BC
  3
B5
350
3BD
  3
B6
350
3BE
  3
B7
350
3BF
  3
B8
350
3C0
  3
B9
350
3C1
  3
C0
350
3C2
  3
C1
350
3C3
  3
C2
350
3C4
  3
C3
350
3C5
  3
C4
350
3C6
  3
C5
350
3C7
  3
C6
350
3C8
  3
C7
350
3C9
  3
C8
350
3CA
  3
C9
350
3CB
  3
D0
350
3CC
  3
D1
350
3CD
  3
D2
350
3CE
  0
DICTIONARY
  5
468
102
{ACAD_REACTORS
330
C
102
}
330
C
100
AcDbDictionary
281
     1
  0
DICTIONARY
  5
43B
102
{ACAD_REACTORS
330
C
102
}
330
C
100
AcDbDictionary
281
     1
  3
Standard
350
43C
  0
DICTIONARY
  5
3D3
102
{ACAD_REACTORS
330
C
102
}
330
C
100
AcDbDictionary
281
     1
  3
2dWireframe
350
3D8
  3
3D Hidden
350
3DA
  3
3dWireframe
350
3D9
  3
Basic
350
3DB
  3
Brighten
350
3DF
  3
ColorChange
350
3E3
  3
Conceptual
350
3DD
  3
Dim
350
3DE
  3
EdgeColorOff
350
435
  3
Facepattern
350
3E2
  3
Flat
350
3D4
  3
FlatWithEdges
350
3D5
  3
Gouraud
350
3D6
  3
GouraudWithEdges
350
3D7
  3
Hidden
350
432
  3
JitterOff
350
433
  3
Linepattern
350
3E1
  3
OverhangOff
350
434
  3
Realistic
350
3DC
  3
Shaded
350
43A
  3
Shaded with edges
350
439
  3
Shades of Gray
350
436
  3
Sketchy
350
437
  3
Thicken
350
3E0
  3
Wireframe
350
431
  3
X-Ray
350
438
  0
XRECORD
  5
4D8
102
{ACAD_REACTORS
330
C
102
}
330
C
100
AcDbXrecord
280
     1
 90
        1
330
43C
  0
DICTIONARY
  5
3F0
102
{ACAD_REACTORS
330
C
102
}
330
C
100
AcDbDictionary
281
     1
  3
CANNOSCALE
350
464
  3
CMLEADERSTYLE
350
466
  3
CTABLESTYLE
350
465
  3
DIMASSOC
350
3F4
  3
HIDETEXT
350
3F5
  3
MSLTSCALE
350
3F3
  0
DICTIONARY
  5
43E
102
{ACAD_REACTORS
330
C
102
}
330
C
100
AcDbDictionary
281
     1
  0
DICTIONARY
  5
440
102
{ACAD_REACTORS
330
43F
102
}
330
43F
100
AcDbDictionary
281
     1
  0
LAYOUT
  5
1C
102
{ACAD_REACTORS
330
1A
102
}
330
1A
100
AcDbPlotSettings
  1

  2
none_device
  4

  6

 40
0.0
 41
0.0
 42
0.0
 43
0.0
 44
0.0
 45
0.0
 46
0.0
 47
0.0
 48
0.0
 49
0.0
140
0.0
141
0.0
142
1.0
143
1.0
 70
   688
 72
     0
 73
     0
 74
     5
  7

 75
    16
 76
     0
 77
     2
 78
   300
147
1.0
148
0.0
149
0.0
100
AcDbLayout
  1
Layout1
 70
     1
 71
     1
 10
0.0
 20
0.0
 11
12.0
 21
9.0
 12
0.0
 22
0.0
 32
0.0
 14
1.000000000000000E+20
 24
1.000000000000000E+20
 34
1.000000000000000E+20
 15
-1.000000000000000E+20
 25
-1.000000000000000E+20
 35
-1.000000000000000E+20
146
0.0
 13
0.0
 23
0.0
 33
0.0
 16
1.0
 26
0.0
 36
0.0
 17
0.0
 27
1.0
 37
0.0
 76
     0
330
1B
  0
LAYOUT
  5
1E
102
{ACAD_REACTORS
330
1A
102
}
330
1A
100
AcDbPlotSettings
  1

  2
none_device
  4

  6

 40
0.0
 41
0.0
 42
0.0
 43
0.0
 44
0.0
 45
0.0
 46
0.0
 47
0.0
 48
0.0
 49
0.0
140
0.0
141
0.0
142
1.0
143
1.0
 70
  1712
 72
     0
 73
     0
 74
     0
  7

 75
     0
 76
     0
 77
     2
 78
   300
147
1.0
148
0.0
149
0.0
100
AcDbLayout
  1
Model
 70
     1
 71
     0
 10
0.0
 20
0.0
 11
12.0
 21
9.0
 12
0.0
 22
0.0
 32
0.0
 14
-92.95696379741526
 24
-134.2731071714464
 34
0.0
 15
127.2950096110765
 25
133.110975773019
 35
0.0
146
0.0
 13
0.0
 23
0.0
 33
0.0
 16
1.0
 26
0.0
 36
0.0
 17
0.0
 27
1.0
 37
0.0
 76
     0
330
1D
331
3A6
  0
MATERIAL
  5
3E6
102
{ACAD_REACTORS
330
3E4
102
}
330
3E4
100
AcDbMaterial
  1
ByBlock
 72
     1
 94
      127
  0
MATERIAL
  5
3E5
102
{ACAD_REACTORS
330
3E4
102
}
330
3E4
100
AcDbMaterial
  1
ByLayer
 72
     1
 94
      127
  0
MATERIAL
  5
3E7
102
{ACAD_REACTORS
330
3E4
102
}
330
3E4
100
AcDbMaterial
  1
Global
 72
     1
 94
      127
  0
MLEADERSTYLE
  5
43D
102
{ACAD_REACTORS
330
3F2
102
}
330
3F2
100
AcDbMLeaderStyle
179
     2
170
     2
171
     1
172
     0
 90
        2
 40
0.0
 41
0.0
173
     1
 91
-1056964608
340
14
 92
       -2
290
     1
 42
0.09
291
     1
 43
0.36
  3
Standard
341
0
 44
0.18
300

342
11
174
     1
178
     1
175
     1
176
     0
 93
-1056964608
 45
0.18
292
     0
297
     0
 46
0.18
343
0
 94
-1056964608
 47
1.0
 49
1.0
140
1.0
293
     1
141
0.0
294
     1
177
     0
142
1.0
295
     0
296
     0
143
0.125
271
     0
272
     9
273
     9
298
     0
  0
MLINESTYLE
  5
18
102
{ACAD_REACTORS
330
17
102
}
330
17
100
AcDbMlineStyle
  2
Standard
 70
     0
  3

 62
   256
 51
90.0
 52
90.0
 71
     2
 49
0.5
 62
   256
  6
BYLAYER
 49
-0.5
 62
   256
  6
BYLAYER
  0
ACDBPLACEHOLDER
  5
F
102
{ACAD_REACTORS
330
E
102
}
330
E
  0
SCALE
  5
3AE
102
{ACAD_REACTORS
330
3AD
102
}
330
3AD
100
AcDbScale
 70
     0
300
1:1
140
1.0
141
1.0
290
     1
  0
SCALE
  5
3AF
102
{ACAD_REACTORS
330
3AD
102
}
330
3AD
100
AcDbScale
 70
     0
300
1:2
140
1.0
141
2.0
290
     0
  0
SCALE
  5
3B0
102
{ACAD_REACTORS
330
3AD
102
}
330
3AD
100
AcDbScale
 70
     0
300
1:4
140
1.0
141
4.0
290
     0
  0
SCALE
  5
3B1
102
{ACAD_REACTORS
330
3AD
102
}
330
3AD
100
AcDbScale
 70
     0
300
1:5
140
1.0
141
5.0
290
     0
  0
SCALE
  5
3B2
102
{ACAD_REACTORS
330
3AD
102
}
330
3AD
100
AcDbScale
 70
     0
300
1:8
140
1.0
141
8.0
290
     0
  0
SCALE
  5
3B3
102
{ACAD_REACTORS
330
3AD
102
}
330
3AD
100
AcDbScale
 70
     0
300
1:10
140
1.0
141
10.0
290
     0
  0
SCALE
  5
3B4
102
{ACAD_REACTORS
330
3AD
102
}
330
3AD
100
AcDbScale
 70
     0
300
1:16
140
1.0
141
16.0
290
     0
  0
SCALE
  5
3B5
102
{ACAD_REACTORS
330
3AD
102
}
330
3AD
100
AcDbScale
 70
     0
300
1:20
140
1.0
141
20.0
290
     0
  0
SCALE
  5
3B6
102
{ACAD_REACTORS
330
3AD
102
}
330
3AD
100
AcDbScale
 70
     0
300
1:30
140
1.0
141
30.0
290
     0
  0
SCALE
  5
3B7
102
{ACAD_REACTORS
330
3AD
102
}
330
3AD
100
AcDbScale
 70
     0
300
1:40
140
1.0
141
40.0
290
     0
  0
SCALE
  5
3B8
102
{ACAD_REACTORS
330
3AD
102
}
330
3AD
100
AcDbScale
 70
     0
300
1:50
140
1.0
141
50.0
290
     0
  0
SCALE
  5
3B9
102
{ACAD_REACTORS
330
3AD
102
}
330
3AD
100
AcDbScale
 70
     0
300
1:100
140
1.0
141
100.0
290
     0
  0
SCALE
  5
3BA
102
{ACAD_REACTORS
330
3AD
102
}
330
3AD
100
AcDbScale
 70
     0
300
2:1
140
2.0
141
1.0
290
     0
  0
SCALE
  5
3BB
102
{ACAD_REACTORS
330
3AD
102
}
330
3AD
100
AcDbScale
 70
     0
300
4:1
140
4.0
141
1.0
290
     0
  0
SCALE
  5
3BC
102
{ACAD_REACTORS
330
3AD
102
}
330
3AD
100
AcDbScale
 70
     0
300
8:1
140
8.0
141
1.0
290
     0
  0
SCALE
  5
3BD
102
{ACAD_REACTORS
330
3AD
102
}
330
3AD
100
AcDbScale
 70
     0
300
10:1
140
10.0
141
1.0
290
     0
  0
SCALE
  5
3BE
102
{ACAD_REACTORS
330
3AD
102
}
330
3AD
100
AcDbScale
 70
     0
300
100:1
140
100.0
141
1.0
290
     0
  0
SCALE
  5
3BF
102
{ACAD_REACTORS
330
3AD
102
}
330
3AD
100
AcDbScale
 70
     0
300
1/128" = 1'-0"
140
0.0078125
141
12.0
290
     0
  0
SCALE
  5
3C0
102
{ACAD_REACTORS
330
3AD
102
}
330
3AD
100
AcDbScale
 70
     0
300
1/64" = 1'-0"
140
0.015625
141
12.0
290
     0
  0
SCALE
  5
3C1
102
{ACAD_REACTORS
330
3AD
102
}
330
3AD
100
AcDbScale
 70
     0
300
1/32" = 1'-0"
140
0.03125
141
12.0
290
     0
  0
SCALE
  5
3C2
102
{ACAD_REACTORS
330
3AD
102
}
330
3AD
100
AcDbScale
 70
     0
300
1/16" = 1'-0"
140
0.0625
141
12.0
290
     0
  0
SCALE
  5
3C3
102
{ACAD_REACTORS
330
3AD
102
}
330
3AD
100
AcDbScale
 70
     0
300
3/32" = 1'-0"
140
0.09375
141
12.0
290
     0
  0
SCALE
  5
3C4
102
{ACAD_REACTORS
330
3AD
102
}
330
3AD
100
AcDbScale
 70
     0
300
1/8" = 1'-0"
140
0.125
141
12.0
290
     0
  0
SCALE
  5
3C5
102
{ACAD_REACTORS
330
3AD
102
}
330
3AD
100
AcDbScale
 70
     0
300
3/16" = 1'-0"
140
0.1875
141
12.0
290
     0
  0
SCALE
  5
3C6
102
{ACAD_REACTORS
330
3AD
102
}
330
3AD
100
AcDbScale
 70
     0
300
1/4" = 1'-0"
140
0.25
141
12.0
290
     0
  0
SCALE
  5
3C7
102
{ACAD_REACTORS
330
3AD
102
}
330
3AD
100
AcDbScale
 70
     0
300
3/8" = 1'-0"
140
0.375
141
12.0
290
     0
  0
SCALE
  5
3C8
102
{ACAD_REACTORS
330
3AD
102
}
330
3AD
100
AcDbScale
 70
     0
300
1/2" = 1'-0"
140
0.5
141
12.0
290
     0
  0
SCALE
  5
3C9
102
{ACAD_REACTORS
330
3AD
102
}
330
3AD
100
AcDbScale
 70
     0
300
3/4" = 1'-0"
140
0.75
141
12.0
290
     0
  0
SCALE
  5
3CA
102
{ACAD_REACTORS
330
3AD
102
}
330
3AD
100
AcDbScale
 70
     0
300
1" = 1'-0"
140
1.0
141
12.0
290
     0
  0
SCALE
  5
3CB
102
{ACAD_REACTORS
330
3AD
102
}
330
3AD
100
AcDbScale
 70
     0
300
1-1/2" = 1'-0"
140
1.5
141
12.0
290
     0
  0
SCALE
  5
3CC
102
{ACAD_REACTORS
330
3AD
102
}
330
3AD
100
AcDbScale
 70
     0
300
3" = 1'-0"
140
3.0
141
12.0
290
     0
  0
SCALE
  5
3CD
102
{ACAD_REACTORS
330
3AD
102
}
330
3AD
100
AcDbScale
 70
     0
300
6" = 1'-0"
140
6.0
141
12.0
290
     0
  0
SCALE
  5
3CE
102
{ACAD_REACTORS
330
3AD
102
}
330
3AD
100
AcDbScale
 70
     0
300
1'-0" = 1'-0"
140
12.0
141
12.0
290
     0
  0
TABLESTYLE
  5
43C
102
{ACAD_REACTORS
330
43B
102
}
102
{ACAD_XDICTIONARY
360
4D6
102
}
330
43B
100
AcDbTableStyle
  3
Standard
 70
     0
 71
     0
 40
0.06
 41
0.06
280
     0
281
     0
  7
Standard
140
0.18
170
     2
 62
     0
 63
   257
283
     0
 90
        4
 91
        0
  1

274
    -2
284
     1
 64
     0
275
    -2
285
     1
 65
     0
276
    -2
286
     1
 66
     0
277
    -2
287
     1
 67
     0
278
    -2
288
     1
 68
     0
279
    -2
289
     1
 69
     0
  7
Standard
140
0.25
170
     5
 62
     0
 63
   257
283
     0
 90
        4
 91
        0
  1

274
    -2
284
     1
 64
     0
275
    -2
285
     1
 65
     0
276
    -2
286
     1
 66
     0
277
    -2
287
     1
 67
     0
278
    -2
288
     1
 68
     0
279
    -2
289
     1
 69
     0
  7
Standard
140
0.18
170
     5
 62
     0
 63
   257
283
     0
 90
        4
 91
        0
  1

274
    -2
284
     1
 64
     0
275
    -2
285
     1
 65
     0
276
    -2
286
     1
 66
     0
277
    -2
287
     1
 67
     0
278
    -2
288
     1
 68
     0
279
    -2
289
     1
 69
     0
  0
VISUALSTYLE
  5
3D8
102
{ACAD_REACTORS
330
3D3
102
}
330
3D3
100
AcDbVisualStyle
  2
2dWireframe
 70
     4
177
     3
291
     0
 70
    58
 90
        0
176
     1
 90
        2
176
     1
 90
        0
176
     1
 90
        0
176
     1
 40
-0.6
176
     1
 40
-30.0
176
     1
 62
     7
176
     1
 90
        1
176
     1
 90
        4
176
     1
 62
     7
176
     1
 62
   257
176
     1
 90
        1
176
     1
 90
        1
176
     1
 40
1.0
176
     1
 90
        0
176
     1
 62
   257
176
     1
 40
1.0
176
     1
 90
        1
176
     1
 90
        6
176
     1
 90
        2
176
     1
 62
     7
176
     1
 90
        5
176
     1
 90
        0
176
     1
 90
        0
176
     1
290
     0
176
     1
 90
        1
176
     1
 40
0.0
176
     1
 90
        0
176
     1
290
     1
176
     1
290
     1
176
     1
290
     0
176
     1
290
     0
176
     1
290
     0
176
     1
290
     0
176
     1
290
     0
176
     1
290
     0
176
     1
290
     0
176
     1
 90
       50
176
     1
 40
0.0
176
     1
 40
1.0
176
     1
 90
        0
176
     1
 62
    18
420
        0
176
     1
 90
       50
176
     1
 90
        3
176
     1
 62
     5
420
      255
176
     1
290
     0
176
     1
 90
       50
176
     1
 90
       50
176
     1
 90
       50
176
     1
290
     0
176
     1
 90
       50
176
     1
 62
   256
176
     0
 40
1.0
176
     0
 90
        2
176
     1
  1
strokes_ogs.tif
176
     1
290
     0
176
     1
 40
1.0
176
     1
 40
1.0
176
     1
  0
VISUALSTYLE
  5
3DA
102
{ACAD_REACTORS
330
3D3
102
}
330
3D3
100
AcDbVisualStyle
  2
3D Hidden
 70
     6
177
     3
291
     0
 70
    58
 90
        1
176
     1
 90
        2
176
     1
 90
        2
176
     1
 90
        0
176
     1
 40
-0.6
176
     1
 40
-30.0
176
     1
 62
     7
176
     1
 90
        2
176
     1
 90
        2
176
     1
 62
     7
176
     1
 62
   257
176
     1
 90
        2
176
     1
 90
        1
176
     1
 40
40.0
176
     1
 90
        0
176
     1
 62
   257
176
     1
 40
1.0
176
     1
 90
        1
176
     1
 90
        6
176
     1
 90
        2
176
     1
 62
     7
176
     1
 90
        3
176
     1
 90
        0
176
     1
 90
        0
176
     1
290
     0
176
     1
 90
        1
176
     1
 40
0.0
176
     1
 90
        0
176
     1
290
     0
176
     1
290
     1
176
     1
290
     1
176
     1
290
     0
176
     1
290
     0
176
     1
290
     0
176
     1
290
     0
176
     1
290
     0
176
     1
290
     0
176
     1
 90
       50
176
     1
 40
0.0
176
     1
 40
1.0
176
     1
 90
        0
176
     1
 62
    18
420
        0
176
     1
 90
       50
176
     1
 90
        3
176
     1
 62
     5
420
      255
176
     1
290
     0
176
     1
 90
       50
176
     1
 90
       50
176
     1
 90
       50
176
     1
290
     0
176
     1
 90
       50
176
     1
 62
   256
176
     0
 40
1.0
176
     0
 90
        2
176
     1
  1
strokes_ogs.tif
176
     1
290
     0
176
     1
 40
1.0
176
     1
 40
1.0
176
     1
  0
VISUALSTYLE
  5
3D9
102
{ACAD_REACTORS
330
3D3
102
}
330
3D3
100
AcDbVisualStyle
  2
3dWireframe
 70
     5
177
     3
291
     0
 70
    58
 90
        0
176
     1
 90
        2
176
     1
 90
        0
176
     1
 90
        0
176
     1
 40
-0.6
176
     1
 40
-30.0
176
     1
 62
     7
176
     1
 90
        1
176
     1
 90
        4
176
     1
 62
     7
176
     1
 62
   257
176
     1
 90
        1
176
     1
 90
        1
176
     1
 40
1.0
176
     1
 90
        0
176
     1
 62
   257
176
     1
 40
1.0
176
     1
 90
        1
176
     1
 90
        6
176
     1
 90
        2
176
     1
 62
     7
176
     1
 90
        5
176
     1
 90
        0
176
     1
 90
        0
176
     1
290
     0
176
     1
 90
        1
176
     1
 40
0.0
176
     1
 90
        0
176
     1
290
     0
176
     1
290
     1
176
     1
290
     1
176
     1
290
     0
176
     1
290
     0
176
     1
290
     0
176
     1
290
     0
176
     1
290
     0
176
     1
290
     0
176
     1
 90
       50
176
     1
 40
0.0
176
     1
 40
1.0
176
     1
 90
        0
176
     1
 62
    18
420
        0
176
     1
 90
       50
176
     1
 90
        3
176
     1
 62
     5
420
      255
176
     1
290
     0
176
     1
 90
       50
176
     1
 90
       50
176
     1
 90
       50
176
     1
290
     0
176
     1
 90
       50
176
     1
 62
   256
176
     0
 40
1.0
176
     0
 90
        2
176
     1
  1
strokes_ogs.tif
176
     1
290
     0
176
     1
 40
1.0
176
     1
 40
1.0
176
     1
  0
VISUALSTYLE
  5
3DB
102
{ACAD_REACTORS
330
3D3
102
}
330
3D3
100
AcDbVisualStyle
  2
Basic
 70
     7
177
     3
291
     1
 70
    58
 90
        1
176
     1
 90
        0
176
     1
 90
        1
176
     1
 90
        0
176
     1
 40
-0.6
176
     1
 40
-30.0
176
     1
 62
     7
176
     1
 90
        0
176
     1
 90
        4
176
     1
 62
     7
176
     1
 62
   257
176
     1
 90
        1
176
     1
 90
        1
176
     1
 40
1.0
176
     1
 90
        8
176
     1
 62
     7
176
     1
 40
1.0
176
     1
 90
        1
176
     1
 90
        6
176
     1
 90
        2
176
     1
 62
     7
176
     1
 90
        5
176
     1
 90
        0
176
     1
 90
        0
176
     1
290
     0
176
     1
 90
        1
176
     1
 40
0.0
176
     1
 90
        0
176
     1
290
     0
176
     1
290
     1
176
     1
290
     1
176
     1
290
     0
176
     1
290
     0
176
     1
290
     0
176
     1
290
     0
176
     1
290
     0
176
     1
290
     0
176
     1
 90
       50
176
     1
 40
0.0
176
     1
 40
1.0
176
     1
 90
        0
176
     1
 62
    18
420
        0
176
     1
 90
       50
176
     1
 90
        3
176
     1
 62
     5
420
      255
176
     1
290
     0
176
     1
 90
       50
176
     1
 90
       50
176
     1
 90
       50
176
     1
290
     0
176
     1
 90
       50
176
     1
 62
   256
176
     0
 40
1.0
176
     0
 90
        2
176
     1
  1
strokes_ogs.tif
176
     1
290
     0
176
     1
 40
1.0
176
     1
 40
1.0
176
     1
  0
VISUALSTYLE
  5
3DF
102
{ACAD_REACTORS
330
3D3
102
}
330
3D3
100
AcDbVisualStyle
  2
Brighten
 70
    12
177
     3
291
     1
 70
    58
 90
        2
176
     1
 90
        2
176
     1
 90
        0
176
     1
 90
        0
176
     1
 40
-0.6
176
     1
 40
-30.0
176
     1
 62
     7
176
     1
 90
        1
176
     1
 90
        4
176
     1
 62
     7
176
     1
 62
   257
176
     1
 90
        1
176
     1
 90
        1
176
     1
 40
1.0
176
     1
 90
        8
176
     1
 62
     7
176
     1
 40
1.0
176
     1
 90
        1
176
     1
 90
        6
176
     1
 90
        2
176
     1
 62
     7
176
     1
 90
        5
176
     1
 90
        0
176
     1
 90
        0
176
     1
290
     0
176
     1
 90
        1
176
     1
 40
50.0
176
     1
 90
        0
176
     1
290
     0
176
     1
290
     1
176
     1
290
     1
176
     1
290
     0
176
     1
290
     0
176
     1
290
     0
176
     1
290
     0
176
     1
290
     0
176
     1
290
     0
176
     1
 90
       50
176
     1
 40
0.0
176
     1
 40
1.0
176
     1
 90
        0
176
     1
 62
    18
420
        0
176
     1
 90
       50
176
     1
 90
        3
176
     1
 62
     5
420
      255
176
     1
290
     0
176
     1
 90
       50
176
     1
 90
       50
176
     1
 90
       50
176
     1
290
     0
176
     1
 90
       50
176
     1
 62
   256
176
     0
 40
1.0
176
     0
 90
        2
176
     1
  1
strokes_ogs.tif
176
     1
290
     0
176
     1
 40
1.0
176
     1
 40
1.0
176
     1
  0
VISUALSTYLE
  5
3E3
102
{ACAD_REACTORS
330
3D3
102
}
330
3D3
100
AcDbVisualStyle
  2
ColorChange
 70
    16
177
     3
291
     1
 70
    58
 90
        2
176
     1
 90
        2
176
     1
 90
        3
176
     1
 90
        0
176
     1
 40
-0.6
176
     1
 40
-30.0
176
     1
 62
     8
176
     1
 90
        1
176
     1
 90
        4
176
     1
 62
     7
176
     1
 62
   257
176
     1
 90
        1
176
     1
 90
        1
176
     1
 40
1.0
176
     1
 90
        8
176
     1
 62
     8
176
     1
 40
1.0
176
     1
 90
        1
176
     1
 90
        6
176
     1
 90
        2
176
     1
 62
     7
176
     1
 90
        5
176
     1
 90
        0
176
     1
 90
        0
176
     1
290
     0
176
     1
 90
        1
176
     1
 40
0.0
176
     1
 90
        0
176
     1
290
     0
176
     1
290
     1
176
     1
290
     1
176
     1
290
     0
176
     1
290
     0
176
     1
290
     0
176
     1
290
     0
176
     1
290
     0
176
     1
290
     0
176
     1
 90
       50
176
     1
 40
0.0
176
     1
 40
1.0
176
     1
 90
        0
176
     1
 62
    18
420
        0
176
     1
 90
       50
176
     1
 90
        3
176
     1
 62
     5
420
      255
176
     1
290
     0
176
     1
 90
       50
176
     1
 90
       50
176
     1
 90
       50
176
     1
290
     0
176
     1
 90
       50
176
     1
 62
   256
176
     0
 40
1.0
176
     0
 90
        2
176
     1
  1
strokes_ogs.tif
176
     1
290
     0
176
     1
 40
1.0
176
     1
 40
1.0
176
     1
  0
VISUALSTYLE
  5
3DD
102
{ACAD_REACTORS
330
3D3
102
}
330
3D3
100
AcDbVisualStyle
  2
Conceptual
 70
     9
177
     3
291
     0
 70
    58
 90
        3
176
     1
 90
        2
176
     1
 90
        0
176
     1
 90
        0
176
     1
 40
-0.6
176
     1
 40
-30.0
176
     1
 62
     7
176
     1
 90
        2
176
     1
 90
        2
176
     1
 62
     7
176
     1
 62
   257
176
     1
 90
        1
176
     1
 90
        1
176
     1
 40
40.0
176
     1
 90
        8
176
     1
 62
     7
176
     1
 40
1.0
176
     1
 90
        1
176
     1
 90
        6
176
     1
 90
        2
176
     1
 62
     7
176
     1
 90
        3
176
     1
 90
        0
176
     1
 90
        0
176
     1
290
     0
176
     1
 90
        1
176
     1
 40
0.0
176
     1
 90
        0
176
     1
290
     0
176
     1
290
     1
176
     1
290
     1
176
     1
290
     0
176
     1
290
     0
176
     1
290
     0
176
     1
290
     0
176
     1
290
     0
176
     1
290
     0
176
     1
 90
       50
176
     1
 40
0.0
176
     1
 40
1.0
176
     1
 90
        0
176
     1
 62
    18
420
        0
176
     1
 90
       50
176
     1
 90
        3
176
     1
 62
     5
420
      255
176
     1
290
     0
176
     1
 90
       50
176
     1
 90
       50
176
     1
 90
       50
176
     1
290
     0
176
     1
 90
       50
176
     1
 62
   256
176
     0
 40
1.0
176
     0
 90
        2
176
     1
  1
strokes_ogs.tif
176
     1
290
     0
176
     1
 40
1.0
176
     1
 40
1.0
176
     1
  0
VISUALSTYLE
  5
3DE
102
{ACAD_REACTORS
330
3D3
102
}
330
3D3
100
AcDbVisualStyle
  2
Dim
 70
    11
177
     3
291
     1
 70
    58
 90
        2
176
     1
 90
        2
176
     1
 90
        0
176
     1
 90
        0
176
     1
 40
-0.6
176
     1
 40
-30.0
176
     1
 62
     7
176
     1
 90
        1
176
     1
 90
        4
176
     1
 62
     7
176
     1
 62
   257
176
     1
 90
        1
176
     1
 90
        1
176
     1
 40
1.0
176
     1
 90
        8
176
     1
 62
     7
176
     1
 40
1.0
176
     1
 90
        1
176
     1
 90
        6
176
     1
 90
        2
176
     1
 62
     7
176
     1
 90
        5
176
     1
 90
        0
176
     1
 90
        0
176
     1
290
     0
176
     1
 90
        1
176
     1
 40
-50.0
176
     1
 90
        0
176
     1
290
     0
176
     1
290
     1
176
     1
290
     1
176
     1
290
     0
176
     1
290
     0
176
     1
290
     0
176
     1
290
     0
176
     1
290
     0
176
     1
290
     0
176
     1
 90
       50
176
     1
 40
0.0
176
     1
 40
1.0
176
     1
 90
        0
176
     1
 62
    18
420
        0
176
     1
 90
       50
176
     1
 90
        3
176
     1
 62
     5
420
      255
176
     1
290
     0
176
     1
 90
       50
176
     1
 90
       50
176
     1
 90
       50
176
     1
290
     0
176
     1
 90
       50
176
     1
 62
   256
176
     0
 40
1.0
176
     0
 90
        2
176
     1
  1
strokes_ogs.tif
176
     1
290
     0
176
     1
 40
1.0
176
     1
 40
1.0
176
     1
  0
VISUALSTYLE
  5
435
102
{ACAD_REACTORS
330
3D3
102
}
330
3D3
100
AcDbVisualStyle
  2
EdgeColorOff
 70
    22
177
     3
291
     1
 70
    58
 90
        2
176
     0
 90
        2
176
     0
 90
        0
176
     0
 90
        0
176
     0
 40
0.6
176
     0
 40
30.0
176
     0
 62
     7
420
 16777215
176
     0
 90
        1
176
     0
 90
        4
176
     0
 62
     7
176
     0
 62
   257
176
     0
 90
        1
176
     0
 90
        1
176
     0
 40
1.0
176
     0
 90
        8
176
     2
 62
     7
176
     0
 40
1.0
176
     0
 90
        1
176
     0
 90
        6
176
     0
 90
        2
176
     0
 62
     7
176
     0
 90
        5
176
     0
 90
        0
176
     0
 90
        0
176
     0
290
     0
176
     0
 90
        1
176
     0
 40
0.0
176
     0
 90
        0
176
     0
290
     0
176
     0
290
     1
176
     0
290
     1
176
     0
290
     0
176
     0
290
     0
176
     0
290
     0
176
     0
290
     0
176
     0
290
     0
176
     0
290
     0
176
     0
 90
       50
176
     0
 40
0.0
176
     0
 40
1.0
176
     0
 90
        0
176
     0
 62
    18
420
        0
176
     0
 90
       50
176
     0
 90
        3
176
     0
 62
     5
420
      255
176
     0
290
     0
176
     0
 90
       50
176
     0
 90
       50
176
     0
 90
       50
176
     0
290
     0
176
     0
 90
       50
176
     0
 62
   256
176
     0
 40
1.0
176
     0
 90
        2
176
     0
  1
strokes_ogs.tif
176
     0
290
     0
176
     0
 40
1.0
176
     0
 40
1.0
176
     0
  0
VISUALSTYLE
  5
3E2
102
{ACAD_REACTORS
330
3D3
102
}
330
3D3
100
AcDbVisualStyle
  2
Facepattern
 70
    15
177
     3
291
     1
 70
    58
 90
        2
176
     1
 90
        2
176
     1
 90
        0
176
     1
 90
        0
176
     1
 40
-0.6
176
     1
 40
-30.0
176
     1
 62
     7
176
     1
 90
        1
176
     1
 90
        4
176
     1
 62
     7
176
     1
 62
   257
176
     1
 90
        1
176
     1
 90
        1
176
     1
 40
1.0
176
     1
 90
        8
176
     1
 62
     7
176
     1
 40
1.0
176
     1
 90
        1
176
     1
 90
        6
176
     1
 90
        2
176
     1
 62
     7
176
     1
 90
        5
176
     1
 90
        0
176
     1
 90
        0
176
     1
290
     0
176
     1
 90
        1
176
     1
 40
0.0
176
     1
 90
        0
176
     1
290
     0
176
     1
290
     1
176
     1
290
     1
176
     1
290
     0
176
     1
290
     0
176
     1
290
     0
176
     1
290
     0
176
     1
290
     0
176
     1
290
     0
176
     1
 90
       50
176
     1
 40
0.0
176
     1
 40
1.0
176
     1
 90
        0
176
     1
 62
    18
420
        0
176
     1
 90
       50
176
     1
 90
        3
176
     1
 62
     5
420
      255
176
     1
290
     0
176
     1
 90
       50
176
     1
 90
       50
176
     1
 90
       50
176
     1
290
     0
176
     1
 90
       50
176
     1
 62
   256
176
     0
 40
1.0
176
     0
 90
        2
176
     1
  1
strokes_ogs.tif
176
     1
290
     0
176
     1
 40
1.0
176
     1
 40
1.0
176
     1
  0
VISUALSTYLE
  5
3D4
102
{ACAD_REACTORS
330
3D3
102
}
330
3D3
100
AcDbVisualStyle
  2
Flat
 70
     0
177
     3
291
     1
 70
    58
 90
        2
176
     1
 90
        1
176
     1
 90
        1
176
     1
 90
        2
176
     1
 40
-0.6
176
     1
 40
30.0
176
     1
 62
     7
176
     1
 90
        0
176
     1
 90
        4
176
     1
 62
     7
176
     1
 62
   257
176
     1
 90
        1
176
     1
 90
        1
176
     1
 40
1.0
176
     1
 90
        8
176
     1
 62
     7
176
     1
 40
1.0
176
     1
 90
        1
176
     1
 90
        6
176
     1
 90
        2
176
     1
 62
     7
176
     1
 90
        5
176
     1
 90
        0
176
     1
 90
        0
176
     1
290
     0
176
     1
 90
       13
176
     1
 40
0.0
176
     1
 90
        0
176
     1
290
     0
176
     1
290
     1
176
     1
290
     1
176
     1
290
     0
176
     1
290
     0
176
     1
290
     0
176
     1
290
     0
176
     1
290
     0
176
     1
290
     0
176
     1
 90
       50
176
     1
 40
0.0
176
     1
 40
1.0
176
     1
 90
        0
176
     1
 62
    18
420
        0
176
     1
 90
       50
176
     1
 90
        3
176
     1
 62
     5
420
      255
176
     1
290
     0
176
     1
 90
       50
176
     1
 90
       50
176
     1
 90
       50
176
     1
290
     0
176
     1
 90
       50
176
     1
 62
   256
176
     0
 40
1.0
176
     0
 90
        2
176
     1
  1
strokes_ogs.tif
176
     1
290
     0
176
     1
 40
1.0
176
     1
 40
1.0
176
     1
  0
VISUALSTYLE
  5
3D5
102
{ACAD_REACTORS
330
3D3
102
}
330
3D3
100
AcDbVisualStyle
  2
FlatWithEdges
 70
     1
177
     3
291
     1
 70
    58
 90
        2
176
     1
 90
        1
176
     1
 90
        1
176
     1
 90
        2
176
     1
 40
-0.6
176
     1
 40
30.0
176
     1
 62
     7
176
     1
 90
        1
176
     1
 90
        4
176
     1
 62
     7
176
     1
 62
   257
176
     1
 90
        1
176
     1
 90
        1
176
     1
 40
1.0
176
     1
 90
        0
176
     1
 62
   257
176
     1
 40
1.0
176
     1
 90
        1
176
     1
 90
        6
176
     1
 90
        2
176
     1
 62
     7
176
     1
 90
        5
176
     1
 90
        0
176
     1
 90
        0
176
     1
290
     0
176
     1
 90
       13
176
     1
 40
0.0
176
     1
 90
        0
176
     1
290
     0
176
     1
290
     1
176
     1
290
     1
176
     1
290
     0
176
     1
290
     0
176
     1
290
     0
176
     1
290
     0
176
     1
290
     0
176
     1
290
     0
176
     1
 90
       50
176
     1
 40
0.0
176
     1
 40
1.0
176
     1
 90
        0
176
     1
 62
    18
420
        0
176
     1
 90
       50
176
     1
 90
        3
176
     1
 62
     5
420
      255
176
     1
290
     0
176
     1
 90
       50
176
     1
 90
       50
176
     1
 90
       50
176
     1
290
     0
176
     1
 90
       50
176
     1
 62
   256
176
     0
 40
1.0
176
     0
 90
        2
176
     1
  1
strokes_ogs.tif
176
     1
290
     0
176
     1
 40
1.0
176
     1
 40
1.0
176
     1
  0
VISUALSTYLE
  5
3D6
102
{ACAD_REACTORS
330
3D3
102
}
330
3D3
100
AcDbVisualStyle
  2
Gouraud
 70
     2
177
     3
291
     1
 70
    58
 90
        2
176
     1
 90
        2
176
     1
 90
        1
176
     1
 90
        2
176
     1
 40
-0.6
176
     1
 40
30.0
176
     1
 62
     7
176
     1
 90
        0
176
     1
 90
        4
176
     1
 62
     7
176
     1
 62
   257
176
     1
 90
        1
176
     1
 90
        1
176
     1
 40
1.0
176
     1
 90
        0
176
     1
 62
     7
176
     1
 40
1.0
176
     1
 90
        1
176
     1
 90
        6
176
     1
 90
        2
176
     1
 62
     7
176
     1
 90
        5
176
     1
 90
        0
176
     1
 90
        0
176
     1
290
     0
176
     1
 90
       13
176
     1
 40
0.0
176
     1
 90
        0
176
     1
290
     0
176
     1
290
     1
176
     1
290
     1
176
     1
290
     0
176
     1
290
     0
176
     1
290
     0
176
     1
290
     0
176
     1
290
     0
176
     1
290
     0
176
     1
 90
       50
176
     1
 40
0.0
176
     1
 40
1.0
176
     1
 90
        0
176
     1
 62
    18
420
        0
176
     1
 90
       50
176
     1
 90
        3
176
     1
 62
     5
420
      255
176
     1
290
     0
176
     1
 90
       50
176
     1
 90
       50
176
     1
 90
       50
176
     1
290
     0
176
     1
 90
       50
176
     1
 62
   256
176
     0
 40
1.0
176
     0
 90
        2
176
     1
  1
strokes_ogs.tif
176
     1
290
     0
176
     1
 40
1.0
176
     1
 40
1.0
176
     1
  0
VISUALSTYLE
  5
3D7
102
{ACAD_REACTORS
330
3D3
102
}
330
3D3
100
AcDbVisualStyle
  2
GouraudWithEdges
 70
     3
177
     3
291
     1
 70
    58
 90
        2
176
     1
 90
        2
176
     1
 90
        1
176
     1
 90
        2
176
     1
 40
-0.6
176
     1
 40
30.0
176
     1
 62
     7
176
     1
 90
        1
176
     1
 90
        4
176
     1
 62
     7
176
     1
 62
   257
176
     1
 90
        1
176
     1
 90
        1
176
     1
 40
1.0
176
     1
 90
        0
176
     1
 62
   257
176
     1
 40
1.0
176
     1
 90
        1
176
     1
 90
        6
176
     1
 90
        2
176
     1
 62
     7
176
     1
 90
        5
176
     1
 90
        0
176
     1
 90
        0
176
     1
290
     0
176
     1
 90
       13
176
     1
 40
0.0
176
     1
 90
        0
176
     1
290
     0
176
     1
290
     1
176
     1
290
     1
176
     1
290
     0
176
     1
290
     0
176
     1
290
     0
176
     1
290
     0
176
     1
290
     0
176
     1
290
     0
176
     1
 90
       50
176
     1
 40
0.0
176
     1
 40
1.0
176
     1
 90
        0
176
     1
 62
    18
420
        0
176
     1
 90
       50
176
     1
 90
        3
176
     1
 62
     5
420
      255
176
     1
290
     0
176
     1
 90
       50
176
     1
 90
       50
176
     1
 90
       50
176
     1
290
     0
176
     1
 90
       50
176
     1
 62
   256
176
     0
 40
1.0
176
     0
 90
        2
176
     1
  1
strokes_ogs.tif
176
     1
290
     0
176
     1
 40
1.0
176
     1
 40
1.0
176
     1
  0
VISUALSTYLE
  5
432
102
{ACAD_REACTORS
330
3D3
102
}
330
3D3
100
AcDbVisualStyle
  2
Hidden
 70
     6
177
     3
291
     0
 70
    58
 90
        1
176
     1
 90
        2
176
     1
 90
        2
176
     1
 90
        0
176
     1
 40
0.6
176
     1
 40
30.0
176
     1
 62
     7
420
 16777215
176
     1
 90
        2
176
     1
 90
        2
176
     1
 62
     7
176
     1
 62
   257
176
     1
 90
        2
176
     1
 90
        1
176
     1
 40
40.0
176
     1
 90
        0
176
     1
 62
   257
176
     1
 40
1.0
176
     1
 90
        1
176
     1
 90
        6
176
     1
 90
        2
176
     1
 62
     7
176
     1
 90
        3
176
     1
 90
        0
176
     1
 90
        0
176
     1
290
     0
176
     1
 90
        1
176
     1
 40
0.0
176
     1
 90
        0
176
     1
290
     0
176
     1
290
     1
176
     1
290
     1
176
     1
290
     0
176
     1
290
     0
176
     1
290
     0
176
     1
290
     0
176
     1
290
     0
176
     1
290
     0
176
     1
 90
       50
176
     1
 40
0.0
176
     1
 40
1.0
176
     1
 90
        0
176
     1
 62
    18
420
        0
176
     1
 90
       50
176
     1
 90
        3
176
     1
 62
     5
420
      255
176
     1
290
     0
176
     1
 90
       50
176
     1
 90
       50
176
     1
 90
       50
176
     1
290
     0
176
     1
 90
       50
176
     1
 62
   256
176
     0
 40
1.0
176
     0
 90
        2
176
     1
  1
strokes_ogs.tif
176
     1
290
     0
176
     1
 40
1.0
176
     1
 40
1.0
176
     1
  0
VISUALSTYLE
  5
433
102
{ACAD_REACTORS
330
3D3
102
}
330
3D3
100
AcDbVisualStyle
  2
JitterOff
 70
    20
177
     3
291
     1
 70
    58
 90
        2
176
     0
 90
        2
176
     0
 90
        0
176
     0
 90
        0
176
     0
 40
0.6
176
     0
 40
30.0
176
     0
 62
     7
420
 16777215
176
     0
 90
        1
176
     0
 90
        4
176
     0
 62
     7
176
     0
 62
   257
176
     0
 90
        1
176
     0
 90
        1
176
     0
 40
1.0
176
     0
 90
       10
176
     2
 62
     7
176
     0
 40
1.0
176
     0
 90
        1
176
     0
 90
        6
176
     0
 90
        2
176
     0
 62
     7
176
     0
 90
        5
176
     0
 90
        0
176
     0
 90
        0
176
     0
290
     0
176
     0
 90
        1
176
     0
 40
0.0
176
     0
 90
        0
176
     0
290
     0
176
     0
290
     1
176
     0
290
     1
176
     0
290
     0
176
     0
290
     0
176
     0
290
     0
176
     0
290
     0
176
     0
290
     0
176
     0
290
     0
176
     0
 90
       50
176
     0
 40
0.0
176
     0
 40
1.0
176
     0
 90
        0
176
     0
 62
    18
420
        0
176
     0
 90
       50
176
     0
 90
        3
176
     0
 62
     5
420
      255
176
     0
290
     0
176
     0
 90
       50
176
     0
 90
       50
176
     0
 90
       50
176
     0
290
     0
176
     0
 90
       50
176
     0
 62
   256
176
     0
 40
1.0
176
     0
 90
        2
176
     0
  1
strokes_ogs.tif
176
     0
290
     0
176
     0
 40
1.0
176
     0
 40
1.0
176
     0
  0
VISUALSTYLE
  5
3E1
102
{ACAD_REACTORS
330
3D3
102
}
330
3D3
100
AcDbVisualStyle
  2
Linepattern
 70
    14
177
     3
291
     1
 70
    58
 90
        2
176
     1
 90
        2
176
     1
 90
        0
176
     1
 90
        0
176
     1
 40
-0.6
176
     1
 40
-30.0
176
     1
 62
     7
176
     1
 90
        1
176
     1
 90
        4
176
     1
 62
     7
176
     1
 62
   257
176
     1
 90
        7
176
     1
 90
        7
176
     1
 40
1.0
176
     1
 90
        8
176
     1
 62
     7
176
     1
 40
1.0
176
     1
 90
        1
176
     1
 90
        6
176
     1
 90
        2
176
     1
 62
     7
176
     1
 90
        5
176
     1
 90
        0
176
     1
 90
        0
176
     1
290
     0
176
     1
 90
        1
176
     1
 40
0.0
176
     1
 90
        0
176
     1
290
     0
176
     1
290
     1
176
     1
290
     1
176
     1
290
     0
176
     1
290
     0
176
     1
290
     0
176
     1
290
     0
176
     1
290
     0
176
     1
290
     0
176
     1
 90
       50
176
     1
 40
0.0
176
     1
 40
1.0
176
     1
 90
        0
176
     1
 62
    18
420
        0
176
     1
 90
       50
176
     1
 90
        3
176
     1
 62
     5
420
      255
176
     1
290
     0
176
     1
 90
       50
176
     1
 90
       50
176
     1
 90
       50
176
     1
290
     0
176
     1
 90
       50
176
     1
 62
   256
176
     0
 40
1.0
176
     0
 90
        2
176
     1
  1
strokes_ogs.tif
176
     1
290
     0
176
     1
 40
1.0
176
     1
 40
1.0
176
     1
  0
VISUALSTYLE
  5
434
102
{ACAD_REACTORS
330
3D3
102
}
330
3D3
100
AcDbVisualStyle
  2
OverhangOff
 70
    21
177
     3
291
     1
 70
    58
 90
        2
176
     0
 90
        2
176
     0
 90
        0
176
     0
 90
        0
176
     0
 40
0.6
176
     0
 40
30.0
176
     0
 62
     7
420
 16777215
176
     0
 90
        1
176
     0
 90
        4
176
     0
 62
     7
176
     0
 62
   257
176
     0
 90
        1
176
     0
 90
        1
176
     0
 40
1.0
176
     0
 90
        9
176
     2
 62
     7
176
     0
 40
1.0
176
     0
 90
        1
176
     0
 90
        6
176
     0
 90
        2
176
     0
 62
     7
176
     0
 90
        5
176
     0
 90
        0
176
     0
 90
        0
176
     0
290
     0
176
     0
 90
        1
176
     0
 40
0.0
176
     0
 90
        0
176
     0
290
     0
176
     0
290
     1
176
     0
290
     1
176
     0
290
     0
176
     0
290
     0
176
     0
290
     0
176
     0
290
     0
176
     0
290
     0
176
     0
290
     0
176
     0
 90
       50
176
     0
 40
0.0
176
     0
 40
1.0
176
     0
 90
        0
176
     0
 62
    18
420
        0
176
     0
 90
       50
176
     0
 90
        3
176
     0
 62
     5
420
      255
176
     0
290
     0
176
     0
 90
       50
176
     0
 90
       50
176
     0
 90
       50
176
     0
290
     0
176
     0
 90
       50
176
     0
 62
   256
176
     0
 40
1.0
176
     0
 90
        2
176
     0
  1
strokes_ogs.tif
176
     0
290
     0
176
     0
 40
1.0
176
     0
 40
1.0
176
     0
  0
VISUALSTYLE
  5
3DC
102
{ACAD_REACTORS
330
3D3
102
}
330
3D3
100
AcDbVisualStyle
  2
Realistic
 70
     8
177
     3
291
     0
 70
    58
 90
        2
176
     1
 90
        2
176
     1
 90
        0
176
     1
 90
        0
176
     1
 40
-0.6
176
     1
 40
-30.0
176
     1
 62
     7
176
     1
 90
        1
176
     1
 90
        0
176
     1
 62
     7
176
     1
 62
   257
176
     1
 90
        1
176
     1
 90
        1
176
     1
 40
1.0
176
     1
 90
        8
176
     1
 62
     8
176
     1
 40
1.0
176
     1
 90
        1
176
     1
 90
        6
176
     1
 90
        2
176
     1
 62
     7
176
     1
 90
        5
176
     1
 90
        0
176
     1
 90
        0
176
     1
290
     0
176
     1
 90
       13
176
     1
 40
0.0
176
     1
 90
        0
176
     1
290
     0
176
     1
290
     1
176
     1
290
     1
176
     1
290
     0
176
     1
290
     0
176
     1
290
     0
176
     1
290
     0
176
     1
290
     0
176
     1
290
     0
176
     1
 90
       50
176
     1
 40
0.0
176
     1
 40
1.0
176
     1
 90
        0
176
     1
 62
    18
420
        0
176
     1
 90
       50
176
     1
 90
        3
176
     1
 62
     5
420
      255
176
     1
290
     0
176
     1
 90
       50
176
     1
 90
       50
176
     1
 90
       50
176
     1
290
     0
176
     1
 90
       50
176
     1
 62
   256
176
     0
 40
1.0
176
     0
 90
        2
176
     1
  1
strokes_ogs.tif
176
     1
290
     0
176
     1
 40
1.0
176
     1
 40
1.0
176
     1
  0
VISUALSTYLE
  5
43A
102
{ACAD_REACTORS
330
3D3
102
}
330
3D3
100
AcDbVisualStyle
  2
Shaded
 70
    27
177
     3
291
     0
 70
    58
 90
        2
176
     1
 90
        2
176
     1
 90
        1
176
     1
 90
        2
176
     1
 40
0.6
176
     1
 40
30.0
176
     1
 62
     7
420
 16777215
176
     1
 90
        0
176
     1
 90
        4
176
     1
 62
     7
176
     1
 62
   257
176
     1
 90
        1
176
     1
 90
        1
176
     1
 40
1.0
176
     1
 90
        8
176
     1
 62
   257
176
     1
 40
1.0
176
     1
 90
        1
176
     1
 90
        6
176
     1
 90
        2
176
     1
 62
     8
420
  7895160
176
     1
 90
        3
176
     1
 90
        0
176
     1
 90
        0
176
     1
290
     0
176
     1
 90
        5
176
     1
 40
0.0
176
     1
 90
        0
176
     1
290
     0
176
     1
290
     1
176
     1
290
     1
176
     1
290
     0
176
     1
290
     0
176
     1
290
     0
176
     1
290
     0
176
     1
290
     0
176
     1
290
     0
176
     1
 90
       50
176
     1
 40
0.0
176
     1
 40
1.0
176
     1
 90
        0
176
     1
 62
    18
420
        0
176
     1
 90
       50
176
     1
 90
        3
176
     1
 62
     5
420
      255
176
     1
290
     0
176
     1
 90
       50
176
     1
 90
       50
176
     1
 90
       50
176
     1
290
     0
176
     1
 90
       50
176
     1
 62
   256
176
     0
 40
1.0
176
     0
 90
        2
176
     1
  1
strokes_ogs.tif
176
     1
290
     0
176
     1
 40
1.0
176
     1
 40
1.0
176
     1
  0
VISUALSTYLE
  5
439
102
{ACAD_REACTORS
330
3D3
102
}
330
3D3
100
AcDbVisualStyle
  2
Shaded with edges
 70
    26
177
     3
291
     0
 70
    58
 90
        2
176
     1
 90
        2
176
     1
 90
        1
176
     1
 90
        2
176
     1
 40
0.6
176
     1
 40
30.0
176
     1
 62
     7
420
 16777215
176
     1
 90
        1
176
     1
 90
       10
176
     1
 62
     7
176
     1
 62
   257
176
     1
 90
        2
176
     1
 90
        1
176
     1
 40
1.0
176
     1
 90
        8
176
     1
 62
   257
176
     1
 40
1.0
176
     1
 90
        1
176
     1
 90
        6
176
     1
 90
        2
176
     1
 62
     7
176
     1
 90
        3
176
     1
 90
        0
176
     1
 90
        0
176
     1
290
     0
176
     1
 90
        5
176
     1
 40
0.0
176
     1
 90
        0
176
     1
290
     0
176
     1
290
     1
176
     1
290
     1
176
     1
290
     0
176
     1
290
     0
176
     1
290
     0
176
     1
290
     0
176
     1
290
     0
176
     1
290
     0
176
     1
 90
       50
176
     1
 40
0.0
176
     1
 40
1.0
176
     1
 90
        0
176
     1
 62
    18
420
        0
176
     1
 90
       50
176
     1
 90
        3
176
     1
 62
     5
420
      255
176
     1
290
     0
176
     1
 90
       50
176
     1
 90
       50
176
     1
 90
       50
176
     1
290
     0
176
     1
 90
       50
176
     1
 62
   256
176
     0
 40
1.0
176
     0
 90
        2
176
     1
  1
strokes_ogs.tif
176
     1
290
     0
176
     1
 40
1.0
176
     1
 40
1.0
176
     1
  0
VISUALSTYLE
  5
436
102
{ACAD_REACTORS
330
3D3
102
}
330
3D3
100
AcDbVisualStyle
  2
Shades of Gray
 70
    23
177
     3
291
     0
 70
    58
 90
        2
176
     1
 90
        2
176
     1
 90
        3
176
     1
 90
        0
176
     1
 40
0.6
176
     1
 40
30.0
176
     1
 62
     7
420
 16777215
176
     1
 90
        2
176
     1
 90
        2
176
     1
 62
     7
176
     1
 62
     7
176
     1
 90
        1
176
     1
 90
        1
176
     1
 40
40.0
176
     1
 90
        8
176
     1
 62
     7
176
     1
 40
1.0
176
     1
 90
        1
176
     1
 90
        6
176
     1
 90
        2
176
     1
 62
     7
176
     1
 90
        3
176
     1
 90
        0
176
     1
 90
        0
176
     1
290
     0
176
     1
 90
        1
176
     1
 40
0.0
176
     1
 90
        0
176
     1
290
     0
176
     1
290
     1
176
     1
290
     1
176
     1
290
     0
176
     1
290
     0
176
     1
290
     0
176
     1
290
     0
176
     1
290
     0
176
     1
290
     0
176
     1
 90
       50
176
     1
 40
0.0
176
     1
 40
1.0
176
     1
 90
        0
176
     1
 62
    18
420
        0
176
     1
 90
       50
176
     1
 90
        3
176
     1
 62
     5
420
      255
176
     1
290
     0
176
     1
 90
       50
176
     1
 90
       50
176
     1
 90
       50
176
     1
290
     0
176
     1
 90
       50
176
     1
 62
   256
176
     0
 40
1.0
176
     0
 90
        2
176
     1
  1
strokes_ogs.tif
176
     1
290
     0
176
     1
 40
1.0
176
     1
 40
1.0
176
     1
  0
VISUALSTYLE
  5
437
102
{ACAD_REACTORS
330
3D3
102
}
330
3D3
100
AcDbVisualStyle
  2
Sketchy
 70
    24
177
     3
291
     0
 70
    58
 90
        1
176
     1
 90
        2
176
     1
 90
        2
176
     1
 90
        0
176
     1
 40
0.6
176
     1
 40
30.0
176
     1
 62
     7
420
 16777215
176
     1
 90
        2
176
     1
 90
        2
176
     1
 62
     7
176
     1
 62
     7
176
     1
 90
        1
176
     1
 90
        1
176
     1
 40
40.0
176
     1
 90
       11
176
     1
 62
     7
176
     1
 40
1.0
176
     1
 90
        1
176
     1
 90
        6
176
     1
 90
        2
176
     1
 62
     7
176
     1
 90
        6
176
     1
 90
        0
176
     1
 90
        0
176
     1
290
     0
176
     1
 90
        1
176
     1
 40
0.0
176
     1
 90
        0
176
     1
290
     0
176
     1
290
     1
176
     1
290
     1
176
     1
290
     0
176
     1
290
     0
176
     1
290
     0
176
     1
290
     0
176
     1
290
     0
176
     1
290
     0
176
     1
 90
       50
176
     1
 40
0.0
176
     1
 40
1.0
176
     1
 90
        0
176
     1
 62
    18
420
        0
176
     1
 90
       50
176
     1
 90
        3
176
     1
 62
     5
420
      255
176
     1
290
     0
176
     1
 90
       50
176
     1
 90
       50
176
     1
 90
       50
176
     1
290
     0
176
     1
 90
       50
176
     1
 62
   256
176
     0
 40
1.0
176
     0
 90
        2
176
     1
  1
strokes_ogs.tif
176
     1
290
     0
176
     1
 40
1.0
176
     1
 40
1.0
176
     1
  0
VISUALSTYLE
  5
3E0
102
{ACAD_REACTORS
330
3D3
102
}
330
3D3
100
AcDbVisualStyle
  2
Thicken
 70
    13
177
     3
291
     1
 70
    58
 90
        2
176
     1
 90
        2
176
     1
 90
        0
176
     1
 90
        0
176
     1
 40
-0.6
176
     1
 40
-30.0
176
     1
 62
     7
176
     1
 90
        1
176
     1
 90
        4
176
     1
 62
     7
176
     1
 62
   257
176
     1
 90
        1
176
     1
 90
        1
176
     1
 40
1.0
176
     1
 90
       12
176
     1
 62
     7
176
     1
 40
1.0
176
     1
 90
        1
176
     1
 90
        6
176
     1
 90
        2
176
     1
 62
     7
176
     1
 90
        5
176
     1
 90
        0
176
     1
 90
        0
176
     1
290
     0
176
     1
 90
        1
176
     1
 40
0.0
176
     1
 90
        0
176
     1
290
     0
176
     1
290
     1
176
     1
290
     1
176
     1
290
     0
176
     1
290
     0
176
     1
290
     0
176
     1
290
     0
176
     1
290
     0
176
     1
290
     0
176
     1
 90
       50
176
     1
 40
0.0
176
     1
 40
1.0
176
     1
 90
        0
176
     1
 62
    18
420
        0
176
     1
 90
       50
176
     1
 90
        3
176
     1
 62
     5
420
      255
176
     1
290
     0
176
     1
 90
       50
176
     1
 90
       50
176
     1
 90
       50
176
     1
290
     0
176
     1
 90
       50
176
     1
 62
   256
176
     0
 40
1.0
176
     0
 90
        2
176
     1
  1
strokes_ogs.tif
176
     1
290
     0
176
     1
 40
1.0
176
     1
 40
1.0
176
     1
  0
VISUALSTYLE
  5
431
102
{ACAD_REACTORS
330
3D3
102
}
330
3D3
100
AcDbVisualStyle
  2
Wireframe
 70
     5
177
     3
291
     0
 70
    58
 90
        0
176
     1
 90
        2
176
     1
 90
        0
176
     1
 90
        0
176
     1
 40
0.6
176
     1
 40
30.0
176
     1
 62
     7
420
 16777215
176
     1
 90
        1
176
     1
 90
        4
176
     1
 62
     7
176
     1
 62
   257
176
     1
 90
        1
176
     1
 90
        1
176
     1
 40
1.0
176
     1
 90
        0
176
     1
 62
   257
176
     1
 40
1.0
176
     1
 90
        1
176
     1
 90
        6
176
     1
 90
        2
176
     1
 62
     7
176
     1
 90
        3
176
     1
 90
        0
176
     1
 90
        0
176
     1
290
     0
176
     1
 90
        1
176
     1
 40
0.0
176
     1
 90
        0
176
     1
290
     0
176
     1
290
     1
176
     1
290
     1
176
     1
290
     0
176
     1
290
     0
176
     1
290
     0
176
     1
290
     0
176
     1
290
     0
176
     1
290
     0
176
     1
 90
       50
176
     1
 40
0.0
176
     1
 40
1.0
176
     1
 90
        0
176
     1
 62
    18
420
        0
176
     1
 90
       50
176
     1
 90
        3
176
     1
 62
     5
420
      255
176
     1
290
     0
176
     1
 90
       50
176
     1
 90
       50
176
     1
 90
       50
176
     1
290
     0
176
     1
 90
       50
176
     1
 62
   256
176
     0
 40
1.0
176
     0
 90
        2
176
     1
  1
strokes_ogs.tif
176
     1
290
     0
176
     1
 40
1.0
176
     1
 40
1.0
176
     1
  0
VISUALSTYLE
  5
438
102
{ACAD_REACTORS
330
3D3
102
}
330
3D3
100
AcDbVisualStyle
  2
X-Ray
 70
    25
177
     3
291
     0
 70
    58
 90
        2
176
     1
 90
        2
176
     1
 90
        1
176
     1
 90
        1
176
     1
 40
0.5
176
     1
 40
30.0
176
     1
 62
     7
420
 16777215
176
     1
 90
        1
176
     1
 90
        0
176
     1
 62
     7
176
     1
 62
   257
176
     1
 90
        1
176
     1
 90
        1
176
     1
 40
1.0
176
     1
 90
        8
176
     1
 62
     7
176
     1
 40
1.0
176
     1
 90
        1
176
     1
 90
        6
176
     1
 90
        2
176
     1
 62
     7
176
     1
 90
        3
176
     1
 90
        0
176
     1
 90
        0
176
     1
290
     0
176
     1
 90
       13
176
     1
 40
0.0
176
     1
 90
        0
176
     1
290
     0
176
     1
290
     1
176
     1
290
     1
176
     1
290
     0
176
     1
290
     0
176
     1
290
     0
176
     1
290
     0
176
     1
290
     0
176
     1
290
     0
176
     1
 90
       50
176
     1
 40
0.0
176
     1
 40
1.0
176
     1
 90
        0
176
     1
 62
    18
420
        0
176
     1
 90
       50
176
     1
 90
        3
176
     1
 62
     5
420
      255
176
     1
290
     0
176
     1
 90
       50
176
     1
 90
       50
176
     1
 90
       50
176
     1
290
     0
176
     1
 90
       50
176
     1
 62
   256
176
     0
 40
1.0
176
     0
 90
        2
176
     1
  1
strokes_ogs.tif
176
     1
290
     0
176
     1
 40
1.0
176
     1
 40
1.0
176
     1
  0
DICTIONARYVAR
  5
464
102
{ACAD_REACTORS
330
3F0
102
}
330
3F0
100
DictionaryVariables
280
     0
  1
1:1
  0
DICTIONARYVAR
  5
466
102
{ACAD_REACTORS
330
3F0
102
}
330
3F0
100
DictionaryVariables
280
     0
  1
Standard
  0
DICTIONARYVAR
  5
465
102
{ACAD_REACTORS
330
3F0
102
}
330
3F0
100
DictionaryVariables
280
     0
  1
Standard
  0
DICTIONARYVAR
  5
3F4
102
{ACAD_REACTORS
330
3F0
102
}
330
3F0
100
DictionaryVariables
280
     0
  1
2
  0
DICTIONARYVAR
  5
3F5
102
{ACAD_REACTORS
330
3F0
102
}
330
3F0
100
DictionaryVariables
280
     0
  1
1
  0
DICTIONARYVAR
  5
3F3
102
{ACAD_REACTORS
330
3F0
102
}
330
3F0
100
DictionaryVariables
280
     0
  1
0
  0
DICTIONARY
  5
4D6
330
43C
100
AcDbDictionary
280
     1
281
     1
  3
ACAD_ROUNDTRIP_2008_TABLESTYLE_CELLSTYLEMAP
360
4D7
  0
CELLSTYLEMAP
  5
4D7
102
{ACAD_REACTORS
330
4D6
102
}
330
4D6
100
AcDbCellStyleMap
 90
        3
300
CELLSTYLE
  1
TABLEFORMAT_BEGIN
 90
        5
170
     1
 91
        0
 92
    32768
 62
   257
 93
        1
300
CONTENTFORMAT
  1
CONTENTFORMAT_BEGIN
 90
        0
 91
        0
 92
        4
 93
        0
300

 40
0.0
140
1.0
 94
        5
 62
     0
340
11
144
0.25
309
CONTENTFORMAT_END
171
     1
301
MARGIN
  1
CELLMARGIN_BEGIN
 40
0.06
 40
0.06
 40
0.06
 40
0.06
 40
0.06
 40
0.06
309
CELLMARGIN_END
 94
        6
 95
        1
302
GRIDFORMAT
  1
GRIDFORMAT_BEGIN
 90
        0
 91
        1
 62
     0
 92
       -2
340
14
 93
        0
 40
0.045
309
GRIDFORMAT_END
 95
        2
302
GRIDFORMAT
  1
GRIDFORMAT_BEGIN
 90
        0
 91
        1
 62
     0
 92
       -2
340
14
 93
        0
 40
0.045
309
GRIDFORMAT_END
 95
        4
302
GRIDFORMAT
  1
GRIDFORMAT_BEGIN
 90
        0
 91
        1
 62
     0
 92
       -2
340
14
 93
        0
 40
0.045
309
GRIDFORMAT_END
 95
        8
302
GRIDFORMAT
  1
GRIDFORMAT_BEGIN
 90
        0
 91
        1
 62
     0
 92
       -2
340
14
 93
        0
 40
0.045
309
GRIDFORMAT_END
 95
       16
302
GRIDFORMAT
  1
GRIDFORMAT_BEGIN
 90
        0
 91
        1
 62
     0
 92
       -2
340
14
 93
        0
 40
0.045
309
GRIDFORMAT_END
 95
       32
302
GRIDFORMAT
  1
GRIDFORMAT_BEGIN
 90
        0
 91
        1
 62
     0
 92
       -2
340
14
 93
        0
 40
0.045
309
GRIDFORMAT_END
309
TABLEFORMAT_END
  1
CELLSTYLE_BEGIN
 90
        1
 91
        1
300
_TITLE
309
CELLSTYLE_END
300
CELLSTYLE
  1
TABLEFORMAT_BEGIN
 90
        5
170
     1
 91
        0
 92
        0
 62
   257
 93
        1
300
CONTENTFORMAT
  1
CONTENTFORMAT_BEGIN
 90
        0
 91
        0
 92
        4
 93
        0
300

 40
0.0
140
1.0
 94
        5
 62
     0
340
11
144
0.18
309
CONTENTFORMAT_END
171
     1
301
MARGIN
  1
CELLMARGIN_BEGIN
 40
0.06
 40
0.06
 40
0.06
 40
0.06
 40
0.06
 40
0.06
309
CELLMARGIN_END
 94
        6
 95
        1
302
GRIDFORMAT
  1
GRIDFORMAT_BEGIN
 90
        0
 91
        1
 62
     0
 92
       -2
340
14
 93
        0
 40
0.045
309
GRIDFORMAT_END
 95
        2
302
GRIDFORMAT
  1
GRIDFORMAT_BEGIN
 90
        0
 91
        1
 62
     0
 92
       -2
340
14
 93
        0
 40
0.045
309
GRIDFORMAT_END
 95
        4
302
GRIDFORMAT
  1
GRIDFORMAT_BEGIN
 90
        0
 91
        1
 62
     0
 92
       -2
340
14
 93
        0
 40
0.045
309
GRIDFORMAT_END
 95
        8
302
GRIDFORMAT
  1
GRIDFORMAT_BEGIN
 90
        0
 91
        1
 62
     0
 92
       -2
340
14
 93
        0
 40
0.045
309
GRIDFORMAT_END
 95
       16
302
GRIDFORMAT
  1
GRIDFORMAT_BEGIN
 90
        0
 91
        1
 62
     0
 92
       -2
340
14
 93
        0
 40
0.045
309
GRIDFORMAT_END
 95
       32
302
GRIDFORMAT
  1
GRIDFORMAT_BEGIN
 90
        0
 91
        1
 62
     0
 92
       -2
340
14
 93
        0
 40
0.045
309
GRIDFORMAT_END
309
TABLEFORMAT_END
  1
CELLSTYLE_BEGIN
 90
        2
 91
        1
300
_HEADER
309
CELLSTYLE_END
300
CELLSTYLE
  1
TABLEFORMAT_BEGIN
 90
        5
170
     1
 91
        0
 92
        0
 62
   257
 93
        1
300
CONTENTFORMAT
  1
CONTENTFORMAT_BEGIN
 90
        0
 91
        0
 92
        4
 93
        0
300

 40
0.0
140
1.0
 94
        2
 62
     0
340
11
144
0.18
309
CONTENTFORMAT_END
171
     1
301
MARGIN
  1
CELLMARGIN_BEGIN
 40
0.06
 40
0.06
 40
0.06
 40
0.06
 40
0.06
 40
0.06
309
CELLMARGIN_END
 94
        6
 95
        1
302
GRIDFORMAT
  1
GRIDFORMAT_BEGIN
 90
        0
 91
        1
 62
     0
 92
       -2
340
14
 93
        0
 40
0.045
309
GRIDFORMAT_END
 95
        2
302
GRIDFORMAT
  1
GRIDFORMAT_BEGIN
 90
        0
 91
        1
 62
     0
 92
       -2
340
14
 93
        0
 40
0.045
309
GRIDFORMAT_END
 95
        4
302
GRIDFORMAT
  1
GRIDFORMAT_BEGIN
 90
        0
 91
        1
 62
     0
 92
       -2
340
14
 93
        0
 40
0.045
309
GRIDFORMAT_END
 95
        8
302
GRIDFORMAT
  1
GRIDFORMAT_BEGIN
 90
        0
 91
        1
 62
     0
 92
       -2
340
14
 93
        0
 40
0.045
309
GRIDFORMAT_END
 95
       16
302
GRIDFORMAT
  1
GRIDFORMAT_BEGIN
 90
        0
 91
        1
 62
     0
 92
       -2
340
14
 93
        0
 40
0.045
309
GRIDFORMAT_END
 95
       32
302
GRIDFORMAT
  1
GRIDFORMAT_BEGIN
 90
        0
 91
        1
 62
     0
 92
       -2
340
14
 93
        0
 40
0.045
309
GRIDFORMAT_END
309
TABLEFORMAT_END
  1
CELLSTYLE_BEGIN
 90
        3
 91
        2
300
_DATA
309
CELLSTYLE_END
  0
ENDSEC
  0
EOF
