  0
SECTION
  2
HEADER
  9
$ACADVER
  1
AC1027
  9
$ACADMAINTVER
 70
   105
  9
$DWGCODEPAGE
  3
ANSI_1252
  9
$REQUIREDVERSIONS
160
                 0
  9
$LASTSAVEDBY
  1
matthias.ochs
  9
$INSBASE
 10
0.0
 20
0.0
 30
0.0
  9
$EXTMIN
 10
-31.88926114169638
 20
-96.55545227724909
 30
0.0
  9
$EXTMAX
 10
69.29926784807535
 20
92.85482225889925
 30
0.0
  9
$LIMMIN
 10
-111.40690337
 20
-81.319074697
  9
$LIMMAX
 10
143.886964021
 20
81.319074697
  9
$ORTHOMODE
 70
     0
  9
$REGENMODE
 70
     1
  9
$FILLMODE
 70
     1
  9
$QTEXTMODE
 70
     0
  9
$MIRRTEXT
 70
     1
  9
$LTSCALE
 40
1.0
  9
$ATTMODE
 70
     1
  9
$TEXTSIZE
 40
0.2
  9
$TRACEWID
 40
0.05
  9
$TEXTSTYLE
  7
Standard
  9
$CLAYER
  8
3
  9
$CELTYPE
  6
ByLayer
  9
$CECOLOR
 62
   256
  9
$CELTSCALE
 40
1.0
  9
$DISPSILH
 70
     0
  9
$DIMSCALE
 40
1.0
  9
$DIMASZ
 40
0.18
  9
$DIMEXO
 40
0.0625
  9
$DIMDLI
 40
0.38
  9
$DIMRND
 40
0.0
  9
$DIMDLE
 40
0.0
  9
$DIMEXE
 40
0.18
  9
$DIMTP
 40
0.0
  9
$DIMTM
 40
0.0
  9
$DIMTXT
 40
0.18
  9
$DIMCEN
 40
0.09
  9
$DIMTSZ
 40
0.0
  9
$DIMTOL
 70
     0
  9
$DIMLIM
 70
     0
  9
$DIMTIH
 70
     1
  9
$DIMTOH
 70
     1
  9
$DIMSE1
 70
     0
  9
$DIMSE2
 70
     0
  9
$DIMTAD
 70
     0
  9
$DIMZIN
 70
     0
  9
$DIMBLK
  1

  9
$DIMASO
 70
     1
  9
$DIMSHO
 70
     1
  9
$DIMPOST
  1

  9
$DIMAPOST
  1

  9
$DIMALT
 70
     0
  9
$DIMALTD
 70
     2
  9
$DIMALTF
 40
25.4
  9
$DIMLFAC
 40
1.0
  9
$DIMTOFL
 70
     0
  9
$DIMTVP
 40
0.0
  9
$DIMTIX
 70
     0
  9
$DIMSOXD
 70
     0
  9
$DIMSAH
 70
     0
  9
$DIMBLK1
  1

  9
$DIMBLK2
  1

  9
$DIMSTYLE
  2
Standard
  9
$DIMCLRD
 70
     0
  9
$DIMCLRE
 70
     0
  9
$DIMCLRT
 70
     0
  9
$DIMTFAC
 40
1.0
  9
$DIMGAP
 40
0.09
  9
$DIMJUST
 70
     0
  9
$DIMSD1
 70
     0
  9
$DIMSD2
 70
     0
  9
$DIMTOLJ
 70
     1
  9
$DIMTZIN
 70
     0
  9
$DIMALTZ
 70
     0
  9
$DIMALTTZ
 70
     0
  9
$DIMUPT
 70
     0
  9
$DIMDEC
 70
     4
  9
$DIMTDEC
 70
     4
  9
$DIMALTU
 70
     2
  9
$DIMALTTD
 70
     2
  9
$DIMTXSTY
  7
Standard
  9
$DIMAUNIT
 70
     0
  9
$DIMADEC
 70
     0
  9
$DIMALTRND
 40
0.0
  9
$DIMAZIN
 70
     0
  9
$DIMDSEP
 70
    46
  9
$DIMATFIT
 70
     3
  9
$DIMFRAC
 70
     0
  9
$DIMLDRBLK
  1

  9
$DIMLUNIT
 70
     2
  9
$DIMLWD
 70
    -2
  9
$DIMLWE
 70
    -2
  9
$DIMTMOVE
 70
     2
  9
$DIMFXL
 40
1.0
  9
$DIMFXLON
 70
     0
  9
$DIMJOGANG
 40
0.7853981633974483
  9
$DIMTFILL
 70
     0
  9
$DIMTFILLCLR
 70
     0
  9
$DIMARCSYM
 70
     0
  9
$DIMLTYPE
  6

  9
$DIMLTEX1
  6

  9
$DIMLTEX2
  6

  9
$DIMTXTDIRECTION
 70
     0
  9
$LUNITS
 70
     2
  9
$LUPREC
 70
     4
  9
$SKETCHINC
 40
0.1
  9
$FILLETRAD
 40
0.5
  9
$AUNITS
 70
     2
  9
$AUPREC
 70
     0
  9
$MENU
  1
.
  9
$ELEVATION
 40
0.0
  9
$PELEVATION
 40
0.0
  9
$THICKNESS
 40
0.0
  9
$LIMCHECK
 70
     0
  9
$CHAMFERA
 40
0.5
  9
$CHAMFERB
 40
0.5
  9
$CHAMFERC
 40
1.0
  9
$CHAMFERD
 40
0.0
  9
$SKPOLY
 70
     0
  9
$TDCREATE
 40
2458327.549332593
  9
$TDUCREATE
 40
2458327.465999259
  9
$TDUPDATE
 40
2458677.339678657
  9
$TDUUPDATE
 40
2458677.256345324
  9
$TDINDWG
 40
0.0077616319
  9
$TDUSRTIMER
 40
0.0019527894
  9
$USRTIMER
 70
     1
  9
$ANGBASE
 50
0.0
  9
$ANGDIR
 70
     0
  9
$PDMODE
 70
     0
  9
$PDSIZE
 40
0.0
  9
$PLINEWID
 40
0.0
  9
$SPLFRAME
 70
     0
  9
$SPLINETYPE
 70
     6
  9
$SPLINESEGS
 70
     8
  9
$HANDSEED
  5
444
  9
$SURFTAB1
 70
     6
  9
$SURFTAB2
 70
     6
  9
$SURFTYPE
 70
     6
  9
$SURFU
 70
     6
  9
$SURFV
 70
     6
  9
$UCSBASE
  2

  9
$UCSNAME
  2

  9
$UCSORG
 10
0.0
 20
0.0
 30
0.0
  9
$UCSXDIR
 10
1.0
 20
0.0
 30
0.0
  9
$UCSYDIR
 10
0.0
 20
1.0
 30
0.0
  9
$UCSORTHOREF
  2

  9
$UCSORTHOVIEW
 70
     0
  9
$UCSORGTOP
 10
0.0
 20
0.0
 30
0.0
  9
$UCSORGBOTTOM
 10
0.0
 20
0.0
 30
0.0
  9
$UCSORGLEFT
 10
0.0
 20
0.0
 30
0.0
  9
$UCSORGRIGHT
 10
0.0
 20
0.0
 30
0.0
  9
$UCSORGFRONT
 10
0.0
 20
0.0
 30
0.0
  9
$UCSORGBACK
 10
0.0
 20
0.0
 30
0.0
  9
$PUCSBASE
  2

  9
$PUCSNAME
  2

  9
$PUCSORG
 10
0.0
 20
0.0
 30
0.0
  9
$PUCSXDIR
 10
1.0
 20
0.0
 30
0.0
  9
$PUCSYDIR
 10
0.0
 20
1.0
 30
0.0
  9
$PUCSORTHOREF
  2

  9
$PUCSORTHOVIEW
 70
     0
  9
$PUCSORGTOP
 10
0.0
 20
0.0
 30
0.0
  9
$PUCSORGBOTTOM
 10
0.0
 20
0.0
 30
0.0
  9
$PUCSORGLEFT
 10
0.0
 20
0.0
 30
0.0
  9
$PUCSORGRIGHT
 10
0.0
 20
0.0
 30
0.0
  9
$PUCSORGFRONT
 10
0.0
 20
0.0
 30
0.0
  9
$PUCSORGBACK
 10
0.0
 20
0.0
 30
0.0
  9
$USERI1
 70
     0
  9
$USERI2
 70
     0
  9
$USERI3
 70
     0
  9
$USERI4
 70
     0
  9
$USERI5
 70
     0
  9
$USERR1
 40
0.0
  9
$USERR2
 40
0.0
  9
$USERR3
 40
0.0
  9
$USERR4
 40
0.0
  9
$USERR5
 40
0.0
  9
$WORLDVIEW
 70
     1
  9
$SHADEDGE
 70
     3
  9
$SHADEDIF
 70
    70
  9
$TILEMODE
 70
     1
  9
$MAXACTVP
 70
    64
  9
$PINSBASE
 10
0.0
 20
0.0
 30
0.0
  9
$PLIMCHECK
 70
     0
  9
$PEXTMIN
 10
1.000000000000000E+20
 20
1.000000000000000E+20
 30
1.000000000000000E+20
  9
$PEXTMAX
 10
-1.000000000000000E+20
 20
-1.000000000000000E+20
 30
-1.000000000000000E+20
  9
$PLIMMIN
 10
0.0
 20
0.0
  9
$PLIMMAX
 10
0.0
 20
0.0
  9
$UNITMODE
 70
     0
  9
$VISRETAIN
 70
     1
  9
$PLINEGEN
 70
     0
  9
$PSLTSCALE
 70
     1
  9
$TREEDEPTH
 70
  3020
  9
$CMLSTYLE
  2
Standard
  9
$CMLJUST
 70
     0
  9
$CMLSCALE
 40
1.0
  9
$PROXYGRAPHICS
 70
     1
  9
$MEASUREMENT
 70
     0
  9
$CELWEIGHT
370
    -1
  9
$ENDCAPS
280
     0
  9
$JOINSTYLE
280
     0
  9
$LWDISPLAY
290
     0
  9
$INSUNITS
 70
     0
  9
$HYPERLINKBASE
  1

  9
$STYLESHEET
  1

  9
$XEDIT
290
     1
  9
$CEPSNTYPE
380
     0
  9
$PSTYLEMODE
290
     1
  9
$FINGERPRINTGUID
  2
{AC1F2D09-A9BB-4012-812A-85371A57237E}
  9
$VERSIONGUID
  2
{FAEB1C32-E019-11D5-929B-00C0DF256EC4}
  9
$EXTNAMES
290
     1
  9
$PSVPSCALE
 40
0.0
  9
$OLESTARTUP
290
     0
  9
$SORTENTS
280
   127
  9
$INDEXCTL
280
     0
  9
$HIDETEXT
280
     1
  9
$XCLIPFRAME
280
     2
  9
$HALOGAP
280
     0
  9
$OBSCOLOR
 70
   257
  9
$OBSLTYPE
280
     0
  9
$INTERSECTIONDISPLAY
280
     0
  9
$INTERSECTIONCOLOR
 70
   257
  9
$DIMASSOC
280
     2
  9
$PROJECTNAME
  1

  9
$CAMERADISPLAY
290
     0
  9
$LENSLENGTH
 40
50.0
  9
$CAMERAHEIGHT
 40
0.0
  9
$STEPSPERSEC
 40
2.0
  9
$STEPSIZE
 40
6.0
  9
$3DDWFPREC
 40
2.0
  9
$PSOLWIDTH
 40
0.25
  9
$PSOLHEIGHT
 40
4.0
  9
$LOFTANG1
 40
1.570796326794897
  9
$LOFTANG2
 40
1.570796326794897
  9
$LOFTMAG1
 40
0.0
  9
$LOFTMAG2
 40
0.0
  9
$LOFTPARAM
 70
     7
  9
$LOFTNORMALS
280
     1
  9
$LATITUDE
 40
37.795
  9
$LONGITUDE
 40
-122.394
  9
$NORTHDIRECTION
 40
0.0
  9
$TIMEZONE
 70
 -8000
  9
$LIGHTGLYPHDISPLAY
280
     1
  9
$TILEMODELIGHTSYNCH
280
     1
  9
$SOLIDHIST
280
     0
  9
$SHOWHIST
280
     1
  9
$DWFFRAME
280
     2
  9
$DGNFRAME
280
     2
  9
$REALWORLDSCALE
290
     1
  9
$INTERFERECOLOR
 62
   256
  9
$CSHADOW
280
     0
  9
$SHADOWPLANELOCATION
 40
0.0
  0
ENDSEC
  0
SECTION
  2
CLASSES
  0
CLASS
  1
ACDBDICTIONARYWDFLT
  2
AcDbDictionaryWithDefault
  3
ObjectDBX Classes
 90
        0
 91
       11
280
     0
281
     0
  0
CLASS
  1
SCALE
  2
AcDbScale
  3
ObjectDBX Classes
 90
     1153
 91
       11
280
     0
281
     0
  0
CLASS
  1
VISUALSTYLE
  2
AcDbVisualStyle
  3
ObjectDBX Classes
 90
     4095
 91
       11
280
     0
281
     0
  0
CLASS
  1
MATERIAL
  2
AcDbMaterial
  3
ObjectDBX Classes
 90
     1153
 91
       11
280
     0
281
     0
  0
CLASS
  1
DICTIONARYVAR
  2
AcDbDictionaryVar
  3
ObjectDBX Classes
 90
        0
 91
       11
280
     0
281
     0
  0
CLASS
  1
ACDBPLACEHOLDER
  2
AcDbPlaceHolder
  3
ObjectDBX Classes
 90
        0
 91
        1
280
     0
281
     0
  0
CLASS
  1
LAYOUT
  2
AcDbLayout
  3
ObjectDBX Classes
 90
        0
 91
        1
280
     0
281
     0
  0
CLASS
  1
TABLESTYLE
  2
AcDbTableStyle
  3
ObjectDBX Classes
 90
     4095
 91
       11
280
     0
281
     0
  0
CLASS
  1
MLEADERSTYLE
  2
AcDbMLeaderStyle
  3
ACDB_MLEADERSTYLE_CLASS
 90
     4095
 91
       11
280
     0
281
     0
  0
CLASS
  1
SUN
  2
AcDbSun
  3
SCENEOE
 90
     1153
 91
       11
280
     0
281
     0
  0
CLASS
  1
CELLSTYLEMAP
  2
AcDbCellStyleMap
  3
ObjectDBX Classes
 90
     1152
 91
        5
280
     0
281
     0
  0
ENDSEC
  0
SECTION
  2
TABLES
  0
TABLE
  2
VPORT
  5
8
330
0
100
AcDbSymbolTable
 70
     1
  0
VPORT
  5
31A
330
8
100
AcDbSymbolTableRecord
100
AcDbViewportTableRecord
  2
*Active
 70
     0
 10
0.0
 20
0.0
 11
1.0
 21
1.0
 12
11.6926474369082
 22
129.9649984611064
 13
0.0
 23
0.0
 14
0.5
 24
0.5
 15
0.5
 25
0.5
 16
0.0
 26
0.0
 36
1.0
 17
0.0
 27
0.0
 37
0.0
 40
767.2843420639766
 41
1.831002331002331
 42
50.0
 43
0.0
 44
0.0
 50
0.0
 51
0.0
 71
    16
 72
   100
 73
     1
 74
     3
 75
     0
 76
     0
 77
     0
 78
     0
281
     0
 65
     1
110
0.0
120
0.0
130
0.0
111
1.0
121
0.0
131
0.0
112
0.0
122
1.0
132
0.0
 79
     0
146
0.0
348
34C
 60
     3
 61
     5
292
     1
282
     1
141
0.0
142
0.0
 63
   256
361
414
  0
ENDTAB
  0
TABLE
  2
LTYPE
  5
5
330
0
100
AcDbSymbolTable
 70
     8
  0
LTYPE
  5
14
330
5
100
AcDbSymbolTableRecord
100
AcDbLinetypeTableRecord
  2
ByBlock
 70
     0
  3

 72
    65
 73
     0
 40
0.0
  0
LTYPE
  5
15
330
5
100
AcDbSymbolTableRecord
100
AcDbLinetypeTableRecord
  2
ByLayer
 70
     0
  3

 72
    65
 73
     0
 40
0.0
  0
LTYPE
  5
16
330
5
100
AcDbSymbolTableRecord
100
AcDbLinetypeTableRecord
  2
Continuous
 70
     0
  3
Solid line
 72
    65
 73
     0
 40
0.0
  0
LTYPE
  5
20
330
5
100
AcDbSymbolTableRecord
100
AcDbLinetypeTableRecord
  2
PUNKT
 70
     0
  3
..............
 72
    65
 73
     2
 40
1.5
 49
0.7
 74
     0
 49
-0.8
 74
     0
  0
LTYPE
  5
21
330
5
100
AcDbSymbolTableRecord
100
AcDbLinetypeTableRecord
  2
GESTRICHELT
 70
     0
  3
-- -- -- -- --
 72
    65
 73
     7
 40
2.8
 49
0.9
 74
     0
 49
0.0
 74
     0
 49
0.9
 74
     0
 49
0.0
 74
     0
 49
0.2
 74
     0
 49
0.0
 74
     0
 49
-0.8
 74
     0
  0
LTYPE
  5
22
330
5
100
AcDbSymbolTableRecord
100
AcDbLinetypeTableRecord
  2
STRICHPUNKT
 70
     0
  3
--.--.--.--.--
 72
    65
 73
     4
 40
8.8
 49
5.5
 74
     0
 49
-1.3
 74
     0
 49
0.7
 74
     0
 49
-1.3
 74
     0
  0
LTYPE
  5
25
330
5
100
AcDbSymbolTableRecord
100
AcDbLinetypeTableRecord
  2
PHANTOM
 70
     0
  3
--..--..--..--
 72
    65
 73
     6
 40
14.2
 49
7.0
 74
     0
 49
-1.8
 74
     0
 49
0.9
 74
     0
 49
-1.8
 74
     0
 49
0.9
 74
     0
 49
-1.8
 74
     0
  0
LTYPE
  5
394
330
5
100
AcDbSymbolTableRecord
100
AcDbLinetypeTableRecord
  2
DASH
 70
     0
  3
DASH _ _ _ _ _
 72
    65
 73
     2
 40
0.75
 49
0.4
 74
     0
 49
-0.35
 74
     0
  0
LTYPE
  5
395
330
5
100
AcDbSymbolTableRecord
100
AcDbLinetypeTableRecord
  2
LONGDASH_DASH
 70
     0
  3
LONGDASH_DASH __ . __ . __
 72
    65
 73
     4
 40
0.85
 49
0.4
 74
     0
 49
-0.2
 74
     0
 49
0.05
 74
     0
 49
-0.2
 74
     0
  0
LTYPE
  5
396
330
5
100
AcDbSymbolTableRecord
100
AcDbLinetypeTableRecord
  2
LONGDASH_DASH_DASH
 70
     0
  3
LONGDASH_DASH_DASH __ . . __ . . __
 72
    65
 73
     6
 40
1.1
 49
0.4
 74
     0
 49
-0.2
 74
     0
 49
0.05
 74
     0
 49
-0.2
 74
     0
 49
0.05
 74
     0
 49
-0.2
 74
     0
  0
ENDTAB
  0
TABLE
  2
LAYER
  5
2
102
{ACAD_XDICTIONARY
360
3B3
102
}
330
0
100
AcDbSymbolTable
 70
    15
  0
LAYER
  5
35D
330
2
100
AcDbSymbolTableRecord
100
AcDbLayerTableRecord
  2
200
 70
     0
 62
     2
  6
Continuous
370
    50
390
F
347
35B
348
0
  0
LAYER
  5
397
330
2
100
AcDbSymbolTableRecord
100
AcDbLayerTableRecord
  2
0
 70
     0
 62
    -1
  6
Continuous
370
    -3
390
F
347
35B
348
0
  0
LAYER
  5
398
330
2
100
AcDbSymbolTableRecord
100
AcDbLayerTableRecord
  2
1
 70
     0
 62
     4
  6
Continuous
370
    50
390
F
347
35B
348
0
  0
LAYER
  5
399
330
2
100
AcDbSymbolTableRecord
100
AcDbLayerTableRecord
  2
2
 70
     0
 62
     7
  6
Continuous
370
    25
390
F
347
35B
348
0
  0
LAYER
  5
39A
330
2
100
AcDbSymbolTableRecord
100
AcDbLayerTableRecord
  2
3
 70
     0
 62
     1
  6
DASH
370
    35
390
F
347
35B
348
0
  0
LAYER
  5
39B
330
2
100
AcDbSymbolTableRecord
100
AcDbLayerTableRecord
  2
4
 70
     0
 62
     2
  6
LONGDASH_DASH
370
    25
390
F
347
35B
348
0
  0
LAYER
  5
39C
330
2
100
AcDbSymbolTableRecord
100
AcDbLayerTableRecord
  2
6
 70
     0
 62
     5
  6
Continuous
370
    -3
390
F
347
35B
348
0
  0
LAYER
  5
39D
330
2
100
AcDbSymbolTableRecord
100
AcDbLayerTableRecord
  2
CUT
 70
     0
 62
     1
  6
Continuous
370
    25
390
F
347
35B
348
0
  0
LAYER
  5
39E
330
2
100
AcDbSymbolTableRecord
100
AcDbLayerTableRecord
  2
NOCUT
 70
     0
 62
     7
  6
Continuous
370
    25
390
F
347
35B
348
0
  0
LAYER
  5
39F
330
2
100
AcDbSymbolTableRecord
100
AcDbLayerTableRecord
  2
SK1
 70
     0
 62
     4
  6
Continuous
370
    50
390
F
347
35B
348
0
  0
LAYER
  5
3A0
330
2
100
AcDbSymbolTableRecord
100
AcDbLayerTableRecord
  2
SK2
 70
     0
 62
     7
  6
Continuous
370
    25
390
F
347
35B
348
0
  0
LAYER
  5
3A1
330
2
100
AcDbSymbolTableRecord
100
AcDbLayerTableRecord
  2
SK3
 70
     0
 62
     1
  6
DASH
370
    35
390
F
347
35B
348
0
  0
LAYER
  5
3A2
330
2
100
AcDbSymbolTableRecord
100
AcDbLayerTableRecord
  2
SK4
 70
     0
 62
     2
  6
LONGDASH_DASH
370
    25
390
F
347
35B
348
0
  0
LAYER
  5
3A3
330
2
100
AcDbSymbolTableRecord
100
AcDbLayerTableRecord
  2
SK6
 70
     0
 62
     5
  6
Continuous
370
    -3
390
F
347
35B
348
0
  0
LAYER
  5
3A4
330
2
100
AcDbSymbolTableRecord
100
AcDbLayerTableRecord
  2
INFTOTAL
 70
     0
 62
     9
  6
Continuous
370
    18
390
F
347
35B
348
0
  0
ENDTAB
  0
TABLE
  2
STYLE
  5
3
330
0
100
AcDbSymbolTable
 70
     2
  0
STYLE
  5
11
330
3
100
AcDbSymbolTableRecord
100
AcDbTextStyleTableRecord
  2
Standard
 70
     0
 40
0.0
 41
1.0
 50
0.0
 71
     0
 42
0.2
  3
txt
  4

  0
STYLE
  5
35C
330
3
100
AcDbSymbolTableRecord
100
AcDbTextStyleTableRecord
  2
BMG_Text
 70
     0
 40
3.5
 41
1.0
 50
0.0
 71
     0
 42
0.2
  3
monos.ttf
  4

1001
ACAD
1000
Monospac821 BT
1071
       49
  0
ENDTAB
  0
TABLE
  2
VIEW
  5
6
330
0
100
AcDbSymbolTable
 70
     0
  0
ENDTAB
  0
TABLE
  2
UCS
  5
7
330
0
100
AcDbSymbolTable
 70
     0
  0
ENDTAB
  0
TABLE
  2
APPID
  5
9
330
0
100
AcDbSymbolTable
 70
     1
  0
APPID
  5
12
330
9
100
AcDbSymbolTableRecord
100
AcDbRegAppTableRecord
  2
ACAD
 70
     0
  0
ENDTAB
  0
TABLE
  2
DIMSTYLE
  5
A
330
0
100
AcDbSymbolTable
 70
     1
100
AcDbDimStyleTable
  0
DIMSTYLE
105
28
330
A
100
AcDbSymbolTableRecord
100
AcDbDimStyleTableRecord
  2
Standard
 70
     0
178
     0
340
11
  0
ENDTAB
  0
TABLE
  2
BLOCK_RECORD
  5
1
330
0
100
AcDbSymbolTable
 70
     0
  0
BLOCK_RECORD
  5
1D
330
1
100
AcDbSymbolTableRecord
100
AcDbBlockTableRecord
  2
*Model_Space
340
1E
 70
     0
280
     1
281
     0
  0
BLOCK_RECORD
  5
1B
330
1
100
AcDbSymbolTableRecord
100
AcDbBlockTableRecord
  2
*Paper_Space
340
1C
 70
     0
280
     1
281
     0
  0
ENDTAB
  0
ENDSEC
  0
SECTION
  2
BLOCKS
  0
BLOCK
  5
345
330
1D
100
AcDbEntity
  8
0
100
AcDbBlockBegin
  2
*Model_Space
 70
     0
 10
0.0
 20
0.0
 30
0.0
  3
*Model_Space
  1

  0
ENDBLK
  5
346
330
1D
100
AcDbEntity
  8
0
100
AcDbBlockEnd
  0
BLOCK
  5
343
330
1B
100
AcDbEntity
 67
     1
  8
0
100
AcDbBlockBegin
  2
*Paper_Space
 70
     0
 10
0.0
 20
0.0
 30
0.0
  3
*Paper_Space
  1

  0
ENDBLK
  5
344
330
1B
100
AcDbEntity
 67
     1
  8
0
100
AcDbBlockEnd
  0
ENDSEC
  0
SECTION
  2
ENTITIES
  0
LINE
  5
29
330
1D
100
AcDbEntity
  8
3
100
AcDbLine
 10
-8.0
 20
-65.224583037
 30
0.0
 11
-16.0
 21
-65.224583037
 31
0.0
  0
LINE
  5
2A
330
1D
100
AcDbEntity
  8
1
100
AcDbLine
 10
-16.0
 20
-47.724583037
 30
0.0
 11
-14.0
 21
-47.724583037
 31
0.0
  0
LINE
  5
2B
330
1D
100
AcDbEntity
  8
1
100
AcDbLine
 10
14.95
 20
79.724583037
 30
0.0
 11
0.4
 21
79.724583037
 31
0.0
  0
LINE
  5
2C
330
1D
100
AcDbEntity
  8
1
100
AcDbLine
 10
42.25
 20
62.724583037
 30
0.0
 11
31.45
 21
62.724583037
 31
0.0
  0
LINE
  5
2D
330
1D
100
AcDbEntity
  8
1
100
AcDbLine
 10
31.45
 20
44.724583037
 30
0.0
 11
42.25
 21
44.724583037
 31
0.0
  0
ARC
  5
2E
330
1D
100
AcDbEntity
  8
1
100
AcDbCircle
 10
42.25
 20
61.524583037
 30
0.0
 40
1.2
100
AcDbArc
 50
0.0
 51
90.0
  0
ARC
  5
2F
330
1D
100
AcDbEntity
  8
1
100
AcDbCircle
 10
42.25
 20
45.924583037
 30
0.0
 40
1.2
100
AcDbArc
 50
270.0
 51
0.0
  0
LINE
  5
30
330
1D
100
AcDbEntity
  8
1
100
AcDbLine
 10
29.45
 20
59.724583037
 30
0.0
 11
25.0
 21
59.724583037
 31
0.0
  0
LINE
  5
31
330
1D
100
AcDbEntity
  8
1
100
AcDbLine
 10
25.0
 20
47.724583037
 30
0.0
 11
29.45
 21
47.724583037
 31
0.0
  0
LINE
  5
32
330
1D
100
AcDbEntity
  8
1
100
AcDbLine
 10
42.25
 20
34.724583037
 30
0.0
 11
31.45
 21
34.724583037
 31
0.0
  0
LINE
  5
33
330
1D
100
AcDbEntity
  8
1
100
AcDbLine
 10
31.45
 20
16.724583037
 30
0.0
 11
42.25
 21
16.724583037
 31
0.0
  0
ARC
  5
34
330
1D
100
AcDbEntity
  8
1
100
AcDbCircle
 10
42.25
 20
33.524583037
 30
0.0
 40
1.2
100
AcDbArc
 50
0.0
 51
90.0
  0
ARC
  5
35
330
1D
100
AcDbEntity
  8
1
100
AcDbCircle
 10
42.25
 20
17.924583037
 30
0.0
 40
1.2
100
AcDbArc
 50
270.0
 51
0.0
  0
LINE
  5
36
330
1D
100
AcDbEntity
  8
1
100
AcDbLine
 10
29.45
 20
31.724583037
 30
0.0
 11
25.0
 21
31.724583037
 31
0.0
  0
LINE
  5
37
330
1D
100
AcDbEntity
  8
1
100
AcDbLine
 10
25.0
 20
19.724583037
 30
0.0
 11
29.45
 21
19.724583037
 31
0.0
  0
LINE
  5
38
330
1D
100
AcDbEntity
  8
1
100
AcDbLine
 10
29.45
 20
14.724583037
 30
0.0
 11
31.45
 21
14.724583037
 31
0.0
  0
LINE
  5
39
330
1D
100
AcDbEntity
  8
1
100
AcDbLine
 10
31.45
 20
36.724583037
 30
0.0
 11
29.45
 21
36.724583037
 31
0.0
  0
LINE
  5
3A
330
1D
100
AcDbEntity
  8
1
100
AcDbLine
 10
29.45
 20
42.724583037
 30
0.0
 11
31.45
 21
42.724583037
 31
0.0
  0
LINE
  5
3B
330
1D
100
AcDbEntity
  8
1
100
AcDbLine
 10
31.45
 20
64.724583037
 30
0.0
 11
29.45
 21
64.724583037
 31
0.0
  0
LINE
  5
3C
330
1D
100
AcDbEntity
  8
1
100
AcDbLine
 10
-5.5
 20
30.781207364
 30
0.0
 11
-5.5
 21
33.66795871
 31
0.0
  0
LINE
  5
3D
330
1D
100
AcDbEntity
  8
1
100
AcDbLine
 10
-5.5
 20
33.66795871
 30
0.0
 11
-8.0
 21
35.111334383
 31
0.0
  0
LINE
  5
3E
330
1D
100
AcDbEntity
  8
1
100
AcDbLine
 10
-10.5
 20
33.66795871
 30
0.0
 11
-8.0
 21
35.111334383
 31
0.0
  0
LINE
  5
3F
330
1D
100
AcDbEntity
  8
1
100
AcDbLine
 10
-10.5
 20
33.66795871
 30
0.0
 11
-10.5
 21
30.781207364
 31
0.0
  0
LINE
  5
40
330
1D
100
AcDbEntity
  8
1
100
AcDbLine
 10
-8.0
 20
29.337831691
 30
0.0
 11
-10.5
 21
30.781207364
 31
0.0
  0
LINE
  5
41
330
1D
100
AcDbEntity
  8
1
100
AcDbLine
 10
-5.5
 20
30.781207364
 30
0.0
 11
-8.0
 21
29.337831691
 31
0.0
  0
LINE
  5
42
330
1D
100
AcDbEntity
  8
1
100
AcDbLine
 10
-5.5
 20
51.16795871
 30
0.0
 11
-8.0
 21
52.611334383
 31
0.0
  0
LINE
  5
43
330
1D
100
AcDbEntity
  8
1
100
AcDbLine
 10
-8.0
 20
52.611334383
 30
0.0
 11
-10.5
 21
51.16795871
 31
0.0
  0
LINE
  5
44
330
1D
100
AcDbEntity
  8
1
100
AcDbLine
 10
-10.5
 20
48.281207364
 30
0.0
 11
-10.5
 21
51.16795871
 31
0.0
  0
LINE
  5
45
330
1D
100
AcDbEntity
  8
1
100
AcDbLine
 10
-10.5
 20
48.281207364
 30
0.0
 11
-8.0
 21
46.837831691
 31
0.0
  0
LINE
  5
46
330
1D
100
AcDbEntity
  8
1
100
AcDbLine
 10
-5.5
 20
48.281207364
 30
0.0
 11
-8.0
 21
46.837831691
 31
0.0
  0
LINE
  5
47
330
1D
100
AcDbEntity
  8
1
100
AcDbLine
 10
-5.5
 20
51.16795871
 30
0.0
 11
-5.5
 21
48.281207364
 31
0.0
  0
LINE
  5
48
330
1D
100
AcDbEntity
  8
1
100
AcDbLine
 10
0.0
 20
78.196580007
 30
0.0
 11
0.4
 21
78.196580007
 31
0.0
  0
LINE
  5
49
330
1D
100
AcDbEntity
  8
1
100
AcDbLine
 10
0.4
 20
78.196580007
 30
0.0
 11
0.4
 21
79.724583037
 31
0.0
  0
LINE
  5
4A
330
1D
100
AcDbEntity
  8
1
100
AcDbLine
 10
14.95
 20
76.426769483
 30
0.0
 11
14.95
 21
79.724583037
 31
0.0
  0
LINE
  5
4B
330
1D
100
AcDbEntity
  8
1
100
AcDbLine
 10
15.0
 20
76.426769483
 30
0.0
 11
14.95
 21
76.426769483
 31
0.0
  0
LINE
  5
4C
330
1D
100
AcDbEntity
  8
1
100
AcDbLine
 10
15.0
 20
76.426769483
 30
0.0
 11
15.0
 21
76.40185157
 31
0.0
  0
LINE
  5
4D
330
1D
100
AcDbEntity
  8
1
100
AcDbLine
 10
15.0
 20
76.40185157
 30
0.0
 11
15.004339273
 21
76.363777567
 31
0.0
  0
LINE
  5
4E
330
1D
100
AcDbEntity
  8
1
100
AcDbLine
 10
15.004339273
 20
76.363777567
 30
0.0
 11
15.13675631
 21
76.189985065
 31
0.0
  0
LINE
  5
4F
330
1D
100
AcDbEntity
  8
1
100
AcDbLine
 10
15.13675631
 20
76.189985065
 30
0.0
 11
15.443420375
 21
76.037103261
 31
0.0
  0
LINE
  5
50
330
1D
100
AcDbEntity
  8
1
100
AcDbLine
 10
15.443420375
 20
76.037103261
 30
0.0
 11
15.876393945
 21
75.930765824
 31
0.0
  0
LINE
  5
51
330
1D
100
AcDbEntity
  8
1
100
AcDbLine
 10
15.876393945
 20
75.930765824
 30
0.0
 11
16.363469224
 21
75.884258159
 31
0.0
  0
LINE
  5
52
330
1D
100
AcDbEntity
  8
1
100
AcDbLine
 10
16.363469224
 20
75.884258159
 30
0.0
 11
16.5
 21
75.882015017
 31
0.0
  0
LINE
  5
53
330
1D
100
AcDbEntity
  8
1
100
AcDbLine
 10
16.5
 20
75.882015017
 30
0.0
 11
25.0
 21
75.882015017
 31
0.0
  0
LINE
  5
54
330
1D
100
AcDbEntity
  8
1
100
AcDbLine
 10
25.0
 20
73.425343744
 30
0.0
 11
24.998957605
 21
73.39869905
 31
0.0
  0
LINE
  5
55
330
1D
100
AcDbEntity
  8
1
100
AcDbLine
 10
24.998957605
 20
73.39869905
 30
0.0
 11
24.87743975
 21
73.138982094
 31
0.0
  0
LINE
  5
56
330
1D
100
AcDbEntity
  8
1
100
AcDbLine
 10
24.87743975
 20
73.138982094
 30
0.0
 11
24.558128767
 21
72.907370132
 31
0.0
  0
LINE
  5
57
330
1D
100
AcDbEntity
  8
1
100
AcDbLine
 10
24.558128767
 20
72.907370132
 30
0.0
 11
24.102819393
 21
72.751616434
 31
0.0
  0
LINE
  5
58
330
1D
100
AcDbEntity
  8
1
100
AcDbLine
 10
24.102819393
 20
72.751616434
 30
0.0
 11
23.888228568
 21
72.713487102
 31
0.0
  0
LINE
  5
59
330
1D
100
AcDbEntity
  8
1
100
AcDbLine
 10
23.888228568
 20
72.713487102
 30
0.0
 11
18.003881373
 21
71.88696518
 31
0.0
  0
LINE
  5
5A
330
1D
100
AcDbEntity
  8
1
100
AcDbLine
 10
18.003881373
 20
71.88696518
 30
0.0
 11
12.206351152
 21
71.017509194
 31
0.0
  0
LINE
  5
5B
330
1D
100
AcDbEntity
  8
1
100
AcDbLine
 10
12.206351152
 20
71.017509194
 30
0.0
 11
6.5
 21
70.105773328
 31
0.0
  0
LINE
  5
5D
330
1D
100
AcDbEntity
  8
1
100
AcDbLine
 10
-14.0
 20
70.105773328
 30
0.0
 11
-14.994714776
 21
70.705359224
 31
0.0
  0
LINE
  5
5E
330
1D
100
AcDbEntity
  8
1
100
AcDbLine
 10
-14.994714776
 20
70.705359224
 30
0.0
 11
-16.0
 21
71.287048445
 31
0.0
  0
LINE
  5
60
330
1D
100
AcDbEntity
  8
1
100
AcDbLine
 10
-16.0
 20
76.460921587
 30
0.0
 11
-14.453514231
 21
76.748165489
 31
0.0
  0
LINE
  5
61
330
1D
100
AcDbEntity
  8
1
100
AcDbLine
 10
-14.453514231
 20
76.748165489
 30
0.0
 11
-12.9
 21
77.02247611
 31
0.0
  0
LINE
  5
62
330
1D
100
AcDbEntity
  8
1
100
AcDbLine
 10
-12.9
 20
77.02247611
 30
0.0
 11
-9.619354277
 21
76.65415343
 31
0.0
  0
LINE
  5
63
330
1D
100
AcDbEntity
  8
1
100
AcDbLine
 10
-9.619354277
 20
76.65415343
 30
0.0
 11
-6.358799811
 21
76.262909905
 31
0.0
  0
LINE
  5
64
330
1D
100
AcDbEntity
  8
1
100
AcDbLine
 10
-6.358799811
 20
76.262909905
 30
0.0
 11
-3.119545323
 21
75.848890571
 31
0.0
  0
LINE
  5
65
330
1D
100
AcDbEntity
  8
1
100
AcDbLine
 10
-3.119545323
 20
75.848890571
 30
0.0
 11
-2.553118496
 21
75.802945588
 31
0.0
  0
LINE
  5
66
330
1D
100
AcDbEntity
  8
1
100
AcDbLine
 10
-2.553118496
 20
75.802945588
 30
0.0
 11
-1.833537162
 21
75.821463658
 31
0.0
  0
LINE
  5
67
330
1D
100
AcDbEntity
  8
1
100
AcDbLine
 10
-1.833537162
 20
75.821463658
 30
0.0
 11
-1.181330648
 21
75.917921741
 31
0.0
  0
LINE
  5
68
330
1D
100
AcDbEntity
  8
1
100
AcDbLine
 10
-1.181330648
 20
75.917921741
 30
0.0
 11
-0.638415951
 21
76.081642385
 31
0.0
  0
LINE
  5
69
330
1D
100
AcDbEntity
  8
1
100
AcDbLine
 10
-0.638415951
 20
76.081642385
 30
0.0
 11
-0.257364475
 21
76.299785751
 31
0.0
  0
LINE
  5
6A
330
1D
100
AcDbEntity
  8
1
100
AcDbLine
 10
-0.257364475
 20
76.299785751
 30
0.0
 11
-0.140964282
 21
76.43346476
 31
0.0
  0
LINE
  5
6B
330
1D
100
AcDbEntity
  8
1
100
AcDbLine
 10
0.0
 20
76.533577519
 30
0.0
 11
-0.001169274
 21
76.523614333
 31
0.0
  0
LINE
  5
6C
330
1D
100
AcDbEntity
  8
1
100
AcDbLine
 10
-0.001169274
 20
76.523614333
 30
0.0
 11
-0.036614315
 21
76.478870882
 31
0.0
  0
LINE
  5
6D
330
1D
100
AcDbEntity
  8
1
100
AcDbLine
 10
-0.036614315
 20
76.478870882
 30
0.0
 11
-0.118110689
 21
76.440416931
 31
0.0
  0
LINE
  5
6E
330
1D
100
AcDbEntity
  8
1
100
AcDbLine
 10
-0.118110689
 20
76.440416931
 30
0.0
 11
-0.140964282
 21
76.43346476
 31
0.0
  0
LINE
  5
6F
330
1D
100
AcDbEntity
  8
1
100
AcDbLine
 10
0.0
 20
78.196580007
 30
0.0
 11
0.0
 21
76.533577519
 31
0.0
  0
ARC
  5
70
330
1D
100
AcDbEntity
  8
1
100
AcDbCircle
 10
-8.0
 20
49.724583037
 30
0.0
 40
6.25
100
AcDbArc
 50
198.662924885
 51
163.739795292
  0
LINE
  5
71
330
1D
100
AcDbEntity
  8
1
100
AcDbLine
 10
-14.0
 20
70.105773328
 30
0.0
 11
-14.0
 21
51.474583037
 31
0.0
  0
LINE
  5
73
330
1D
100
AcDbEntity
  8
1
100
AcDbLine
 10
6.5
 20
70.105773328
 30
0.0
 11
6.5
 21
15.224583037
 31
0.0
  0
LINE
  5
75
330
1D
100
AcDbEntity
  8
1
100
AcDbLine
 10
-14.0
 20
30.474583037
 30
0.0
 11
-14.0
 21
15.224583037
 31
0.0
  0
ARC
  5
76
330
1D
100
AcDbEntity
  8
1
100
AcDbCircle
 10
-8.0
 20
32.224583037
 30
0.0
 40
6.25
100
AcDbArc
 50
196.260204708
 51
163.739795292
  0
LINE
  5
77
330
1D
100
AcDbEntity
  8
1
100
AcDbLine
 10
-14.0
 20
47.974583036
 30
0.0
 11
-14.0
 21
33.974583037
 31
0.0
  0
ARC
  5
79
330
1D
100
AcDbEntity
  8
1
100
AcDbCircle
 10
-4.416917957
 20
49.724583037
 30
0.0
 40
9.741558471
100
AcDbArc
 50
169.651050409
 51
191.847410155
  0
ARC
  5
7B
330
1D
100
AcDbEntity
  8
1
100
AcDbCircle
 10
-4.416917957
 20
32.224583037
 30
0.0
 40
9.741558471
100
AcDbArc
 50
169.651050409
 51
190.348949591
  0
LINE
  5
7C
330
1D
100
AcDbEntity
  8
1
100
AcDbLine
 10
-16.0
 20
15.224583037
 30
0.0
 11
0.0
 21
15.224583037
 31
0.0
  0
LINE
  5
7D
330
1D
100
AcDbEntity
  8
1
100
AcDbLine
 10
-16.0
 20
76.460921587
 30
0.0
 11
-16.0
 21
15.224583037
 31
0.0
  0
LINE
  5
7E
330
1D
100
AcDbEntity
  8
1
100
AcDbLine
 10
23.888228568
 20
17.319967687
 30
0.0
 11
16.345090951
 21
21.224583037
 31
0.0
  0
LINE
  5
80
330
1D
100
AcDbEntity
  8
1
100
AcDbLine
 10
16.345090951
 20
63.224583037
 30
0.0
 11
23.888228568
 21
67.129198387
 31
0.0
  0
LINE
  5
81
330
1D
100
AcDbEntity
  8
1
100
AcDbLine
 10
16.345090951
 20
63.224583037
 30
0.0
 11
16.345090951
 21
21.224583037
 31
0.0
  0
LINE
  5
82
330
1D
100
AcDbEntity
  8
1
100
AcDbLine
 10
16.345090951
 20
21.224583037
 30
0.0
 11
25.0
 21
21.224583037
 31
0.0
  0
LINE
  5
83
330
1D
100
AcDbEntity
  8
1
100
AcDbLine
 10
25.0
 20
63.224583037
 30
0.0
 11
16.345090951
 21
63.224583037
 31
0.0
  0
LINE
  5
84
330
1D
100
AcDbEntity
  8
1
100
AcDbLine
 10
25.0
 20
15.224583037
 30
0.0
 11
25.0
 21
75.882015017
 31
0.0
  0
LINE
  5
85
330
1D
100
AcDbEntity
  8
1
100
AcDbLine
 10
23.888228568
 20
67.129198387
 30
0.0
 11
24.150825609
 21
67.245985277
 31
0.0
  0
LINE
  5
86
330
1D
100
AcDbEntity
  8
1
100
AcDbLine
 10
24.150825609
 20
67.245985277
 30
0.0
 11
24.390730278
 21
67.31340652
 31
0.0
  0
LINE
  5
87
330
1D
100
AcDbEntity
  8
1
100
AcDbLine
 10
24.390730278
 20
67.31340652
 30
0.0
 11
24.599577808
 21
67.329111338
 31
0.0
  0
LINE
  5
88
330
1D
100
AcDbEntity
  8
1
100
AcDbLine
 10
24.599577808
 20
67.329111338
 30
0.0
 11
24.770086299
 21
67.292552149
 31
0.0
  0
LINE
  5
89
330
1D
100
AcDbEntity
  8
1
100
AcDbLine
 10
24.770086299
 20
67.292552149
 30
0.0
 11
24.896310623
 21
67.205003665
 31
0.0
  0
LINE
  5
8A
330
1D
100
AcDbEntity
  8
1
100
AcDbLine
 10
24.896310623
 20
67.205003665
 30
0.0
 11
24.97384971
 21
67.069518443
 31
0.0
  0
LINE
  5
8B
330
1D
100
AcDbEntity
  8
1
100
AcDbLine
 10
24.97384971
 20
67.069518443
 30
0.0
 11
25.0
 21
66.890820453
 31
0.0
  0
LINE
  5
8C
330
1D
100
AcDbEntity
  8
1
100
AcDbLine
 10
25.0
 20
17.55834562
 30
0.0
 11
24.97384971
 21
17.379647631
 31
0.0
  0
LINE
  5
8D
330
1D
100
AcDbEntity
  8
1
100
AcDbLine
 10
24.97384971
 20
17.379647631
 30
0.0
 11
24.896310623
 21
17.244162408
 31
0.0
  0
LINE
  5
8E
330
1D
100
AcDbEntity
  8
1
100
AcDbLine
 10
24.896310623
 20
17.244162408
 30
0.0
 11
24.770086299
 21
17.156613924
 31
0.0
  0
LINE
  5
8F
330
1D
100
AcDbEntity
  8
1
100
AcDbLine
 10
24.770086299
 20
17.156613924
 30
0.0
 11
24.599577808
 21
17.120054735
 31
0.0
  0
LINE
  5
90
330
1D
100
AcDbEntity
  8
1
100
AcDbLine
 10
24.599577808
 20
17.120054735
 30
0.0
 11
24.390730278
 21
17.135759553
 31
0.0
  0
LINE
  5
91
330
1D
100
AcDbEntity
  8
1
100
AcDbLine
 10
24.390730278
 20
17.135759553
 30
0.0
 11
24.150825609
 21
17.203180797
 31
0.0
  0
LINE
  5
92
330
1D
100
AcDbEntity
  8
1
100
AcDbLine
 10
24.150825609
 20
17.203180797
 30
0.0
 11
23.888228568
 21
17.319967687
 31
0.0
  0
LINE
  5
94
330
1D
100
AcDbEntity
  8
1
100
AcDbLine
 10
43.45
 20
61.524583037
 30
0.0
 11
43.45
 21
45.924583037
 31
0.0
  0
LINE
  5
96
330
1D
100
AcDbEntity
  8
1
100
AcDbLine
 10
43.45
 20
33.524583037
 30
0.0
 11
43.45
 21
17.924583037
 31
0.0
  0
LINE
  5
98
330
1D
100
AcDbEntity
  8
1
100
AcDbLine
 10
29.45
 20
14.724583037
 30
0.0
 11
29.45
 21
36.724583037
 31
0.0
  0
LINE
  5
99
330
1D
100
AcDbEntity
  8
1
100
AcDbLine
 10
31.45
 20
14.724583037
 30
0.0
 11
31.45
 21
36.724583037
 31
0.0
  0
LINE
  5
9B
330
1D
100
AcDbEntity
  8
1
100
AcDbLine
 10
29.45
 20
42.724583037
 30
0.0
 11
29.45
 21
64.724583037
 31
0.0
  0
LINE
  5
9D
330
1D
100
AcDbEntity
  8
1
100
AcDbLine
 10
31.45
 20
42.724583037
 30
0.0
 11
31.45
 21
64.724583037
 31
0.0
  0
LINE
  5
9E
330
1D
100
AcDbEntity
  8
1
100
AcDbLine
 10
0.4
 20
-79.724583037
 30
0.0
 11
14.95
 21
-79.724583037
 31
0.0
  0
LINE
  5
9F
330
1D
100
AcDbEntity
  8
1
100
AcDbLine
 10
42.25
 20
-44.724583037
 30
0.0
 11
31.45
 21
-44.724583037
 31
0.0
  0
LINE
  5
A0
330
1D
100
AcDbEntity
  8
1
100
AcDbLine
 10
31.45
 20
-62.724583037
 30
0.0
 11
42.25
 21
-62.724583037
 31
0.0
  0
ARC
  5
A1
330
1D
100
AcDbEntity
  8
1
100
AcDbCircle
 10
42.25
 20
-45.924583037
 30
0.0
 40
1.2
100
AcDbArc
 50
0.0
 51
90.0
  0
ARC
  5
A2
330
1D
100
AcDbEntity
  8
1
100
AcDbCircle
 10
42.25
 20
-61.524583037
 30
0.0
 40
1.2
100
AcDbArc
 50
270.0
 51
0.0
  0
LINE
  5
A3
330
1D
100
AcDbEntity
  8
1
100
AcDbLine
 10
29.45
 20
-47.724583037
 30
0.0
 11
25.0
 21
-47.724583037
 31
0.0
  0
LINE
  5
A4
330
1D
100
AcDbEntity
  8
1
100
AcDbLine
 10
25.0
 20
-59.724583037
 30
0.0
 11
29.45
 21
-59.724583037
 31
0.0
  0
LINE
  5
A5
330
1D
100
AcDbEntity
  8
1
100
AcDbLine
 10
42.25
 20
-16.724583037
 30
0.0
 11
31.45
 21
-16.724583037
 31
0.0
  0
LINE
  5
A6
330
1D
100
AcDbEntity
  8
1
100
AcDbLine
 10
31.45
 20
-34.724583037
 30
0.0
 11
42.25
 21
-34.724583037
 31
0.0
  0
ARC
  5
A7
330
1D
100
AcDbEntity
  8
1
100
AcDbCircle
 10
42.25
 20
-17.924583037
 30
0.0
 40
1.2
100
AcDbArc
 50
0.0
 51
90.0
  0
ARC
  5
A8
330
1D
100
AcDbEntity
  8
1
100
AcDbCircle
 10
42.25
 20
-33.524583037
 30
0.0
 40
1.2
100
AcDbArc
 50
270.0
 51
0.0
  0
LINE
  5
A9
330
1D
100
AcDbEntity
  8
1
100
AcDbLine
 10
29.45
 20
-19.724583037
 30
0.0
 11
25.0
 21
-19.724583037
 31
0.0
  0
LINE
  5
AA
330
1D
100
AcDbEntity
  8
1
100
AcDbLine
 10
25.0
 20
-31.724583037
 30
0.0
 11
29.45
 21
-31.724583037
 31
0.0
  0
LINE
  5
AB
330
1D
100
AcDbEntity
  8
1
100
AcDbLine
 10
29.45
 20
-36.724583037
 30
0.0
 11
31.45
 21
-36.724583037
 31
0.0
  0
LINE
  5
AC
330
1D
100
AcDbEntity
  8
1
100
AcDbLine
 10
31.45
 20
-14.724583037
 30
0.0
 11
29.45
 21
-14.724583037
 31
0.0
  0
LINE
  5
AD
330
1D
100
AcDbEntity
  8
1
100
AcDbLine
 10
29.45
 20
-64.724583037
 30
0.0
 11
31.45
 21
-64.724583037
 31
0.0
  0
LINE
  5
AE
330
1D
100
AcDbEntity
  8
1
100
AcDbLine
 10
31.45
 20
-42.724583037
 30
0.0
 11
29.45
 21
-42.724583037
 31
0.0
  0
LINE
  5
AF
330
1D
100
AcDbEntity
  8
1
100
AcDbLine
 10
-10.80000003
 20
-40.396583037
 30
0.0
 11
-10.30864392
 21
-40.363685571
 31
0.0
  0
LINE
  5
B0
330
1D
100
AcDbEntity
  8
1
100
AcDbLine
 10
-10.30864392
 20
-40.363685571
 30
0.0
 11
-9.82503679
 21
-40.265511985
 31
0.0
  0
LINE
  5
B1
330
1D
100
AcDbEntity
  8
1
100
AcDbLine
 10
-9.82503679
 20
-40.265511985
 30
0.0
 11
-9.356805412
 21
-40.103610536
 31
0.0
  0
LINE
  5
B2
330
1D
100
AcDbEntity
  8
1
100
AcDbLine
 10
-9.356805412
 20
-40.103610536
 30
0.0
 11
-8.911334076
 21
-39.880534506
 31
0.0
  0
LINE
  5
B3
330
1D
100
AcDbEntity
  8
1
100
AcDbLine
 10
-8.911334076
 20
-39.880534506
 30
0.0
 11
-8.495648129
 21
-39.599801937
 31
0.0
  0
LINE
  5
B4
330
1D
100
AcDbEntity
  8
1
100
AcDbLine
 10
-8.495648129
 20
-39.599801937
 30
0.0
 11
-8.116303189
 21
-39.26584015
 31
0.0
  0
LINE
  5
B5
330
1D
100
AcDbEntity
  8
1
100
AcDbLine
 10
-8.116303189
 20
-39.26584015
 30
0.0
 11
-7.779281752
 21
-38.883915922
 31
0.0
  0
LINE
  5
B6
330
1D
100
AcDbEntity
  8
1
100
AcDbLine
 10
-7.779281752
 20
-38.883915922
 30
0.0
 11
-7.489898845
 21
-38.460052425
 31
0.0
  0
LINE
  5
B7
330
1D
100
AcDbEntity
  8
1
100
AcDbLine
 10
-7.489898845
 20
-38.460052425
 30
0.0
 11
-7.252718212
 21
-38.000934241
 31
0.0
  0
LINE
  5
B8
330
1D
100
AcDbEntity
  8
1
100
AcDbLine
 10
-7.252718212
 20
-38.000934241
 30
0.0
 11
-7.071480333
 21
-37.513801937
 31
0.0
  0
LINE
  5
B9
330
1D
100
AcDbEntity
  8
1
100
AcDbLine
 10
-7.071480333
 20
-37.513801937
 30
0.0
 11
-6.949043436
 21
-37.006337881
 31
0.0
  0
LINE
  5
BA
330
1D
100
AcDbEntity
  8
1
100
AcDbLine
 10
-6.949043436
 20
-37.006337881
 30
0.0
 11
-6.887338425
 21
-36.486545084
 31
0.0
  0
LINE
  5
BB
330
1D
100
AcDbEntity
  8
1
100
AcDbLine
 10
-6.887338425
 20
-36.486545084
 30
0.0
 11
-6.887338425
 21
-35.962620989
 31
0.0
  0
LINE
  5
BC
330
1D
100
AcDbEntity
  8
1
100
AcDbLine
 10
-6.887338425
 20
-35.962620989
 30
0.0
 11
-6.949043436
 21
-35.442828192
 31
0.0
  0
LINE
  5
BD
330
1D
100
AcDbEntity
  8
1
100
AcDbLine
 10
-6.949043436
 20
-35.442828192
 30
0.0
 11
-7.071480333
 21
-34.935364136
 31
0.0
  0
LINE
  5
BE
330
1D
100
AcDbEntity
  8
1
100
AcDbLine
 10
-7.071480333
 20
-34.935364136
 30
0.0
 11
-7.252718212
 21
-34.448231832
 31
0.0
  0
LINE
  5
BF
330
1D
100
AcDbEntity
  8
1
100
AcDbLine
 10
-7.252718212
 20
-34.448231832
 30
0.0
 11
-7.489898845
 21
-33.989113648
 31
0.0
  0
LINE
  5
C0
330
1D
100
AcDbEntity
  8
1
100
AcDbLine
 10
-7.489898845
 20
-33.989113648
 30
0.0
 11
-7.779281752
 21
-33.565250151
 31
0.0
  0
LINE
  5
C1
330
1D
100
AcDbEntity
  8
1
100
AcDbLine
 10
-7.779281752
 20
-33.565250151
 30
0.0
 11
-8.116303189
 21
-33.183325923
 31
0.0
  0
LINE
  5
C2
330
1D
100
AcDbEntity
  8
1
100
AcDbLine
 10
-8.116303189
 20
-33.183325923
 30
0.0
 11
-8.495648129
 21
-32.849364136
 31
0.0
  0
LINE
  5
C3
330
1D
100
AcDbEntity
  8
1
100
AcDbLine
 10
-8.495648129
 20
-32.849364136
 30
0.0
 11
-8.911334076
 21
-32.568631568
 31
0.0
  0
LINE
  5
C4
330
1D
100
AcDbEntity
  8
1
100
AcDbLine
 10
-8.911334076
 20
-32.568631568
 30
0.0
 11
-9.356805412
 21
-32.345555538
 31
0.0
  0
LINE
  5
C5
330
1D
100
AcDbEntity
  8
1
100
AcDbLine
 10
-9.356805412
 20
-32.345555538
 30
0.0
 11
-9.82503679
 21
-32.183654088
 31
0.0
  0
LINE
  5
C6
330
1D
100
AcDbEntity
  8
1
100
AcDbLine
 10
-9.82503679
 20
-32.183654088
 30
0.0
 11
-10.30864392
 21
-32.085480503
 31
0.0
  0
LINE
  5
C7
330
1D
100
AcDbEntity
  8
1
100
AcDbLine
 10
-10.30864392
 20
-32.085480503
 30
0.0
 11
-10.80000003
 21
-32.052583037
 31
0.0
  0
LINE
  5
C8
330
1D
100
AcDbEntity
  8
1
100
AcDbLine
 10
-10.80000003
 20
-32.052583037
 30
0.0
 11
-11.29135614
 21
-32.085480503
 31
0.0
  0
LINE
  5
C9
330
1D
100
AcDbEntity
  8
1
100
AcDbLine
 10
-11.29135614
 20
-32.085480503
 30
0.0
 11
-11.77496327
 21
-32.183654088
 31
0.0
  0
LINE
  5
CA
330
1D
100
AcDbEntity
  8
1
100
AcDbLine
 10
-11.77496327
 20
-32.183654088
 30
0.0
 11
-12.243194648
 21
-32.345555538
 31
0.0
  0
LINE
  5
CB
330
1D
100
AcDbEntity
  8
1
100
AcDbLine
 10
-12.243194648
 20
-32.345555538
 30
0.0
 11
-12.688665984
 21
-32.568631568
 31
0.0
  0
LINE
  5
CC
330
1D
100
AcDbEntity
  8
1
100
AcDbLine
 10
-12.688665984
 20
-32.568631568
 30
0.0
 11
-13.104351931
 21
-32.849364136
 31
0.0
  0
LINE
  5
CD
330
1D
100
AcDbEntity
  8
1
100
AcDbLine
 10
-13.104351931
 20
-32.849364136
 30
0.0
 11
-13.483696871
 21
-33.183325923
 31
0.0
  0
LINE
  5
CE
330
1D
100
AcDbEntity
  8
1
100
AcDbLine
 10
-13.483696871
 20
-33.183325923
 30
0.0
 11
-13.820718308
 21
-33.565250151
 31
0.0
  0
LINE
  5
CF
330
1D
100
AcDbEntity
  8
1
100
AcDbLine
 10
-13.820718308
 20
-33.565250151
 30
0.0
 11
-14.110101214
 21
-33.989113648
 31
0.0
  0
LINE
  5
D0
330
1D
100
AcDbEntity
  8
1
100
AcDbLine
 10
-14.110101214
 20
-33.989113648
 30
0.0
 11
-14.347281847
 21
-34.448231832
 31
0.0
  0
LINE
  5
D1
330
1D
100
AcDbEntity
  8
1
100
AcDbLine
 10
-14.347281847
 20
-34.448231832
 30
0.0
 11
-14.528519727
 21
-34.935364136
 31
0.0
  0
LINE
  5
D2
330
1D
100
AcDbEntity
  8
1
100
AcDbLine
 10
-14.528519727
 20
-34.935364136
 30
0.0
 11
-14.650956624
 21
-35.442828192
 31
0.0
  0
LINE
  5
D3
330
1D
100
AcDbEntity
  8
1
100
AcDbLine
 10
-14.650956624
 20
-35.442828192
 30
0.0
 11
-14.712661635
 21
-35.962620989
 31
0.0
  0
LINE
  5
D4
330
1D
100
AcDbEntity
  8
1
100
AcDbLine
 10
-14.712661635
 20
-35.962620989
 30
0.0
 11
-14.712661635
 21
-36.486545084
 31
0.0
  0
LINE
  5
D5
330
1D
100
AcDbEntity
  8
1
100
AcDbLine
 10
-14.712661635
 20
-36.486545084
 30
0.0
 11
-14.650956624
 21
-37.006337881
 31
0.0
  0
LINE
  5
D6
330
1D
100
AcDbEntity
  8
1
100
AcDbLine
 10
-14.650956624
 20
-37.006337881
 30
0.0
 11
-14.528519727
 21
-37.513801937
 31
0.0
  0
LINE
  5
D7
330
1D
100
AcDbEntity
  8
1
100
AcDbLine
 10
-14.528519727
 20
-37.513801937
 30
0.0
 11
-14.347281847
 21
-38.000934241
 31
0.0
  0
LINE
  5
D8
330
1D
100
AcDbEntity
  8
1
100
AcDbLine
 10
-14.347281847
 20
-38.000934241
 30
0.0
 11
-14.110101214
 21
-38.460052425
 31
0.0
  0
LINE
  5
D9
330
1D
100
AcDbEntity
  8
1
100
AcDbLine
 10
-14.110101214
 20
-38.460052425
 30
0.0
 11
-13.820718308
 21
-38.883915922
 31
0.0
  0
LINE
  5
DA
330
1D
100
AcDbEntity
  8
1
100
AcDbLine
 10
-13.820718308
 20
-38.883915922
 30
0.0
 11
-13.483696871
 21
-39.26584015
 31
0.0
  0
LINE
  5
DB
330
1D
100
AcDbEntity
  8
1
100
AcDbLine
 10
-13.483696871
 20
-39.26584015
 30
0.0
 11
-13.104351931
 21
-39.599801937
 31
0.0
  0
LINE
  5
DC
330
1D
100
AcDbEntity
  8
1
100
AcDbLine
 10
-13.104351931
 20
-39.599801937
 30
0.0
 11
-12.688665984
 21
-39.880534506
 31
0.0
  0
LINE
  5
DD
330
1D
100
AcDbEntity
  8
1
100
AcDbLine
 10
-12.688665984
 20
-39.880534506
 30
0.0
 11
-12.243194648
 21
-40.103610536
 31
0.0
  0
LINE
  5
DE
330
1D
100
AcDbEntity
  8
1
100
AcDbLine
 10
-12.243194648
 20
-40.103610536
 30
0.0
 11
-11.77496327
 21
-40.265511985
 31
0.0
  0
LINE
  5
DF
330
1D
100
AcDbEntity
  8
1
100
AcDbLine
 10
-11.77496327
 20
-40.265511985
 30
0.0
 11
-11.29135614
 21
-40.363685571
 31
0.0
  0
LINE
  5
E0
330
1D
100
AcDbEntity
  8
1
100
AcDbLine
 10
-11.29135614
 20
-40.363685571
 30
0.0
 11
-10.80000003
 21
-40.396583037
 31
0.0
  0
LINE
  5
E1
330
1D
100
AcDbEntity
  8
1
100
AcDbLine
 10
-10.636498661
 20
-41.224583037
 30
0.0
 11
-10.091040387
 21
-41.190774825
 31
0.0
  0
LINE
  5
E2
330
1D
100
AcDbEntity
  8
1
100
AcDbLine
 10
-10.091040387
 20
-41.190774825
 30
0.0
 11
-9.552958501
 21
-41.08980739
 31
0.0
  0
LINE
  5
E3
330
1D
100
AcDbEntity
  8
1
100
AcDbLine
 10
-9.552958501
 20
-41.08980739
 30
0.0
 11
-9.029529637
 21
-40.923046141
 31
0.0
  0
LINE
  5
E4
330
1D
100
AcDbEntity
  8
1
100
AcDbLine
 10
-9.029529637
 20
-40.923046141
 30
0.0
 11
-8.527832271
 21
-40.692746238
 31
0.0
  0
LINE
  5
E5
330
1D
100
AcDbEntity
  8
1
100
AcDbLine
 10
-8.527832271
 20
-40.692746238
 30
0.0
 11
-8.054651002
 21
-40.402022094
 31
0.0
  0
LINE
  5
E6
330
1D
100
AcDbEntity
  8
1
100
AcDbLine
 10
-8.054651002
 20
-40.402022094
 30
0.0
 11
-7.616384793
 21
-40.054805252
 31
0.0
  0
LINE
  5
E7
330
1D
100
AcDbEntity
  8
1
100
AcDbLine
 10
-7.616384793
 20
-40.054805252
 30
0.0
 11
-7.218960443
 21
-39.655791226
 31
0.0
  0
LINE
  5
E8
330
1D
100
AcDbEntity
  8
1
100
AcDbLine
 10
-7.218960443
 20
-39.655791226
 30
0.0
 11
-6.867752435
 21
-39.210375995
 31
0.0
  0
LINE
  5
E9
330
1D
100
AcDbEntity
  8
1
100
AcDbLine
 10
-6.867752435
 20
-39.210375995
 30
0.0
 11
-6.567510254
 21
-38.724583037
 31
0.0
  0
LINE
  5
EA
330
1D
100
AcDbEntity
  8
1
100
AcDbLine
 10
-6.567510254
 20
-38.724583037
 30
0.0
 11
-6.322294161
 21
-38.204981867
 31
0.0
  0
LINE
  5
EB
330
1D
100
AcDbEntity
  8
1
100
AcDbLine
 10
-6.322294161
 20
-38.204981867
 30
0.0
 11
-6.135420283
 21
-37.6585992
 31
0.0
  0
LINE
  5
EC
330
1D
100
AcDbEntity
  8
1
100
AcDbLine
 10
-6.135420283
 20
-37.6585992
 30
0.0
 11
-6.009415769
 21
-37.092823925
 31
0.0
  0
LINE
  5
ED
330
1D
100
AcDbEntity
  8
1
100
AcDbLine
 10
-6.009415769
 20
-37.092823925
 30
0.0
 11
-5.945984613
 21
-36.515307181
 31
0.0
  0
LINE
  5
EE
330
1D
100
AcDbEntity
  8
1
100
AcDbLine
 10
-5.945984613
 20
-36.515307181
 30
0.0
 11
-5.945984613
 21
-35.933858892
 31
0.0
  0
LINE
  5
EF
330
1D
100
AcDbEntity
  8
1
100
AcDbLine
 10
-5.945984613
 20
-35.933858892
 30
0.0
 11
-6.009415769
 21
-35.356342148
 31
0.0
  0
LINE
  5
F0
330
1D
100
AcDbEntity
  8
1
100
AcDbLine
 10
-6.009415769
 20
-35.356342148
 30
0.0
 11
-6.135420283
 21
-34.790566873
 31
0.0
  0
LINE
  5
F1
330
1D
100
AcDbEntity
  8
1
100
AcDbLine
 10
-6.135420283
 20
-34.790566873
 30
0.0
 11
-6.322294161
 21
-34.244184206
 31
0.0
  0
LINE
  5
F2
330
1D
100
AcDbEntity
  8
1
100
AcDbLine
 10
-6.322294161
 20
-34.244184206
 30
0.0
 11
-6.567510254
 21
-33.724583037
 31
0.0
  0
LINE
  5
F3
330
1D
100
AcDbEntity
  8
1
100
AcDbLine
 10
-6.567510254
 20
-33.724583037
 30
0.0
 11
-6.867752435
 21
-33.238790078
 31
0.0
  0
LINE
  5
F4
330
1D
100
AcDbEntity
  8
1
100
AcDbLine
 10
-6.867752435
 20
-33.238790078
 30
0.0
 11
-7.218960443
 21
-32.793374847
 31
0.0
  0
LINE
  5
F5
330
1D
100
AcDbEntity
  8
1
100
AcDbLine
 10
-7.218960443
 20
-32.793374847
 30
0.0
 11
-7.616384793
 21
-32.394360821
 31
0.0
  0
LINE
  5
F6
330
1D
100
AcDbEntity
  8
1
100
AcDbLine
 10
-7.616384793
 20
-32.394360821
 30
0.0
 11
-8.054651002
 21
-32.04714398
 31
0.0
  0
LINE
  5
F7
330
1D
100
AcDbEntity
  8
1
100
AcDbLine
 10
-8.054651002
 20
-32.04714398
 30
0.0
 11
-8.527832271
 21
-31.756419835
 31
0.0
  0
LINE
  5
F8
330
1D
100
AcDbEntity
  8
1
100
AcDbLine
 10
-8.527832271
 20
-31.756419835
 30
0.0
 11
-9.029529637
 21
-31.526119933
 31
0.0
  0
LINE
  5
F9
330
1D
100
AcDbEntity
  8
1
100
AcDbLine
 10
-9.029529637
 20
-31.526119933
 30
0.0
 11
-9.552958501
 21
-31.359358684
 31
0.0
  0
LINE
  5
FA
330
1D
100
AcDbEntity
  8
1
100
AcDbLine
 10
-9.552958501
 20
-31.359358684
 30
0.0
 11
-10.091040387
 21
-31.258391248
 31
0.0
  0
LINE
  5
FB
330
1D
100
AcDbEntity
  8
1
100
AcDbLine
 10
-10.091040387
 20
-31.258391248
 30
0.0
 11
-10.636498661
 21
-31.224583037
 31
0.0
  0
LINE
  5
FC
330
1D
100
AcDbEntity
  8
1
100
AcDbLine
 10
-10.636498661
 20
-31.224583037
 30
0.0
 11
-11.181956934
 21
-31.258391248
 31
0.0
  0
LINE
  5
FD
330
1D
100
AcDbEntity
  8
1
100
AcDbLine
 10
-11.181956934
 20
-31.258391248
 30
0.0
 11
-11.720038821
 21
-31.359358684
 31
0.0
  0
LINE
  5
FE
330
1D
100
AcDbEntity
  8
1
100
AcDbLine
 10
-11.720038821
 20
-31.359358684
 30
0.0
 11
-12.243467685
 21
-31.526119933
 31
0.0
  0
LINE
  5
FF
330
1D
100
AcDbEntity
  8
1
100
AcDbLine
 10
-12.243467685
 20
-31.526119933
 30
0.0
 11
-12.74516505
 21
-31.756419835
 31
0.0
  0
LINE
  5
100
330
1D
100
AcDbEntity
  8
1
100
AcDbLine
 10
-12.74516505
 20
-31.756419835
 30
0.0
 11
-13.218346319
 21
-32.04714398
 31
0.0
  0
LINE
  5
101
330
1D
100
AcDbEntity
  8
1
100
AcDbLine
 10
-13.218346319
 20
-32.04714398
 30
0.0
 11
-13.656612528
 21
-32.394360821
 31
0.0
  0
LINE
  5
102
330
1D
100
AcDbEntity
  8
1
100
AcDbLine
 10
-13.656612528
 20
-32.394360821
 30
0.0
 11
-14.054036878
 21
-32.793374847
 31
0.0
  0
LINE
  5
103
330
1D
100
AcDbEntity
  8
1
100
AcDbLine
 10
-14.054036878
 20
-32.793374847
 30
0.0
 11
-14.405244887
 21
-33.238790078
 31
0.0
  0
LINE
  5
104
330
1D
100
AcDbEntity
  8
1
100
AcDbLine
 10
-14.405244887
 20
-33.238790078
 30
0.0
 11
-14.705487067
 21
-33.724583037
 31
0.0
  0
LINE
  5
105
330
1D
100
AcDbEntity
  8
1
100
AcDbLine
 10
-14.705487067
 20
-33.724583037
 30
0.0
 11
-14.95070316
 21
-34.244184206
 31
0.0
  0
LINE
  5
106
330
1D
100
AcDbEntity
  8
1
100
AcDbLine
 10
-14.95070316
 20
-34.244184206
 30
0.0
 11
-15.137577038
 21
-34.790566873
 31
0.0
  0
LINE
  5
107
330
1D
100
AcDbEntity
  8
1
100
AcDbLine
 10
-15.137577038
 20
-34.790566873
 30
0.0
 11
-15.263581553
 21
-35.356342148
 31
0.0
  0
LINE
  5
108
330
1D
100
AcDbEntity
  8
1
100
AcDbLine
 10
-15.263581553
 20
-35.356342148
 30
0.0
 11
-15.327012709
 21
-35.933858892
 31
0.0
  0
LINE
  5
109
330
1D
100
AcDbEntity
  8
1
100
AcDbLine
 10
-15.327012709
 20
-35.933858892
 30
0.0
 11
-15.327012709
 21
-36.515307181
 31
0.0
  0
LINE
  5
10A
330
1D
100
AcDbEntity
  8
1
100
AcDbLine
 10
-15.327012709
 20
-36.515307181
 30
0.0
 11
-15.263581553
 21
-37.092823925
 31
0.0
  0
LINE
  5
10B
330
1D
100
AcDbEntity
  8
1
100
AcDbLine
 10
-15.263581553
 20
-37.092823925
 30
0.0
 11
-15.137577038
 21
-37.6585992
 31
0.0
  0
LINE
  5
10C
330
1D
100
AcDbEntity
  8
1
100
AcDbLine
 10
-15.137577038
 20
-37.6585992
 30
0.0
 11
-14.95070316
 21
-38.204981867
 31
0.0
  0
LINE
  5
10D
330
1D
100
AcDbEntity
  8
1
100
AcDbLine
 10
-14.95070316
 20
-38.204981867
 30
0.0
 11
-14.705487067
 21
-38.724583037
 31
0.0
  0
LINE
  5
10E
330
1D
100
AcDbEntity
  8
1
100
AcDbLine
 10
-14.705487067
 20
-38.724583037
 30
0.0
 11
-14.405244887
 21
-39.210375995
 31
0.0
  0
LINE
  5
10F
330
1D
100
AcDbEntity
  8
1
100
AcDbLine
 10
-14.405244887
 20
-39.210375995
 30
0.0
 11
-14.054036878
 21
-39.655791226
 31
0.0
  0
LINE
  5
110
330
1D
100
AcDbEntity
  8
1
100
AcDbLine
 10
-14.054036878
 20
-39.655791226
 30
0.0
 11
-13.656612528
 21
-40.054805252
 31
0.0
  0
LINE
  5
111
330
1D
100
AcDbEntity
  8
1
100
AcDbLine
 10
-13.656612528
 20
-40.054805252
 30
0.0
 11
-13.218346319
 21
-40.402022094
 31
0.0
  0
LINE
  5
112
330
1D
100
AcDbEntity
  8
1
100
AcDbLine
 10
-13.218346319
 20
-40.402022094
 30
0.0
 11
-12.74516505
 21
-40.692746238
 31
0.0
  0
LINE
  5
113
330
1D
100
AcDbEntity
  8
1
100
AcDbLine
 10
-12.74516505
 20
-40.692746238
 30
0.0
 11
-12.243467685
 21
-40.923046141
 31
0.0
  0
LINE
  5
114
330
1D
100
AcDbEntity
  8
1
100
AcDbLine
 10
-12.243467685
 20
-40.923046141
 30
0.0
 11
-11.720038821
 21
-41.08980739
 31
0.0
  0
LINE
  5
115
330
1D
100
AcDbEntity
  8
1
100
AcDbLine
 10
-11.720038821
 20
-41.08980739
 30
0.0
 11
-11.181956934
 21
-41.190774825
 31
0.0
  0
LINE
  5
116
330
1D
100
AcDbEntity
  8
1
100
AcDbLine
 10
-11.181956934
 20
-41.190774825
 30
0.0
 11
-10.636498661
 21
-41.224583037
 31
0.0
  0
LINE
  5
117
330
1D
100
AcDbEntity
  8
1
100
AcDbLine
 10
-8.450768478
 20
-34.781207364
 30
0.0
 11
-10.80000003
 21
-33.337831691
 31
0.0
  0
LINE
  5
118
330
1D
100
AcDbEntity
  8
1
100
AcDbLine
 10
-13.149231582
 20
-34.781207364
 30
0.0
 11
-10.80000003
 21
-33.337831691
 31
0.0
  0
LINE
  5
119
330
1D
100
AcDbEntity
  8
1
100
AcDbLine
 10
-13.149231582
 20
-37.66795871
 30
0.0
 11
-13.149231582
 21
-34.781207364
 31
0.0
  0
LINE
  5
11A
330
1D
100
AcDbEntity
  8
1
100
AcDbLine
 10
-13.149231582
 20
-37.66795871
 30
0.0
 11
-10.80000003
 21
-39.111334383
 31
0.0
  0
LINE
  5
11B
330
1D
100
AcDbEntity
  8
1
100
AcDbLine
 10
-8.450768478
 20
-37.66795871
 30
0.0
 11
-10.80000003
 21
-39.111334383
 31
0.0
  0
LINE
  5
11C
330
1D
100
AcDbEntity
  8
1
100
AcDbLine
 10
-8.450768478
 20
-37.66795871
 30
0.0
 11
-8.450768478
 21
-34.781207364
 31
0.0
  0
LINE
  5
11D
330
1D
100
AcDbEntity
  8
1
100
AcDbLine
 10
-11.097110722
 20
-34.781207364
 30
0.0
 11
-9.7739396
 21
-33.968246629
 31
0.0
  0
LINE
  5
11E
330
1D
100
AcDbEntity
  8
1
100
AcDbLine
 10
-11.097110722
 20
-34.781207364
 30
0.0
 11
-13.149231582
 21
-34.781207364
 31
0.0
  0
LINE
  5
11F
330
1D
100
AcDbEntity
  8
1
100
AcDbLine
 10
-11.097110722
 20
-37.66795871
 30
0.0
 11
-13.149231582
 21
-37.66795871
 31
0.0
  0
LINE
  5
120
330
1D
100
AcDbEntity
  8
1
100
AcDbLine
 10
-11.097110722
 20
-37.66795871
 30
0.0
 11
-9.7739396
 21
-38.480919444
 31
0.0
  0
LINE
  5
121
330
1D
100
AcDbEntity
  8
1
100
AcDbLine
 10
-11.097110722
 20
-37.66795871
 30
0.0
 11
-11.097110722
 21
-34.781207364
 31
0.0
  0
LINE
  5
122
330
1D
100
AcDbEntity
  8
1
100
AcDbLine
 10
-14.195163957
 20
-26.310583037
 30
0.0
 11
-13.92271402
 21
-26.746970544
 31
0.0
  0
LINE
  5
123
330
1D
100
AcDbEntity
  8
1
100
AcDbLine
 10
-13.92271402
 20
-26.746970544
 30
0.0
 11
-13.601017018
 21
-27.143578493
 31
0.0
  0
LINE
  5
124
330
1D
100
AcDbEntity
  8
1
100
AcDbLine
 10
-13.601017018
 20
-27.143578493
 30
0.0
 11
-13.235146306
 21
-27.494152141
 31
0.0
  0
LINE
  5
125
330
1D
100
AcDbEntity
  8
1
100
AcDbLine
 10
-13.235146306
 20
-27.494152141
 30
0.0
 11
-12.830871881
 21
-27.79316273
 31
0.0
  0
LINE
  5
126
330
1D
100
AcDbEntity
  8
1
100
AcDbLine
 10
-12.830871881
 20
-27.79316273
 30
0.0
 11
-12.394569395
 21
-28.035894686
 31
0.0
  0
LINE
  5
127
330
1D
100
AcDbEntity
  8
1
100
AcDbLine
 10
-12.394569395
 20
-28.035894686
 30
0.0
 11
-11.933119597
 21
-28.21851998
 31
0.0
  0
LINE
  5
128
330
1D
100
AcDbEntity
  8
1
100
AcDbLine
 10
-11.933119597
 20
-28.21851998
 30
0.0
 11
-11.453799827
 21
-28.338158503
 31
0.0
  0
LINE
  5
129
330
1D
100
AcDbEntity
  8
1
100
AcDbLine
 10
-11.453799827
 20
-28.338158503
 30
0.0
 11
-10.964169243
 21
-28.392923484
 31
0.0
  0
LINE
  5
12A
330
1D
100
AcDbEntity
  8
1
100
AcDbLine
 10
-10.964169243
 20
-28.392923484
 30
0.0
 11
-10.471949613
 21
-28.381951245
 31
0.0
  0
LINE
  5
12B
330
1D
100
AcDbEntity
  8
1
100
AcDbLine
 10
-10.471949613
 20
-28.381951245
 30
0.0
 11
-9.984903533
 21
-28.305414827
 31
0.0
  0
LINE
  5
12C
330
1D
100
AcDbEntity
  8
1
100
AcDbLine
 10
-9.984903533
 20
-28.305414827
 30
0.0
 11
-9.510712013
 21
-28.164521253
 31
0.0
  0
LINE
  5
12D
330
1D
100
AcDbEntity
  8
1
100
AcDbLine
 10
-9.510712013
 20
-28.164521253
 30
0.0
 11
-9.056853334
 21
-27.9614925
 31
0.0
  0
LINE
  5
12E
330
1D
100
AcDbEntity
  8
1
100
AcDbLine
 10
-9.056853334
 20
-27.9614925
 30
0.0
 11
-8.630485121
 21
-27.699530453
 31
0.0
  0
LINE
  5
12F
330
1D
100
AcDbEntity
  8
1
100
AcDbLine
 10
-8.630485121
 20
-27.699530453
 30
0.0
 11
-8.238331453
 21
-27.382766409
 31
0.0
  0
LINE
  5
130
330
1D
100
AcDbEntity
  8
1
100
AcDbLine
 10
-8.238331453
 20
-27.382766409
 30
0.0
 11
-7.886576829
 21
-27.016195926
 31
0.0
  0
LINE
  5
131
330
1D
100
AcDbEntity
  8
1
100
AcDbLine
 10
-7.886576829
 20
-27.016195926
 30
0.0
 11
-7.58076863
 21
-26.605600041
 31
0.0
  0
LINE
  5
132
330
1D
100
AcDbEntity
  8
1
100
AcDbLine
 10
-7.58076863
 20
-26.605600041
 30
0.0
 11
-7.325729633
 21
-26.157454095
 31
0.0
  0
LINE
  5
133
330
1D
100
AcDbEntity
  8
1
100
AcDbLine
 10
-7.325729633
 20
-26.157454095
 30
0.0
 11
-7.125481955
 21
-25.678825618
 31
0.0
  0
LINE
  5
134
330
1D
100
AcDbEntity
  8
1
100
AcDbLine
 10
-7.125481955
 20
-25.678825618
 30
0.0
 11
-6.983183622
 21
-25.177262867
 31
0.0
  0
LINE
  5
135
330
1D
100
AcDbEntity
  8
1
100
AcDbLine
 10
-6.983183622
 20
-25.177262867
 30
0.0
 11
-6.901078764
 21
-24.660675785
 31
0.0
  0
LINE
  5
136
330
1D
100
AcDbEntity
  8
1
100
AcDbLine
 10
-6.901078764
 20
-24.660675785
 30
0.0
 11
-6.880462224
 21
-24.137211261
 31
0.0
  0
LINE
  5
137
330
1D
100
AcDbEntity
  8
1
100
AcDbLine
 10
-6.880462224
 20
-24.137211261
 30
0.0
 11
-6.921659136
 21
-23.615124641
 31
0.0
  0
LINE
  5
138
330
1D
100
AcDbEntity
  8
1
100
AcDbLine
 10
-6.921659136
 20
-23.615124641
 30
0.0
 11
-7.024019801
 21
-23.102649545
 31
0.0
  0
LINE
  5
139
330
1D
100
AcDbEntity
  8
1
100
AcDbLine
 10
-7.024019801
 20
-23.102649545
 30
0.0
 11
-7.18592993
 21
-22.60786801
 31
0.0
  0
LINE
  5
13A
330
1D
100
AcDbEntity
  8
1
100
AcDbLine
 10
-7.18592993
 20
-22.60786801
 30
0.0
 11
-7.404836103
 21
-22.138583037
 31
0.0
  0
LINE
  5
13B
330
1D
100
AcDbEntity
  8
1
100
AcDbLine
 10
-7.404836103
 20
-22.138583037
 30
0.0
 11
-7.67728604
 21
-21.702195529
 31
0.0
  0
LINE
  5
13C
330
1D
100
AcDbEntity
  8
1
100
AcDbLine
 10
-7.67728604
 20
-21.702195529
 30
0.0
 11
-7.998983042
 21
-21.30558758
 31
0.0
  0
LINE
  5
13D
330
1D
100
AcDbEntity
  8
1
100
AcDbLine
 10
-7.998983042
 20
-21.30558758
 30
0.0
 11
-8.364853754
 21
-20.955013933
 31
0.0
  0
LINE
  5
13E
330
1D
100
AcDbEntity
  8
1
100
AcDbLine
 10
-8.364853754
 20
-20.955013933
 30
0.0
 11
-8.769128178
 21
-20.656003343
 31
0.0
  0
LINE
  5
13F
330
1D
100
AcDbEntity
  8
1
100
AcDbLine
 10
-8.769128178
 20
-20.656003343
 30
0.0
 11
-9.205430665
 21
-20.413271387
 31
0.0
  0
LINE
  5
140
330
1D
100
AcDbEntity
  8
1
100
AcDbLine
 10
-9.205430665
 20
-20.413271387
 30
0.0
 11
-9.666880463
 21
-20.230646093
 31
0.0
  0
LINE
  5
141
330
1D
100
AcDbEntity
  8
1
100
AcDbLine
 10
-9.666880463
 20
-20.230646093
 30
0.0
 11
-10.146200233
 21
-20.11100757
 31
0.0
  0
LINE
  5
142
330
1D
100
AcDbEntity
  8
1
100
AcDbLine
 10
-10.146200233
 20
-20.11100757
 30
0.0
 11
-10.635830817
 21
-20.056242589
 31
0.0
  0
LINE
  5
143
330
1D
100
AcDbEntity
  8
1
100
AcDbLine
 10
-10.635830817
 20
-20.056242589
 30
0.0
 11
-11.128050447
 21
-20.067214828
 31
0.0
  0
LINE
  5
144
330
1D
100
AcDbEntity
  8
1
100
AcDbLine
 10
-11.128050447
 20
-20.067214828
 30
0.0
 11
-11.615096527
 21
-20.143751246
 31
0.0
  0
LINE
  5
145
330
1D
100
AcDbEntity
  8
1
100
AcDbLine
 10
-11.615096527
 20
-20.143751246
 30
0.0
 11
-12.089288047
 21
-20.28464482
 31
0.0
  0
LINE
  5
146
330
1D
100
AcDbEntity
  8
1
100
AcDbLine
 10
-12.089288047
 20
-20.28464482
 30
0.0
 11
-12.543146726
 21
-20.487673573
 31
0.0
  0
LINE
  5
147
330
1D
100
AcDbEntity
  8
1
100
AcDbLine
 10
-12.543146726
 20
-20.487673573
 30
0.0
 11
-12.969514939
 21
-20.74963562
 31
0.0
  0
LINE
  5
148
330
1D
100
AcDbEntity
  8
1
100
AcDbLine
 10
-12.969514939
 20
-20.74963562
 30
0.0
 11
-13.361668607
 21
-21.066399664
 31
0.0
  0
LINE
  5
149
330
1D
100
AcDbEntity
  8
1
100
AcDbLine
 10
-13.361668607
 20
-21.066399664
 30
0.0
 11
-13.713423231
 21
-21.432970147
 31
0.0
  0
LINE
  5
14A
330
1D
100
AcDbEntity
  8
1
100
AcDbLine
 10
-13.713423231
 20
-21.432970147
 30
0.0
 11
-14.01923143
 21
-21.843566032
 31
0.0
  0
LINE
  5
14B
330
1D
100
AcDbEntity
  8
1
100
AcDbLine
 10
-14.01923143
 20
-21.843566032
 30
0.0
 11
-14.274270427
 21
-22.291711978
 31
0.0
  0
LINE
  5
14C
330
1D
100
AcDbEntity
  8
1
100
AcDbLine
 10
-14.274270427
 20
-22.291711978
 30
0.0
 11
-14.474518105
 21
-22.770340455
 31
0.0
  0
LINE
  5
14D
330
1D
100
AcDbEntity
  8
1
100
AcDbLine
 10
-14.474518105
 20
-22.770340455
 30
0.0
 11
-14.616816438
 21
-23.271903207
 31
0.0
  0
LINE
  5
14E
330
1D
100
AcDbEntity
  8
1
100
AcDbLine
 10
-14.616816438
 20
-23.271903207
 30
0.0
 11
-14.698921296
 21
-23.788490288
 31
0.0
  0
LINE
  5
14F
330
1D
100
AcDbEntity
  8
1
100
AcDbLine
 10
-14.698921296
 20
-23.788490288
 30
0.0
 11
-14.719537836
 21
-24.311954812
 31
0.0
  0
LINE
  5
150
330
1D
100
AcDbEntity
  8
1
100
AcDbLine
 10
-14.719537836
 20
-24.311954812
 30
0.0
 11
-14.678340924
 21
-24.834041432
 31
0.0
  0
LINE
  5
151
330
1D
100
AcDbEntity
  8
1
100
AcDbLine
 10
-14.678340924
 20
-24.834041432
 30
0.0
 11
-14.575980259
 21
-25.346516528
 31
0.0
  0
LINE
  5
152
330
1D
100
AcDbEntity
  8
1
100
AcDbLine
 10
-14.575980259
 20
-25.346516528
 30
0.0
 11
-14.41407013
 21
-25.841298063
 31
0.0
  0
LINE
  5
153
330
1D
100
AcDbEntity
  8
1
100
AcDbLine
 10
-14.41407013
 20
-25.841298063
 30
0.0
 11
-14.195163957
 21
-26.310583037
 31
0.0
  0
LINE
  5
154
330
1D
100
AcDbEntity
  8
1
100
AcDbLine
 10
-14.705487067
 20
-26.724583037
 30
0.0
 11
-14.405244887
 21
-27.210375995
 31
0.0
  0
LINE
  5
155
330
1D
100
AcDbEntity
  8
1
100
AcDbLine
 10
-14.405244887
 20
-27.210375995
 30
0.0
 11
-14.054036878
 21
-27.655791226
 31
0.0
  0
LINE
  5
156
330
1D
100
AcDbEntity
  8
1
100
AcDbLine
 10
-14.054036878
 20
-27.655791226
 30
0.0
 11
-13.656612528
 21
-28.054805252
 31
0.0
  0
LINE
  5
157
330
1D
100
AcDbEntity
  8
1
100
AcDbLine
 10
-13.656612528
 20
-28.054805252
 30
0.0
 11
-13.218346319
 21
-28.402022094
 31
0.0
  0
LINE
  5
158
330
1D
100
AcDbEntity
  8
1
100
AcDbLine
 10
-13.218346319
 20
-28.402022094
 30
0.0
 11
-12.74516505
 21
-28.692746238
 31
0.0
  0
LINE
  5
159
330
1D
100
AcDbEntity
  8
1
100
AcDbLine
 10
-12.74516505
 20
-28.692746238
 30
0.0
 11
-12.243467685
 21
-28.923046141
 31
0.0
  0
LINE
  5
15A
330
1D
100
AcDbEntity
  8
1
100
AcDbLine
 10
-12.243467685
 20
-28.923046141
 30
0.0
 11
-11.720038821
 21
-29.08980739
 31
0.0
  0
LINE
  5
15B
330
1D
100
AcDbEntity
  8
1
100
AcDbLine
 10
-11.720038821
 20
-29.08980739
 30
0.0
 11
-11.181956934
 21
-29.190774825
 31
0.0
  0
LINE
  5
15C
330
1D
100
AcDbEntity
  8
1
100
AcDbLine
 10
-11.181956934
 20
-29.190774825
 30
0.0
 11
-10.636498661
 21
-29.224583037
 31
0.0
  0
LINE
  5
15D
330
1D
100
AcDbEntity
  8
1
100
AcDbLine
 10
-10.636498661
 20
-29.224583037
 30
0.0
 11
-10.091040387
 21
-29.190774825
 31
0.0
  0
LINE
  5
15E
330
1D
100
AcDbEntity
  8
1
100
AcDbLine
 10
-10.091040387
 20
-29.190774825
 30
0.0
 11
-9.552958501
 21
-29.08980739
 31
0.0
  0
LINE
  5
15F
330
1D
100
AcDbEntity
  8
1
100
AcDbLine
 10
-9.552958501
 20
-29.08980739
 30
0.0
 11
-9.029529637
 21
-28.923046141
 31
0.0
  0
LINE
  5
160
330
1D
100
AcDbEntity
  8
1
100
AcDbLine
 10
-9.029529637
 20
-28.923046141
 30
0.0
 11
-8.527832271
 21
-28.692746238
 31
0.0
  0
LINE
  5
161
330
1D
100
AcDbEntity
  8
1
100
AcDbLine
 10
-8.527832271
 20
-28.692746238
 30
0.0
 11
-8.054651002
 21
-28.402022094
 31
0.0
  0
LINE
  5
162
330
1D
100
AcDbEntity
  8
1
100
AcDbLine
 10
-8.054651002
 20
-28.402022094
 30
0.0
 11
-7.616384793
 21
-28.054805252
 31
0.0
  0
LINE
  5
163
330
1D
100
AcDbEntity
  8
1
100
AcDbLine
 10
-7.616384793
 20
-28.054805252
 30
0.0
 11
-7.218960443
 21
-27.655791226
 31
0.0
  0
LINE
  5
164
330
1D
100
AcDbEntity
  8
1
100
AcDbLine
 10
-7.218960443
 20
-27.655791226
 30
0.0
 11
-6.867752435
 21
-27.210375995
 31
0.0
  0
LINE
  5
165
330
1D
100
AcDbEntity
  8
1
100
AcDbLine
 10
-6.867752435
 20
-27.210375995
 30
0.0
 11
-6.567510254
 21
-26.724583037
 31
0.0
  0
LINE
  5
166
330
1D
100
AcDbEntity
  8
1
100
AcDbLine
 10
-6.567510254
 20
-26.724583037
 30
0.0
 11
-6.322294161
 21
-26.204981867
 31
0.0
  0
LINE
  5
167
330
1D
100
AcDbEntity
  8
1
100
AcDbLine
 10
-6.322294161
 20
-26.204981867
 30
0.0
 11
-6.135420283
 21
-25.6585992
 31
0.0
  0
LINE
  5
168
330
1D
100
AcDbEntity
  8
1
100
AcDbLine
 10
-6.135420283
 20
-25.6585992
 30
0.0
 11
-6.009415769
 21
-25.092823925
 31
0.0
  0
LINE
  5
169
330
1D
100
AcDbEntity
  8
1
100
AcDbLine
 10
-6.009415769
 20
-25.092823925
 30
0.0
 11
-5.945984613
 21
-24.515307181
 31
0.0
  0
LINE
  5
16A
330
1D
100
AcDbEntity
  8
1
100
AcDbLine
 10
-5.945984613
 20
-24.515307181
 30
0.0
 11
-5.945984613
 21
-23.933858892
 31
0.0
  0
LINE
  5
16B
330
1D
100
AcDbEntity
  8
1
100
AcDbLine
 10
-5.945984613
 20
-23.933858892
 30
0.0
 11
-6.009415769
 21
-23.356342148
 31
0.0
  0
LINE
  5
16C
330
1D
100
AcDbEntity
  8
1
100
AcDbLine
 10
-6.009415769
 20
-23.356342148
 30
0.0
 11
-6.135420283
 21
-22.790566873
 31
0.0
  0
LINE
  5
16D
330
1D
100
AcDbEntity
  8
1
100
AcDbLine
 10
-6.135420283
 20
-22.790566873
 30
0.0
 11
-6.322294161
 21
-22.244184206
 31
0.0
  0
LINE
  5
16E
330
1D
100
AcDbEntity
  8
1
100
AcDbLine
 10
-6.322294161
 20
-22.244184206
 30
0.0
 11
-6.567510254
 21
-21.724583037
 31
0.0
  0
LINE
  5
16F
330
1D
100
AcDbEntity
  8
1
100
AcDbLine
 10
-6.567510254
 20
-21.724583037
 30
0.0
 11
-6.867752435
 21
-21.238790078
 31
0.0
  0
LINE
  5
170
330
1D
100
AcDbEntity
  8
1
100
AcDbLine
 10
-6.867752435
 20
-21.238790078
 30
0.0
 11
-7.218960443
 21
-20.793374847
 31
0.0
  0
LINE
  5
171
330
1D
100
AcDbEntity
  8
1
100
AcDbLine
 10
-7.218960443
 20
-20.793374847
 30
0.0
 11
-7.616384793
 21
-20.394360821
 31
0.0
  0
LINE
  5
172
330
1D
100
AcDbEntity
  8
1
100
AcDbLine
 10
-7.616384793
 20
-20.394360821
 30
0.0
 11
-8.054651002
 21
-20.04714398
 31
0.0
  0
LINE
  5
173
330
1D
100
AcDbEntity
  8
1
100
AcDbLine
 10
-8.054651002
 20
-20.04714398
 30
0.0
 11
-8.527832271
 21
-19.756419835
 31
0.0
  0
LINE
  5
174
330
1D
100
AcDbEntity
  8
1
100
AcDbLine
 10
-8.527832271
 20
-19.756419835
 30
0.0
 11
-9.029529637
 21
-19.526119933
 31
0.0
  0
LINE
  5
175
330
1D
100
AcDbEntity
  8
1
100
AcDbLine
 10
-9.029529637
 20
-19.526119933
 30
0.0
 11
-9.552958501
 21
-19.359358684
 31
0.0
  0
LINE
  5
176
330
1D
100
AcDbEntity
  8
1
100
AcDbLine
 10
-9.552958501
 20
-19.359358684
 30
0.0
 11
-10.091040387
 21
-19.258391248
 31
0.0
  0
LINE
  5
177
330
1D
100
AcDbEntity
  8
1
100
AcDbLine
 10
-10.091040387
 20
-19.258391248
 30
0.0
 11
-10.636498661
 21
-19.224583037
 31
0.0
  0
LINE
  5
178
330
1D
100
AcDbEntity
  8
1
100
AcDbLine
 10
-10.636498661
 20
-19.224583037
 30
0.0
 11
-11.181956934
 21
-19.258391248
 31
0.0
  0
LINE
  5
179
330
1D
100
AcDbEntity
  8
1
100
AcDbLine
 10
-11.181956934
 20
-19.258391248
 30
0.0
 11
-11.720038821
 21
-19.359358684
 31
0.0
  0
LINE
  5
17A
330
1D
100
AcDbEntity
  8
1
100
AcDbLine
 10
-11.720038821
 20
-19.359358684
 30
0.0
 11
-12.243467685
 21
-19.526119933
 31
0.0
  0
LINE
  5
17B
330
1D
100
AcDbEntity
  8
1
100
AcDbLine
 10
-12.243467685
 20
-19.526119933
 30
0.0
 11
-12.74516505
 21
-19.756419835
 31
0.0
  0
LINE
  5
17C
330
1D
100
AcDbEntity
  8
1
100
AcDbLine
 10
-12.74516505
 20
-19.756419835
 30
0.0
 11
-13.218346319
 21
-20.04714398
 31
0.0
  0
LINE
  5
17D
330
1D
100
AcDbEntity
  8
1
100
AcDbLine
 10
-13.218346319
 20
-20.04714398
 30
0.0
 11
-13.656612528
 21
-20.394360821
 31
0.0
  0
LINE
  5
17E
330
1D
100
AcDbEntity
  8
1
100
AcDbLine
 10
-13.656612528
 20
-20.394360821
 30
0.0
 11
-14.054036878
 21
-20.793374847
 31
0.0
  0
LINE
  5
17F
330
1D
100
AcDbEntity
  8
1
100
AcDbLine
 10
-14.054036878
 20
-20.793374847
 30
0.0
 11
-14.405244887
 21
-21.238790078
 31
0.0
  0
LINE
  5
180
330
1D
100
AcDbEntity
  8
1
100
AcDbLine
 10
-14.405244887
 20
-21.238790078
 30
0.0
 11
-14.705487067
 21
-21.724583037
 31
0.0
  0
LINE
  5
181
330
1D
100
AcDbEntity
  8
1
100
AcDbLine
 10
-14.705487067
 20
-21.724583037
 30
0.0
 11
-14.95070316
 21
-22.244184206
 31
0.0
  0
LINE
  5
182
330
1D
100
AcDbEntity
  8
1
100
AcDbLine
 10
-14.95070316
 20
-22.244184206
 30
0.0
 11
-15.137577038
 21
-22.790566873
 31
0.0
  0
LINE
  5
183
330
1D
100
AcDbEntity
  8
1
100
AcDbLine
 10
-15.137577038
 20
-22.790566873
 30
0.0
 11
-15.263581553
 21
-23.356342148
 31
0.0
  0
LINE
  5
184
330
1D
100
AcDbEntity
  8
1
100
AcDbLine
 10
-15.263581553
 20
-23.356342148
 30
0.0
 11
-15.327012709
 21
-23.933858892
 31
0.0
  0
LINE
  5
185
330
1D
100
AcDbEntity
  8
1
100
AcDbLine
 10
-15.327012709
 20
-23.933858892
 30
0.0
 11
-15.327012709
 21
-24.515307181
 31
0.0
  0
LINE
  5
186
330
1D
100
AcDbEntity
  8
1
100
AcDbLine
 10
-15.327012709
 20
-24.515307181
 30
0.0
 11
-15.263581553
 21
-25.092823925
 31
0.0
  0
LINE
  5
187
330
1D
100
AcDbEntity
  8
1
100
AcDbLine
 10
-15.263581553
 20
-25.092823925
 30
0.0
 11
-15.137577038
 21
-25.6585992
 31
0.0
  0
LINE
  5
188
330
1D
100
AcDbEntity
  8
1
100
AcDbLine
 10
-15.137577038
 20
-25.6585992
 30
0.0
 11
-14.95070316
 21
-26.204981867
 31
0.0
  0
LINE
  5
189
330
1D
100
AcDbEntity
  8
1
100
AcDbLine
 10
-14.95070316
 20
-26.204981867
 30
0.0
 11
-14.705487067
 21
-26.724583037
 31
0.0
  0
LINE
  5
18A
330
1D
100
AcDbEntity
  8
1
100
AcDbLine
 10
-8.450768478
 20
-25.66795871
 30
0.0
 11
-8.450768478
 21
-22.781207364
 31
0.0
  0
LINE
  5
18B
330
1D
100
AcDbEntity
  8
1
100
AcDbLine
 10
-10.80000003
 20
-21.337831691
 30
0.0
 11
-8.450768478
 21
-22.781207364
 31
0.0
  0
LINE
  5
18C
330
1D
100
AcDbEntity
  8
1
100
AcDbLine
 10
-13.149231582
 20
-22.781207364
 30
0.0
 11
-10.80000003
 21
-21.337831691
 31
0.0
  0
LINE
  5
18D
330
1D
100
AcDbEntity
  8
1
100
AcDbLine
 10
-13.149231582
 20
-22.781207364
 30
0.0
 11
-13.149231582
 21
-25.66795871
 31
0.0
  0
LINE
  5
18E
330
1D
100
AcDbEntity
  8
1
100
AcDbLine
 10
-10.80000003
 20
-27.111334383
 30
0.0
 11
-13.149231582
 21
-25.66795871
 31
0.0
  0
LINE
  5
18F
330
1D
100
AcDbEntity
  8
1
100
AcDbLine
 10
-10.80000003
 20
-27.111334383
 30
0.0
 11
-8.450768478
 21
-25.66795871
 31
0.0
  0
LINE
  5
190
330
1D
100
AcDbEntity
  8
1
100
AcDbLine
 10
-11.097110722
 20
-22.781207364
 30
0.0
 11
-9.7739396
 21
-21.968246629
 31
0.0
  0
LINE
  5
191
330
1D
100
AcDbEntity
  8
1
100
AcDbLine
 10
-11.097110722
 20
-22.781207364
 30
0.0
 11
-13.149231582
 21
-22.781207364
 31
0.0
  0
LINE
  5
192
330
1D
100
AcDbEntity
  8
1
100
AcDbLine
 10
-11.097110722
 20
-25.66795871
 30
0.0
 11
-13.149231582
 21
-25.66795871
 31
0.0
  0
LINE
  5
193
330
1D
100
AcDbEntity
  8
1
100
AcDbLine
 10
-9.7739396
 20
-26.480919444
 30
0.0
 11
-11.097110722
 21
-25.66795871
 31
0.0
  0
LINE
  5
194
330
1D
100
AcDbEntity
  8
1
100
AcDbLine
 10
-11.097110722
 20
-22.781207364
 30
0.0
 11
-11.097110722
 21
-25.66795871
 31
0.0
  0
LINE
  5
195
330
1D
100
AcDbEntity
  8
1
100
AcDbLine
 10
-10.80000003
 20
-44.052583037
 30
0.0
 11
-11.29135614
 21
-44.085480503
 31
0.0
  0
LINE
  5
196
330
1D
100
AcDbEntity
  8
1
100
AcDbLine
 10
-11.29135614
 20
-44.085480503
 30
0.0
 11
-11.77496327
 21
-44.183654088
 31
0.0
  0
LINE
  5
197
330
1D
100
AcDbEntity
  8
1
100
AcDbLine
 10
-11.77496327
 20
-44.183654088
 30
0.0
 11
-12.243194648
 21
-44.345555538
 31
0.0
  0
LINE
  5
198
330
1D
100
AcDbEntity
  8
1
100
AcDbLine
 10
-12.243194648
 20
-44.345555538
 30
0.0
 11
-12.688665984
 21
-44.568631568
 31
0.0
  0
LINE
  5
199
330
1D
100
AcDbEntity
  8
1
100
AcDbLine
 10
-12.688665984
 20
-44.568631568
 30
0.0
 11
-13.104351931
 21
-44.849364136
 31
0.0
  0
LINE
  5
19A
330
1D
100
AcDbEntity
  8
1
100
AcDbLine
 10
-13.104351931
 20
-44.849364136
 30
0.0
 11
-13.483696871
 21
-45.183325923
 31
0.0
  0
LINE
  5
19B
330
1D
100
AcDbEntity
  8
1
100
AcDbLine
 10
-13.483696871
 20
-45.183325923
 30
0.0
 11
-13.820718308
 21
-45.565250151
 31
0.0
  0
LINE
  5
19C
330
1D
100
AcDbEntity
  8
1
100
AcDbLine
 10
-13.820718308
 20
-45.565250151
 30
0.0
 11
-14.110101214
 21
-45.989113648
 31
0.0
  0
LINE
  5
19D
330
1D
100
AcDbEntity
  8
1
100
AcDbLine
 10
-14.110101214
 20
-45.989113648
 30
0.0
 11
-14.347281847
 21
-46.448231832
 31
0.0
  0
LINE
  5
19E
330
1D
100
AcDbEntity
  8
1
100
AcDbLine
 10
-14.347281847
 20
-46.448231832
 30
0.0
 11
-14.528519727
 21
-46.935364136
 31
0.0
  0
LINE
  5
19F
330
1D
100
AcDbEntity
  8
1
100
AcDbLine
 10
-14.528519727
 20
-46.935364136
 30
0.0
 11
-14.650956624
 21
-47.442828192
 31
0.0
  0
LINE
  5
1A0
330
1D
100
AcDbEntity
  8
1
100
AcDbLine
 10
-14.650956624
 20
-47.442828192
 30
0.0
 11
-14.712661635
 21
-47.962620989
 31
0.0
  0
LINE
  5
1A1
330
1D
100
AcDbEntity
  8
1
100
AcDbLine
 10
-14.712661635
 20
-47.962620989
 30
0.0
 11
-14.712661635
 21
-48.486545084
 31
0.0
  0
LINE
  5
1A2
330
1D
100
AcDbEntity
  8
1
100
AcDbLine
 10
-14.712661635
 20
-48.486545084
 30
0.0
 11
-14.650956624
 21
-49.006337881
 31
0.0
  0
LINE
  5
1A3
330
1D
100
AcDbEntity
  8
1
100
AcDbLine
 10
-14.650956624
 20
-49.006337881
 30
0.0
 11
-14.528519727
 21
-49.513801937
 31
0.0
  0
LINE
  5
1A4
330
1D
100
AcDbEntity
  8
1
100
AcDbLine
 10
-14.528519727
 20
-49.513801937
 30
0.0
 11
-14.347281847
 21
-50.000934241
 31
0.0
  0
LINE
  5
1A5
330
1D
100
AcDbEntity
  8
1
100
AcDbLine
 10
-14.347281847
 20
-50.000934241
 30
0.0
 11
-14.110101214
 21
-50.460052425
 31
0.0
  0
LINE
  5
1A6
330
1D
100
AcDbEntity
  8
1
100
AcDbLine
 10
-14.110101214
 20
-50.460052425
 30
0.0
 11
-13.820718308
 21
-50.883915922
 31
0.0
  0
LINE
  5
1A7
330
1D
100
AcDbEntity
  8
1
100
AcDbLine
 10
-13.820718308
 20
-50.883915922
 30
0.0
 11
-13.483696871
 21
-51.26584015
 31
0.0
  0
LINE
  5
1A8
330
1D
100
AcDbEntity
  8
1
100
AcDbLine
 10
-13.483696871
 20
-51.26584015
 30
0.0
 11
-13.104351931
 21
-51.599801937
 31
0.0
  0
LINE
  5
1A9
330
1D
100
AcDbEntity
  8
1
100
AcDbLine
 10
-13.104351931
 20
-51.599801937
 30
0.0
 11
-12.688665984
 21
-51.880534506
 31
0.0
  0
LINE
  5
1AA
330
1D
100
AcDbEntity
  8
1
100
AcDbLine
 10
-12.688665984
 20
-51.880534506
 30
0.0
 11
-12.243194648
 21
-52.103610536
 31
0.0
  0
LINE
  5
1AB
330
1D
100
AcDbEntity
  8
1
100
AcDbLine
 10
-12.243194648
 20
-52.103610536
 30
0.0
 11
-11.77496327
 21
-52.265511985
 31
0.0
  0
LINE
  5
1AC
330
1D
100
AcDbEntity
  8
1
100
AcDbLine
 10
-11.77496327
 20
-52.265511985
 30
0.0
 11
-11.29135614
 21
-52.363685571
 31
0.0
  0
LINE
  5
1AD
330
1D
100
AcDbEntity
  8
1
100
AcDbLine
 10
-11.29135614
 20
-52.363685571
 30
0.0
 11
-10.80000003
 21
-52.396583037
 31
0.0
  0
LINE
  5
1AE
330
1D
100
AcDbEntity
  8
1
100
AcDbLine
 10
-10.80000003
 20
-52.396583037
 30
0.0
 11
-10.30864392
 21
-52.363685571
 31
0.0
  0
LINE
  5
1AF
330
1D
100
AcDbEntity
  8
1
100
AcDbLine
 10
-10.30864392
 20
-52.363685571
 30
0.0
 11
-9.82503679
 21
-52.265511985
 31
0.0
  0
LINE
  5
1B0
330
1D
100
AcDbEntity
  8
1
100
AcDbLine
 10
-9.82503679
 20
-52.265511985
 30
0.0
 11
-9.356805412
 21
-52.103610536
 31
0.0
  0
LINE
  5
1B1
330
1D
100
AcDbEntity
  8
1
100
AcDbLine
 10
-9.356805412
 20
-52.103610536
 30
0.0
 11
-8.911334076
 21
-51.880534506
 31
0.0
  0
LINE
  5
1B2
330
1D
100
AcDbEntity
  8
1
100
AcDbLine
 10
-8.911334076
 20
-51.880534506
 30
0.0
 11
-8.495648129
 21
-51.599801937
 31
0.0
  0
LINE
  5
1B3
330
1D
100
AcDbEntity
  8
1
100
AcDbLine
 10
-8.495648129
 20
-51.599801937
 30
0.0
 11
-8.116303189
 21
-51.26584015
 31
0.0
  0
LINE
  5
1B4
330
1D
100
AcDbEntity
  8
1
100
AcDbLine
 10
-8.116303189
 20
-51.26584015
 30
0.0
 11
-7.779281752
 21
-50.883915922
 31
0.0
  0
LINE
  5
1B5
330
1D
100
AcDbEntity
  8
1
100
AcDbLine
 10
-7.779281752
 20
-50.883915922
 30
0.0
 11
-7.489898845
 21
-50.460052425
 31
0.0
  0
LINE
  5
1B6
330
1D
100
AcDbEntity
  8
1
100
AcDbLine
 10
-7.489898845
 20
-50.460052425
 30
0.0
 11
-7.252718212
 21
-50.000934241
 31
0.0
  0
LINE
  5
1B7
330
1D
100
AcDbEntity
  8
1
100
AcDbLine
 10
-7.252718212
 20
-50.000934241
 30
0.0
 11
-7.071480333
 21
-49.513801937
 31
0.0
  0
LINE
  5
1B8
330
1D
100
AcDbEntity
  8
1
100
AcDbLine
 10
-7.071480333
 20
-49.513801937
 30
0.0
 11
-6.949043436
 21
-49.006337881
 31
0.0
  0
LINE
  5
1B9
330
1D
100
AcDbEntity
  8
1
100
AcDbLine
 10
-6.949043436
 20
-49.006337881
 30
0.0
 11
-6.887338425
 21
-48.486545084
 31
0.0
  0
LINE
  5
1BA
330
1D
100
AcDbEntity
  8
1
100
AcDbLine
 10
-6.887338425
 20
-48.486545084
 30
0.0
 11
-6.887338425
 21
-47.962620989
 31
0.0
  0
LINE
  5
1BB
330
1D
100
AcDbEntity
  8
1
100
AcDbLine
 10
-6.887338425
 20
-47.962620989
 30
0.0
 11
-6.949043436
 21
-47.442828192
 31
0.0
  0
LINE
  5
1BC
330
1D
100
AcDbEntity
  8
1
100
AcDbLine
 10
-6.949043436
 20
-47.442828192
 30
0.0
 11
-7.071480333
 21
-46.935364136
 31
0.0
  0
LINE
  5
1BD
330
1D
100
AcDbEntity
  8
1
100
AcDbLine
 10
-7.071480333
 20
-46.935364136
 30
0.0
 11
-7.252718212
 21
-46.448231832
 31
0.0
  0
LINE
  5
1BE
330
1D
100
AcDbEntity
  8
1
100
AcDbLine
 10
-7.252718212
 20
-46.448231832
 30
0.0
 11
-7.489898845
 21
-45.989113648
 31
0.0
  0
LINE
  5
1BF
330
1D
100
AcDbEntity
  8
1
100
AcDbLine
 10
-7.489898845
 20
-45.989113648
 30
0.0
 11
-7.779281752
 21
-45.565250151
 31
0.0
  0
LINE
  5
1C0
330
1D
100
AcDbEntity
  8
1
100
AcDbLine
 10
-7.779281752
 20
-45.565250151
 30
0.0
 11
-8.116303189
 21
-45.183325923
 31
0.0
  0
LINE
  5
1C1
330
1D
100
AcDbEntity
  8
1
100
AcDbLine
 10
-8.116303189
 20
-45.183325923
 30
0.0
 11
-8.495648129
 21
-44.849364136
 31
0.0
  0
LINE
  5
1C2
330
1D
100
AcDbEntity
  8
1
100
AcDbLine
 10
-8.495648129
 20
-44.849364136
 30
0.0
 11
-8.911334076
 21
-44.568631568
 31
0.0
  0
LINE
  5
1C3
330
1D
100
AcDbEntity
  8
1
100
AcDbLine
 10
-8.911334076
 20
-44.568631568
 30
0.0
 11
-9.356805412
 21
-44.345555538
 31
0.0
  0
LINE
  5
1C4
330
1D
100
AcDbEntity
  8
1
100
AcDbLine
 10
-9.356805412
 20
-44.345555538
 30
0.0
 11
-9.82503679
 21
-44.183654088
 31
0.0
  0
LINE
  5
1C5
330
1D
100
AcDbEntity
  8
1
100
AcDbLine
 10
-9.82503679
 20
-44.183654088
 30
0.0
 11
-10.30864392
 21
-44.085480503
 31
0.0
  0
LINE
  5
1C6
330
1D
100
AcDbEntity
  8
1
100
AcDbLine
 10
-10.30864392
 20
-44.085480503
 30
0.0
 11
-10.80000003
 21
-44.052583037
 31
0.0
  0
LINE
  5
1C7
330
1D
100
AcDbEntity
  8
1
100
AcDbLine
 10
-10.636498661
 20
-43.224583037
 30
0.0
 11
-11.181956934
 21
-43.258391248
 31
0.0
  0
LINE
  5
1C8
330
1D
100
AcDbEntity
  8
1
100
AcDbLine
 10
-11.181956934
 20
-43.258391248
 30
0.0
 11
-11.720038821
 21
-43.359358684
 31
0.0
  0
LINE
  5
1C9
330
1D
100
AcDbEntity
  8
1
100
AcDbLine
 10
-11.720038821
 20
-43.359358684
 30
0.0
 11
-12.243467685
 21
-43.526119933
 31
0.0
  0
LINE
  5
1CA
330
1D
100
AcDbEntity
  8
1
100
AcDbLine
 10
-12.243467685
 20
-43.526119933
 30
0.0
 11
-12.74516505
 21
-43.756419835
 31
0.0
  0
LINE
  5
1CB
330
1D
100
AcDbEntity
  8
1
100
AcDbLine
 10
-12.74516505
 20
-43.756419835
 30
0.0
 11
-13.218346319
 21
-44.04714398
 31
0.0
  0
LINE
  5
1CC
330
1D
100
AcDbEntity
  8
1
100
AcDbLine
 10
-13.218346319
 20
-44.04714398
 30
0.0
 11
-13.656612528
 21
-44.394360821
 31
0.0
  0
LINE
  5
1CD
330
1D
100
AcDbEntity
  8
1
100
AcDbLine
 10
-13.656612528
 20
-44.394360821
 30
0.0
 11
-14.054036878
 21
-44.793374847
 31
0.0
  0
LINE
  5
1CE
330
1D
100
AcDbEntity
  8
1
100
AcDbLine
 10
-14.054036878
 20
-44.793374847
 30
0.0
 11
-14.405244887
 21
-45.238790078
 31
0.0
  0
LINE
  5
1CF
330
1D
100
AcDbEntity
  8
1
100
AcDbLine
 10
-14.405244887
 20
-45.238790078
 30
0.0
 11
-14.705487067
 21
-45.724583037
 31
0.0
  0
LINE
  5
1D0
330
1D
100
AcDbEntity
  8
1
100
AcDbLine
 10
-14.705487067
 20
-45.724583037
 30
0.0
 11
-14.95070316
 21
-46.244184206
 31
0.0
  0
LINE
  5
1D1
330
1D
100
AcDbEntity
  8
1
100
AcDbLine
 10
-14.95070316
 20
-46.244184206
 30
0.0
 11
-15.137577038
 21
-46.790566873
 31
0.0
  0
LINE
  5
1D2
330
1D
100
AcDbEntity
  8
1
100
AcDbLine
 10
-15.137577038
 20
-46.790566873
 30
0.0
 11
-15.263581553
 21
-47.356342148
 31
0.0
  0
LINE
  5
1D3
330
1D
100
AcDbEntity
  8
1
100
AcDbLine
 10
-15.263581553
 20
-47.356342148
 30
0.0
 11
-15.327012709
 21
-47.933858892
 31
0.0
  0
LINE
  5
1D4
330
1D
100
AcDbEntity
  8
1
100
AcDbLine
 10
-15.327012709
 20
-47.933858892
 30
0.0
 11
-15.327012709
 21
-48.515307181
 31
0.0
  0
LINE
  5
1D5
330
1D
100
AcDbEntity
  8
1
100
AcDbLine
 10
-15.327012709
 20
-48.515307181
 30
0.0
 11
-15.263581553
 21
-49.092823925
 31
0.0
  0
LINE
  5
1D6
330
1D
100
AcDbEntity
  8
1
100
AcDbLine
 10
-15.263581553
 20
-49.092823925
 30
0.0
 11
-15.137577038
 21
-49.6585992
 31
0.0
  0
LINE
  5
1D7
330
1D
100
AcDbEntity
  8
1
100
AcDbLine
 10
-15.137577038
 20
-49.6585992
 30
0.0
 11
-14.95070316
 21
-50.204981867
 31
0.0
  0
LINE
  5
1D8
330
1D
100
AcDbEntity
  8
1
100
AcDbLine
 10
-14.95070316
 20
-50.204981867
 30
0.0
 11
-14.705487067
 21
-50.724583037
 31
0.0
  0
LINE
  5
1D9
330
1D
100
AcDbEntity
  8
1
100
AcDbLine
 10
-14.705487067
 20
-50.724583037
 30
0.0
 11
-14.405244887
 21
-51.210375995
 31
0.0
  0
LINE
  5
1DA
330
1D
100
AcDbEntity
  8
1
100
AcDbLine
 10
-14.405244887
 20
-51.210375995
 30
0.0
 11
-14.054036878
 21
-51.655791226
 31
0.0
  0
LINE
  5
1DB
330
1D
100
AcDbEntity
  8
1
100
AcDbLine
 10
-14.054036878
 20
-51.655791226
 30
0.0
 11
-13.656612528
 21
-52.054805252
 31
0.0
  0
LINE
  5
1DC
330
1D
100
AcDbEntity
  8
1
100
AcDbLine
 10
-13.656612528
 20
-52.054805252
 30
0.0
 11
-13.218346319
 21
-52.402022094
 31
0.0
  0
LINE
  5
1DD
330
1D
100
AcDbEntity
  8
1
100
AcDbLine
 10
-13.218346319
 20
-52.402022094
 30
0.0
 11
-12.74516505
 21
-52.692746238
 31
0.0
  0
LINE
  5
1DE
330
1D
100
AcDbEntity
  8
1
100
AcDbLine
 10
-12.74516505
 20
-52.692746238
 30
0.0
 11
-12.243467685
 21
-52.923046141
 31
0.0
  0
LINE
  5
1DF
330
1D
100
AcDbEntity
  8
1
100
AcDbLine
 10
-12.243467685
 20
-52.923046141
 30
0.0
 11
-11.720038821
 21
-53.08980739
 31
0.0
  0
LINE
  5
1E0
330
1D
100
AcDbEntity
  8
1
100
AcDbLine
 10
-11.720038821
 20
-53.08980739
 30
0.0
 11
-11.181956934
 21
-53.190774825
 31
0.0
  0
LINE
  5
1E1
330
1D
100
AcDbEntity
  8
1
100
AcDbLine
 10
-11.181956934
 20
-53.190774825
 30
0.0
 11
-10.636498661
 21
-53.224583037
 31
0.0
  0
LINE
  5
1E2
330
1D
100
AcDbEntity
  8
1
100
AcDbLine
 10
-10.636498661
 20
-53.224583037
 30
0.0
 11
-10.091040387
 21
-53.190774825
 31
0.0
  0
LINE
  5
1E3
330
1D
100
AcDbEntity
  8
1
100
AcDbLine
 10
-10.091040387
 20
-53.190774825
 30
0.0
 11
-9.552958501
 21
-53.08980739
 31
0.0
  0
LINE
  5
1E4
330
1D
100
AcDbEntity
  8
1
100
AcDbLine
 10
-9.552958501
 20
-53.08980739
 30
0.0
 11
-9.029529637
 21
-52.923046141
 31
0.0
  0
LINE
  5
1E5
330
1D
100
AcDbEntity
  8
1
100
AcDbLine
 10
-9.029529637
 20
-52.923046141
 30
0.0
 11
-8.527832271
 21
-52.692746238
 31
0.0
  0
LINE
  5
1E6
330
1D
100
AcDbEntity
  8
1
100
AcDbLine
 10
-8.527832271
 20
-52.692746238
 30
0.0
 11
-8.054651002
 21
-52.402022094
 31
0.0
  0
LINE
  5
1E7
330
1D
100
AcDbEntity
  8
1
100
AcDbLine
 10
-8.054651002
 20
-52.402022094
 30
0.0
 11
-7.616384793
 21
-52.054805252
 31
0.0
  0
LINE
  5
1E8
330
1D
100
AcDbEntity
  8
1
100
AcDbLine
 10
-7.616384793
 20
-52.054805252
 30
0.0
 11
-7.218960443
 21
-51.655791226
 31
0.0
  0
LINE
  5
1E9
330
1D
100
AcDbEntity
  8
1
100
AcDbLine
 10
-7.218960443
 20
-51.655791226
 30
0.0
 11
-6.867752435
 21
-51.210375995
 31
0.0
  0
LINE
  5
1EA
330
1D
100
AcDbEntity
  8
1
100
AcDbLine
 10
-6.867752435
 20
-51.210375995
 30
0.0
 11
-6.567510254
 21
-50.724583037
 31
0.0
  0
LINE
  5
1EB
330
1D
100
AcDbEntity
  8
1
100
AcDbLine
 10
-6.567510254
 20
-50.724583037
 30
0.0
 11
-6.322294161
 21
-50.204981867
 31
0.0
  0
LINE
  5
1EC
330
1D
100
AcDbEntity
  8
1
100
AcDbLine
 10
-6.322294161
 20
-50.204981867
 30
0.0
 11
-6.135420283
 21
-49.6585992
 31
0.0
  0
LINE
  5
1ED
330
1D
100
AcDbEntity
  8
1
100
AcDbLine
 10
-6.135420283
 20
-49.6585992
 30
0.0
 11
-6.009415769
 21
-49.092823925
 31
0.0
  0
LINE
  5
1EE
330
1D
100
AcDbEntity
  8
1
100
AcDbLine
 10
-6.009415769
 20
-49.092823925
 30
0.0
 11
-5.945984613
 21
-48.515307181
 31
0.0
  0
LINE
  5
1EF
330
1D
100
AcDbEntity
  8
1
100
AcDbLine
 10
-5.945984613
 20
-48.515307181
 30
0.0
 11
-5.945984613
 21
-47.933858892
 31
0.0
  0
LINE
  5
1F0
330
1D
100
AcDbEntity
  8
1
100
AcDbLine
 10
-5.945984613
 20
-47.933858892
 30
0.0
 11
-6.009415769
 21
-47.356342148
 31
0.0
  0
LINE
  5
1F1
330
1D
100
AcDbEntity
  8
1
100
AcDbLine
 10
-6.009415769
 20
-47.356342148
 30
0.0
 11
-6.135420283
 21
-46.790566873
 31
0.0
  0
LINE
  5
1F2
330
1D
100
AcDbEntity
  8
1
100
AcDbLine
 10
-6.135420283
 20
-46.790566873
 30
0.0
 11
-6.322294161
 21
-46.244184206
 31
0.0
  0
LINE
  5
1F3
330
1D
100
AcDbEntity
  8
1
100
AcDbLine
 10
-6.322294161
 20
-46.244184206
 30
0.0
 11
-6.567510254
 21
-45.724583037
 31
0.0
  0
LINE
  5
1F4
330
1D
100
AcDbEntity
  8
1
100
AcDbLine
 10
-6.567510254
 20
-45.724583037
 30
0.0
 11
-6.867752435
 21
-45.238790078
 31
0.0
  0
LINE
  5
1F5
330
1D
100
AcDbEntity
  8
1
100
AcDbLine
 10
-6.867752435
 20
-45.238790078
 30
0.0
 11
-7.218960443
 21
-44.793374847
 31
0.0
  0
LINE
  5
1F6
330
1D
100
AcDbEntity
  8
1
100
AcDbLine
 10
-7.218960443
 20
-44.793374847
 30
0.0
 11
-7.616384793
 21
-44.394360821
 31
0.0
  0
LINE
  5
1F7
330
1D
100
AcDbEntity
  8
1
100
AcDbLine
 10
-7.616384793
 20
-44.394360821
 30
0.0
 11
-8.054651002
 21
-44.04714398
 31
0.0
  0
LINE
  5
1F8
330
1D
100
AcDbEntity
  8
1
100
AcDbLine
 10
-8.054651002
 20
-44.04714398
 30
0.0
 11
-8.527832271
 21
-43.756419835
 31
0.0
  0
LINE
  5
1F9
330
1D
100
AcDbEntity
  8
1
100
AcDbLine
 10
-8.527832271
 20
-43.756419835
 30
0.0
 11
-9.029529637
 21
-43.526119933
 31
0.0
  0
LINE
  5
1FA
330
1D
100
AcDbEntity
  8
1
100
AcDbLine
 10
-9.029529637
 20
-43.526119933
 30
0.0
 11
-9.552958501
 21
-43.359358684
 31
0.0
  0
LINE
  5
1FB
330
1D
100
AcDbEntity
  8
1
100
AcDbLine
 10
-9.552958501
 20
-43.359358684
 30
0.0
 11
-10.091040387
 21
-43.258391248
 31
0.0
  0
LINE
  5
1FC
330
1D
100
AcDbEntity
  8
1
100
AcDbLine
 10
-10.091040387
 20
-43.258391248
 30
0.0
 11
-10.636498661
 21
-43.224583037
 31
0.0
  0
LINE
  5
1FD
330
1D
100
AcDbEntity
  8
1
100
AcDbLine
 10
-13.149231582
 20
-49.66795871
 30
0.0
 11
-10.80000003
 21
-51.111334383
 31
0.0
  0
LINE
  5
1FE
330
1D
100
AcDbEntity
  8
1
100
AcDbLine
 10
-8.450768478
 20
-49.66795871
 30
0.0
 11
-10.80000003
 21
-51.111334383
 31
0.0
  0
LINE
  5
1FF
330
1D
100
AcDbEntity
  8
1
100
AcDbLine
 10
-8.450768478
 20
-46.781207364
 30
0.0
 11
-8.450768478
 21
-49.66795871
 31
0.0
  0
LINE
  5
200
330
1D
100
AcDbEntity
  8
1
100
AcDbLine
 10
-8.450768478
 20
-46.781207364
 30
0.0
 11
-10.80000003
 21
-45.337831691
 31
0.0
  0
LINE
  5
201
330
1D
100
AcDbEntity
  8
1
100
AcDbLine
 10
-13.149231582
 20
-46.781207364
 30
0.0
 11
-10.80000003
 21
-45.337831691
 31
0.0
  0
LINE
  5
202
330
1D
100
AcDbEntity
  8
1
100
AcDbLine
 10
-13.149231582
 20
-46.781207364
 30
0.0
 11
-13.149231582
 21
-49.66795871
 31
0.0
  0
LINE
  5
203
330
1D
100
AcDbEntity
  8
1
100
AcDbLine
 10
-11.097110722
 20
-46.781207364
 30
0.0
 11
-9.7739396
 21
-45.968246629
 31
0.0
  0
LINE
  5
204
330
1D
100
AcDbEntity
  8
1
100
AcDbLine
 10
-11.097110722
 20
-46.781207364
 30
0.0
 11
-13.149231582
 21
-46.781207364
 31
0.0
  0
LINE
  5
205
330
1D
100
AcDbEntity
  8
1
100
AcDbLine
 10
-11.097110722
 20
-49.66795871
 30
0.0
 11
-13.149231582
 21
-49.66795871
 31
0.0
  0
LINE
  5
206
330
1D
100
AcDbEntity
  8
1
100
AcDbLine
 10
-11.097110722
 20
-49.66795871
 30
0.0
 11
-9.7739396
 21
-50.480919444
 31
0.0
  0
LINE
  5
207
330
1D
100
AcDbEntity
  8
1
100
AcDbLine
 10
-11.097110722
 20
-46.781207364
 30
0.0
 11
-11.097110722
 21
-49.66795871
 31
0.0
  0
LINE
  5
208
330
1D
100
AcDbEntity
  8
1
100
AcDbLine
 10
6.5
 20
-70.105773328
 30
0.0
 11
12.206351152
 21
-71.017509194
 31
0.0
  0
LINE
  5
209
330
1D
100
AcDbEntity
  8
1
100
AcDbLine
 10
12.206351152
 20
-71.017509194
 30
0.0
 11
18.003881373
 21
-71.88696518
 31
0.0
  0
LINE
  5
20A
330
1D
100
AcDbEntity
  8
1
100
AcDbLine
 10
18.003881373
 20
-71.88696518
 30
0.0
 11
23.888228568
 21
-72.713487102
 31
0.0
  0
LINE
  5
20B
330
1D
100
AcDbEntity
  8
1
100
AcDbLine
 10
6.5
 20
-70.105773328
 30
0.0
 11
6.5
 21
-58.107723685
 31
0.0
  0
LINE
  5
20D
330
1D
100
AcDbEntity
  8
1
100
AcDbLine
 10
6.5
 20
-52.341442388
 30
0.0
 11
6.5
 21
-15.224583037
 31
0.0
  0
LINE
  5
210
330
1D
100
AcDbEntity
  8
1
100
AcDbLine
 10
-14.0
 20
-70.105773328
 30
0.0
 11
-14.0
 21
-52.528110964
 31
0.0
  0
LINE
  5
211
330
1D
100
AcDbEntity
  8
1
100
AcDbLine
 10
-14.0
 20
-43.921055109
 30
0.0
 11
-13.482643255
 21
-43.619394154
 31
0.0
  0
LINE
  5
212
330
1D
100
AcDbEntity
  8
1
100
AcDbLine
 10
-13.482643255
 20
-43.619394154
 30
0.0
 11
-12.933425975
 21
-43.372426936
 31
0.0
  0
LINE
  5
213
330
1D
100
AcDbEntity
  8
1
100
AcDbLine
 10
-12.933425975
 20
-43.372426936
 30
0.0
 11
-12.358870963
 21
-43.183086572
 31
0.0
  0
LINE
  5
214
330
1D
100
AcDbEntity
  8
1
100
AcDbLine
 10
-12.358870963
 20
-43.183086572
 30
0.0
 11
-11.76580195
 21
-43.053621772
 31
0.0
  0
LINE
  5
215
330
1D
100
AcDbEntity
  8
1
100
AcDbLine
 10
-11.76580195
 20
-43.053621772
 30
0.0
 11
-11.161262546
 21
-42.98557013
 31
0.0
  0
LINE
  5
216
330
1D
100
AcDbEntity
  8
1
100
AcDbLine
 10
-11.161262546
 20
-42.98557013
 30
0.0
 11
-10.552432591
 21
-42.979739866
 31
0.0
  0
LINE
  5
217
330
1D
100
AcDbEntity
  8
1
100
AcDbLine
 10
-10.552432591
 20
-42.979739866
 30
0.0
 11
-9.946542882
 21
-43.036200222
 31
0.0
  0
LINE
  5
218
330
1D
100
AcDbEntity
  8
1
100
AcDbLine
 10
-9.946542882
 20
-43.036200222
 30
0.0
 11
-9.350789295
 21
-43.154280644
 31
0.0
  0
LINE
  5
219
330
1D
100
AcDbEntity
  8
1
100
AcDbLine
 10
-9.350789295
 20
-43.154280644
 30
0.0
 11
-8.772247327
 21
-43.332578745
 31
0.0
  0
LINE
  5
21A
330
1D
100
AcDbEntity
  8
1
100
AcDbLine
 10
-8.772247327
 20
-43.332578745
 30
0.0
 11
-8.217788057
 21
-43.56897696
 31
0.0
  0
LINE
  5
21B
330
1D
100
AcDbEntity
  8
1
100
AcDbLine
 10
-8.217788057
 20
-43.56897696
 30
0.0
 11
-7.693996545
 21
-43.860667694
 31
0.0
  0
LINE
  5
21C
330
1D
100
AcDbEntity
  8
1
100
AcDbLine
 10
-7.693996545
 20
-43.860667694
 30
0.0
 11
-7.207093627
 21
-44.204186668
 31
0.0
  0
LINE
  5
21D
330
1D
100
AcDbEntity
  8
1
100
AcDbLine
 10
-7.207093627
 20
-44.204186668
 30
0.0
 11
-6.762862026
 21
-44.595454064
 31
0.0
  0
LINE
  5
21E
330
1D
100
AcDbEntity
  8
1
100
AcDbLine
 10
-6.762862026
 20
-44.595454064
 30
0.0
 11
-6.366577679
 21
-45.029822977
 31
0.0
  0
LINE
  5
21F
330
1D
100
AcDbEntity
  8
1
100
AcDbLine
 10
-6.366577679
 20
-45.029822977
 30
0.0
 11
-6.022947077
 21
-45.502134604
 31
0.0
  0
LINE
  5
220
330
1D
100
AcDbEntity
  8
1
100
AcDbLine
 10
-6.022947077
 20
-45.502134604
 30
0.0
 11
-5.736051363
 21
-46.006779515
 31
0.0
  0
LINE
  5
221
330
1D
100
AcDbEntity
  8
1
100
AcDbLine
 10
-5.736051363
 20
-46.006779515
 30
0.0
 11
-5.509297867
 21
-46.537764271
 31
0.0
  0
LINE
  5
222
330
1D
100
AcDbEntity
  8
1
100
AcDbLine
 10
-5.509297867
 20
-46.537764271
 30
0.0
 11
-5.345379639
 21
-47.088782608
 31
0.0
  0
LINE
  5
223
330
1D
100
AcDbEntity
  8
1
100
AcDbLine
 10
-5.345379639
 20
-47.088782608
 30
0.0
 11
-5.246243459
 21
-47.65329033
 31
0.0
  0
LINE
  5
224
330
1D
100
AcDbEntity
  8
1
100
AcDbLine
 10
-5.246243459
 20
-47.65329033
 30
0.0
 11
-5.213066724
 21
-48.224583037
 31
0.0
  0
LINE
  5
225
330
1D
100
AcDbEntity
  8
1
100
AcDbLine
 10
-5.213066724
 20
-48.224583037
 30
0.0
 11
-5.246243459
 21
-48.795875743
 31
0.0
  0
LINE
  5
226
330
1D
100
AcDbEntity
  8
1
100
AcDbLine
 10
-5.246243459
 20
-48.795875743
 30
0.0
 11
-5.345379639
 21
-49.360383465
 31
0.0
  0
LINE
  5
227
330
1D
100
AcDbEntity
  8
1
100
AcDbLine
 10
-5.345379639
 20
-49.360383465
 30
0.0
 11
-5.509297867
 21
-49.911401802
 31
0.0
  0
LINE
  5
228
330
1D
100
AcDbEntity
  8
1
100
AcDbLine
 10
-5.509297867
 20
-49.911401802
 30
0.0
 11
-5.736051363
 21
-50.442386558
 31
0.0
  0
LINE
  5
229
330
1D
100
AcDbEntity
  8
1
100
AcDbLine
 10
-5.736051363
 20
-50.442386558
 30
0.0
 11
-6.022947077
 21
-50.947031469
 31
0.0
  0
LINE
  5
22A
330
1D
100
AcDbEntity
  8
1
100
AcDbLine
 10
-6.022947077
 20
-50.947031469
 30
0.0
 11
-6.366577679
 21
-51.419343096
 31
0.0
  0
LINE
  5
22B
330
1D
100
AcDbEntity
  8
1
100
AcDbLine
 10
-6.366577679
 20
-51.419343096
 30
0.0
 11
-6.762862026
 21
-51.853712009
 31
0.0
  0
LINE
  5
22C
330
1D
100
AcDbEntity
  8
1
100
AcDbLine
 10
-6.762862026
 20
-51.853712009
 30
0.0
 11
-7.207093627
 21
-52.244979405
 31
0.0
  0
LINE
  5
22D
330
1D
100
AcDbEntity
  8
1
100
AcDbLine
 10
-7.207093627
 20
-52.244979405
 30
0.0
 11
-7.693996545
 21
-52.58849838
 31
0.0
  0
LINE
  5
22E
330
1D
100
AcDbEntity
  8
1
100
AcDbLine
 10
-7.693996545
 20
-52.58849838
 30
0.0
 11
-8.217788057
 21
-52.880189113
 31
0.0
  0
LINE
  5
22F
330
1D
100
AcDbEntity
  8
1
100
AcDbLine
 10
-8.217788057
 20
-52.880189113
 30
0.0
 11
-8.772247327
 21
-53.116587328
 31
0.0
  0
LINE
  5
230
330
1D
100
AcDbEntity
  8
1
100
AcDbLine
 10
-8.772247327
 20
-53.116587328
 30
0.0
 11
-9.350789295
 21
-53.294885429
 31
0.0
  0
LINE
  5
231
330
1D
100
AcDbEntity
  8
1
100
AcDbLine
 10
-9.350789295
 20
-53.294885429
 30
0.0
 11
-9.946542882
 21
-53.412965852
 31
0.0
  0
LINE
  5
232
330
1D
100
AcDbEntity
  8
1
100
AcDbLine
 10
-9.946542882
 20
-53.412965852
 30
0.0
 11
-10.552432591
 21
-53.469426208
 31
0.0
  0
LINE
  5
233
330
1D
100
AcDbEntity
  8
1
100
AcDbLine
 10
-10.552432591
 20
-53.469426208
 30
0.0
 11
-11.161262546
 21
-53.463595943
 31
0.0
  0
LINE
  5
234
330
1D
100
AcDbEntity
  8
1
100
AcDbLine
 10
-11.161262546
 20
-53.463595943
 30
0.0
 11
-11.76580195
 21
-53.395544302
 31
0.0
  0
LINE
  5
235
330
1D
100
AcDbEntity
  8
1
100
AcDbLine
 10
-11.76580195
 20
-53.395544302
 30
0.0
 11
-12.358870963
 21
-53.266079502
 31
0.0
  0
LINE
  5
236
330
1D
100
AcDbEntity
  8
1
100
AcDbLine
 10
-12.358870963
 20
-53.266079502
 30
0.0
 11
-12.933425975
 21
-53.076739138
 31
0.0
  0
LINE
  5
237
330
1D
100
AcDbEntity
  8
1
100
AcDbLine
 10
-12.933425975
 20
-53.076739138
 30
0.0
 11
-13.482643255
 21
-52.829771919
 31
0.0
  0
LINE
  5
238
330
1D
100
AcDbEntity
  8
1
100
AcDbLine
 10
-13.482643255
 20
-52.829771919
 30
0.0
 11
-14.0
 21
-52.528110964
 31
0.0
  0
LINE
  5
239
330
1D
100
AcDbEntity
  8
1
100
AcDbLine
 10
-14.0
 20
-43.921055109
 30
0.0
 11
-14.0
 21
-40.528110964
 31
0.0
  0
LINE
  5
23A
330
1D
100
AcDbEntity
  8
1
100
AcDbLine
 10
-14.0
 20
-31.921055109
 30
0.0
 11
-13.482643255
 21
-31.619394154
 31
0.0
  0
LINE
  5
23B
330
1D
100
AcDbEntity
  8
1
100
AcDbLine
 10
-13.482643255
 20
-31.619394154
 30
0.0
 11
-12.933425975
 21
-31.372426936
 31
0.0
  0
LINE
  5
23C
330
1D
100
AcDbEntity
  8
1
100
AcDbLine
 10
-12.933425975
 20
-31.372426936
 30
0.0
 11
-12.358870963
 21
-31.183086572
 31
0.0
  0
LINE
  5
23D
330
1D
100
AcDbEntity
  8
1
100
AcDbLine
 10
-12.358870963
 20
-31.183086572
 30
0.0
 11
-11.76580195
 21
-31.053621772
 31
0.0
  0
LINE
  5
23E
330
1D
100
AcDbEntity
  8
1
100
AcDbLine
 10
-11.76580195
 20
-31.053621772
 30
0.0
 11
-11.161262546
 21
-30.98557013
 31
0.0
  0
LINE
  5
23F
330
1D
100
AcDbEntity
  8
1
100
AcDbLine
 10
-11.161262546
 20
-30.98557013
 30
0.0
 11
-10.552432591
 21
-30.979739866
 31
0.0
  0
LINE
  5
240
330
1D
100
AcDbEntity
  8
1
100
AcDbLine
 10
-10.552432591
 20
-30.979739866
 30
0.0
 11
-9.946542882
 21
-31.036200222
 31
0.0
  0
LINE
  5
241
330
1D
100
AcDbEntity
  8
1
100
AcDbLine
 10
-9.946542882
 20
-31.036200222
 30
0.0
 11
-9.350789295
 21
-31.154280644
 31
0.0
  0
LINE
  5
242
330
1D
100
AcDbEntity
  8
1
100
AcDbLine
 10
-9.350789295
 20
-31.154280644
 30
0.0
 11
-8.772247327
 21
-31.332578745
 31
0.0
  0
LINE
  5
243
330
1D
100
AcDbEntity
  8
1
100
AcDbLine
 10
-8.772247327
 20
-31.332578745
 30
0.0
 11
-8.217788057
 21
-31.56897696
 31
0.0
  0
LINE
  5
244
330
1D
100
AcDbEntity
  8
1
100
AcDbLine
 10
-8.217788057
 20
-31.56897696
 30
0.0
 11
-7.693996545
 21
-31.860667694
 31
0.0
  0
LINE
  5
245
330
1D
100
AcDbEntity
  8
1
100
AcDbLine
 10
-7.693996545
 20
-31.860667694
 30
0.0
 11
-7.207093627
 21
-32.204186668
 31
0.0
  0
LINE
  5
246
330
1D
100
AcDbEntity
  8
1
100
AcDbLine
 10
-7.207093627
 20
-32.204186668
 30
0.0
 11
-6.762862026
 21
-32.595454064
 31
0.0
  0
LINE
  5
247
330
1D
100
AcDbEntity
  8
1
100
AcDbLine
 10
-6.762862026
 20
-32.595454064
 30
0.0
 11
-6.366577679
 21
-33.029822977
 31
0.0
  0
LINE
  5
248
330
1D
100
AcDbEntity
  8
1
100
AcDbLine
 10
-6.366577679
 20
-33.029822977
 30
0.0
 11
-6.022947077
 21
-33.502134604
 31
0.0
  0
LINE
  5
249
330
1D
100
AcDbEntity
  8
1
100
AcDbLine
 10
-6.022947077
 20
-33.502134604
 30
0.0
 11
-5.736051363
 21
-34.006779515
 31
0.0
  0
LINE
  5
24A
330
1D
100
AcDbEntity
  8
1
100
AcDbLine
 10
-5.736051363
 20
-34.006779515
 30
0.0
 11
-5.509297867
 21
-34.537764271
 31
0.0
  0
LINE
  5
24B
330
1D
100
AcDbEntity
  8
1
100
AcDbLine
 10
-5.509297867
 20
-34.537764271
 30
0.0
 11
-5.345379639
 21
-35.088782608
 31
0.0
  0
LINE
  5
24C
330
1D
100
AcDbEntity
  8
1
100
AcDbLine
 10
-5.345379639
 20
-35.088782608
 30
0.0
 11
-5.246243459
 21
-35.65329033
 31
0.0
  0
LINE
  5
24D
330
1D
100
AcDbEntity
  8
1
100
AcDbLine
 10
-5.246243459
 20
-35.65329033
 30
0.0
 11
-5.213066724
 21
-36.224583037
 31
0.0
  0
LINE
  5
24E
330
1D
100
AcDbEntity
  8
1
100
AcDbLine
 10
-5.213066724
 20
-36.224583037
 30
0.0
 11
-5.246243459
 21
-36.795875743
 31
0.0
  0
LINE
  5
24F
330
1D
100
AcDbEntity
  8
1
100
AcDbLine
 10
-5.246243459
 20
-36.795875743
 30
0.0
 11
-5.345379639
 21
-37.360383465
 31
0.0
  0
LINE
  5
250
330
1D
100
AcDbEntity
  8
1
100
AcDbLine
 10
-5.345379639
 20
-37.360383465
 30
0.0
 11
-5.509297867
 21
-37.911401802
 31
0.0
  0
LINE
  5
251
330
1D
100
AcDbEntity
  8
1
100
AcDbLine
 10
-5.509297867
 20
-37.911401802
 30
0.0
 11
-5.736051363
 21
-38.442386558
 31
0.0
  0
LINE
  5
252
330
1D
100
AcDbEntity
  8
1
100
AcDbLine
 10
-5.736051363
 20
-38.442386558
 30
0.0
 11
-6.022947077
 21
-38.947031469
 31
0.0
  0
LINE
  5
253
330
1D
100
AcDbEntity
  8
1
100
AcDbLine
 10
-6.022947077
 20
-38.947031469
 30
0.0
 11
-6.366577679
 21
-39.419343096
 31
0.0
  0
LINE
  5
254
330
1D
100
AcDbEntity
  8
1
100
AcDbLine
 10
-6.366577679
 20
-39.419343096
 30
0.0
 11
-6.762862026
 21
-39.853712009
 31
0.0
  0
LINE
  5
255
330
1D
100
AcDbEntity
  8
1
100
AcDbLine
 10
-6.762862026
 20
-39.853712009
 30
0.0
 11
-7.207093627
 21
-40.244979405
 31
0.0
  0
LINE
  5
256
330
1D
100
AcDbEntity
  8
1
100
AcDbLine
 10
-7.207093627
 20
-40.244979405
 30
0.0
 11
-7.693996545
 21
-40.58849838
 31
0.0
  0
LINE
  5
257
330
1D
100
AcDbEntity
  8
1
100
AcDbLine
 10
-7.693996545
 20
-40.58849838
 30
0.0
 11
-8.217788057
 21
-40.880189113
 31
0.0
  0
LINE
  5
258
330
1D
100
AcDbEntity
  8
1
100
AcDbLine
 10
-8.217788057
 20
-40.880189113
 30
0.0
 11
-8.772247327
 21
-41.116587328
 31
0.0
  0
LINE
  5
259
330
1D
100
AcDbEntity
  8
1
100
AcDbLine
 10
-8.772247327
 20
-41.116587328
 30
0.0
 11
-9.350789295
 21
-41.294885429
 31
0.0
  0
LINE
  5
25A
330
1D
100
AcDbEntity
  8
1
100
AcDbLine
 10
-9.350789295
 20
-41.294885429
 30
0.0
 11
-9.946542882
 21
-41.412965852
 31
0.0
  0
LINE
  5
25B
330
1D
100
AcDbEntity
  8
1
100
AcDbLine
 10
-9.946542882
 20
-41.412965852
 30
0.0
 11
-10.552432591
 21
-41.469426208
 31
0.0
  0
LINE
  5
25C
330
1D
100
AcDbEntity
  8
1
100
AcDbLine
 10
-10.552432591
 20
-41.469426208
 30
0.0
 11
-11.161262546
 21
-41.463595943
 31
0.0
  0
LINE
  5
25D
330
1D
100
AcDbEntity
  8
1
100
AcDbLine
 10
-11.161262546
 20
-41.463595943
 30
0.0
 11
-11.76580195
 21
-41.395544302
 31
0.0
  0
LINE
  5
25E
330
1D
100
AcDbEntity
  8
1
100
AcDbLine
 10
-11.76580195
 20
-41.395544302
 30
0.0
 11
-12.358870963
 21
-41.266079502
 31
0.0
  0
LINE
  5
25F
330
1D
100
AcDbEntity
  8
1
100
AcDbLine
 10
-12.358870963
 20
-41.266079502
 30
0.0
 11
-12.933425975
 21
-41.076739138
 31
0.0
  0
LINE
  5
260
330
1D
100
AcDbEntity
  8
1
100
AcDbLine
 10
-12.933425975
 20
-41.076739138
 30
0.0
 11
-13.482643255
 21
-40.829771919
 31
0.0
  0
LINE
  5
261
330
1D
100
AcDbEntity
  8
1
100
AcDbLine
 10
-13.482643255
 20
-40.829771919
 30
0.0
 11
-14.0
 21
-40.528110964
 31
0.0
  0
LINE
  5
262
330
1D
100
AcDbEntity
  8
1
100
AcDbLine
 10
-14.0
 20
-31.921055109
 30
0.0
 11
-14.0
 21
-28.528110964
 31
0.0
  0
LINE
  5
263
330
1D
100
AcDbEntity
  8
1
100
AcDbLine
 10
-14.0
 20
-19.921055109
 30
0.0
 11
-13.482643255
 21
-19.619394154
 31
0.0
  0
LINE
  5
264
330
1D
100
AcDbEntity
  8
1
100
AcDbLine
 10
-13.482643255
 20
-19.619394154
 30
0.0
 11
-12.933425975
 21
-19.372426936
 31
0.0
  0
LINE
  5
265
330
1D
100
AcDbEntity
  8
1
100
AcDbLine
 10
-12.933425975
 20
-19.372426936
 30
0.0
 11
-12.358870963
 21
-19.183086572
 31
0.0
  0
LINE
  5
266
330
1D
100
AcDbEntity
  8
1
100
AcDbLine
 10
-12.358870963
 20
-19.183086572
 30
0.0
 11
-11.76580195
 21
-19.053621772
 31
0.0
  0
LINE
  5
267
330
1D
100
AcDbEntity
  8
1
100
AcDbLine
 10
-11.76580195
 20
-19.053621772
 30
0.0
 11
-11.161262546
 21
-18.98557013
 31
0.0
  0
LINE
  5
268
330
1D
100
AcDbEntity
  8
1
100
AcDbLine
 10
-11.161262546
 20
-18.98557013
 30
0.0
 11
-10.552432591
 21
-18.979739866
 31
0.0
  0
LINE
  5
269
330
1D
100
AcDbEntity
  8
1
100
AcDbLine
 10
-10.552432591
 20
-18.979739866
 30
0.0
 11
-9.946542882
 21
-19.036200222
 31
0.0
  0
LINE
  5
26A
330
1D
100
AcDbEntity
  8
1
100
AcDbLine
 10
-9.946542882
 20
-19.036200222
 30
0.0
 11
-9.350789295
 21
-19.154280644
 31
0.0
  0
LINE
  5
26B
330
1D
100
AcDbEntity
  8
1
100
AcDbLine
 10
-9.350789295
 20
-19.154280644
 30
0.0
 11
-8.772247327
 21
-19.332578745
 31
0.0
  0
LINE
  5
26C
330
1D
100
AcDbEntity
  8
1
100
AcDbLine
 10
-8.772247327
 20
-19.332578745
 30
0.0
 11
-8.217788057
 21
-19.56897696
 31
0.0
  0
LINE
  5
26D
330
1D
100
AcDbEntity
  8
1
100
AcDbLine
 10
-8.217788057
 20
-19.56897696
 30
0.0
 11
-7.693996545
 21
-19.860667694
 31
0.0
  0
LINE
  5
26E
330
1D
100
AcDbEntity
  8
1
100
AcDbLine
 10
-7.693996545
 20
-19.860667694
 30
0.0
 11
-7.207093627
 21
-20.204186668
 31
0.0
  0
LINE
  5
26F
330
1D
100
AcDbEntity
  8
1
100
AcDbLine
 10
-7.207093627
 20
-20.204186668
 30
0.0
 11
-6.762862026
 21
-20.595454064
 31
0.0
  0
LINE
  5
270
330
1D
100
AcDbEntity
  8
1
100
AcDbLine
 10
-6.762862026
 20
-20.595454064
 30
0.0
 11
-6.366577679
 21
-21.029822977
 31
0.0
  0
LINE
  5
271
330
1D
100
AcDbEntity
  8
1
100
AcDbLine
 10
-6.366577679
 20
-21.029822977
 30
0.0
 11
-6.022947077
 21
-21.502134604
 31
0.0
  0
LINE
  5
272
330
1D
100
AcDbEntity
  8
1
100
AcDbLine
 10
-6.022947077
 20
-21.502134604
 30
0.0
 11
-5.736051363
 21
-22.006779515
 31
0.0
  0
LINE
  5
273
330
1D
100
AcDbEntity
  8
1
100
AcDbLine
 10
-5.736051363
 20
-22.006779515
 30
0.0
 11
-5.509297867
 21
-22.537764271
 31
0.0
  0
LINE
  5
274
330
1D
100
AcDbEntity
  8
1
100
AcDbLine
 10
-5.509297867
 20
-22.537764271
 30
0.0
 11
-5.345379639
 21
-23.088782608
 31
0.0
  0
LINE
  5
275
330
1D
100
AcDbEntity
  8
1
100
AcDbLine
 10
-5.345379639
 20
-23.088782608
 30
0.0
 11
-5.246243459
 21
-23.65329033
 31
0.0
  0
LINE
  5
276
330
1D
100
AcDbEntity
  8
1
100
AcDbLine
 10
-5.246243459
 20
-23.65329033
 30
0.0
 11
-5.213066724
 21
-24.224583037
 31
0.0
  0
LINE
  5
277
330
1D
100
AcDbEntity
  8
1
100
AcDbLine
 10
-5.213066724
 20
-24.224583037
 30
0.0
 11
-5.246243459
 21
-24.795875743
 31
0.0
  0
LINE
  5
278
330
1D
100
AcDbEntity
  8
1
100
AcDbLine
 10
-5.246243459
 20
-24.795875743
 30
0.0
 11
-5.345379639
 21
-25.360383465
 31
0.0
  0
LINE
  5
279
330
1D
100
AcDbEntity
  8
1
100
AcDbLine
 10
-5.345379639
 20
-25.360383465
 30
0.0
 11
-5.509297867
 21
-25.911401802
 31
0.0
  0
LINE
  5
27A
330
1D
100
AcDbEntity
  8
1
100
AcDbLine
 10
-5.509297867
 20
-25.911401802
 30
0.0
 11
-5.736051363
 21
-26.442386558
 31
0.0
  0
LINE
  5
27B
330
1D
100
AcDbEntity
  8
1
100
AcDbLine
 10
-5.736051363
 20
-26.442386558
 30
0.0
 11
-6.022947077
 21
-26.947031469
 31
0.0
  0
LINE
  5
27C
330
1D
100
AcDbEntity
  8
1
100
AcDbLine
 10
-6.022947077
 20
-26.947031469
 30
0.0
 11
-6.366577679
 21
-27.419343096
 31
0.0
  0
LINE
  5
27D
330
1D
100
AcDbEntity
  8
1
100
AcDbLine
 10
-6.366577679
 20
-27.419343096
 30
0.0
 11
-6.762862026
 21
-27.853712009
 31
0.0
  0
LINE
  5
27E
330
1D
100
AcDbEntity
  8
1
100
AcDbLine
 10
-6.762862026
 20
-27.853712009
 30
0.0
 11
-7.207093627
 21
-28.244979405
 31
0.0
  0
LINE
  5
27F
330
1D
100
AcDbEntity
  8
1
100
AcDbLine
 10
-7.207093627
 20
-28.244979405
 30
0.0
 11
-7.693996545
 21
-28.58849838
 31
0.0
  0
LINE
  5
280
330
1D
100
AcDbEntity
  8
1
100
AcDbLine
 10
-7.693996545
 20
-28.58849838
 30
0.0
 11
-8.217788057
 21
-28.880189113
 31
0.0
  0
LINE
  5
281
330
1D
100
AcDbEntity
  8
1
100
AcDbLine
 10
-8.217788057
 20
-28.880189113
 30
0.0
 11
-8.772247327
 21
-29.116587328
 31
0.0
  0
LINE
  5
282
330
1D
100
AcDbEntity
  8
1
100
AcDbLine
 10
-8.772247327
 20
-29.116587328
 30
0.0
 11
-9.350789295
 21
-29.294885429
 31
0.0
  0
LINE
  5
283
330
1D
100
AcDbEntity
  8
1
100
AcDbLine
 10
-9.350789295
 20
-29.294885429
 30
0.0
 11
-9.946542882
 21
-29.412965852
 31
0.0
  0
LINE
  5
284
330
1D
100
AcDbEntity
  8
1
100
AcDbLine
 10
-9.946542882
 20
-29.412965852
 30
0.0
 11
-10.552432591
 21
-29.469426208
 31
0.0
  0
LINE
  5
285
330
1D
100
AcDbEntity
  8
1
100
AcDbLine
 10
-10.552432591
 20
-29.469426208
 30
0.0
 11
-11.161262546
 21
-29.463595943
 31
0.0
  0
LINE
  5
286
330
1D
100
AcDbEntity
  8
1
100
AcDbLine
 10
-11.161262546
 20
-29.463595943
 30
0.0
 11
-11.76580195
 21
-29.395544302
 31
0.0
  0
LINE
  5
287
330
1D
100
AcDbEntity
  8
1
100
AcDbLine
 10
-11.76580195
 20
-29.395544302
 30
0.0
 11
-12.358870963
 21
-29.266079502
 31
0.0
  0
LINE
  5
288
330
1D
100
AcDbEntity
  8
1
100
AcDbLine
 10
-12.358870963
 20
-29.266079502
 30
0.0
 11
-12.933425975
 21
-29.076739138
 31
0.0
  0
LINE
  5
289
330
1D
100
AcDbEntity
  8
1
100
AcDbLine
 10
-12.933425975
 20
-29.076739138
 30
0.0
 11
-13.482643255
 21
-28.829771919
 31
0.0
  0
LINE
  5
28A
330
1D
100
AcDbEntity
  8
1
100
AcDbLine
 10
-13.482643255
 20
-28.829771919
 30
0.0
 11
-14.0
 21
-28.528110964
 31
0.0
  0
LINE
  5
28B
330
1D
100
AcDbEntity
  8
1
100
AcDbLine
 10
-14.0
 20
-19.921055109
 30
0.0
 11
-14.0
 21
-15.224583037
 31
0.0
  0
LINE
  5
28E
330
1D
100
AcDbEntity
  8
1
100
AcDbLine
 10
-16.0
 20
-71.287048445
 30
0.0
 11
-14.994714776
 21
-70.705359224
 31
0.0
  0
LINE
  5
28F
330
1D
100
AcDbEntity
  8
1
100
AcDbLine
 10
-14.994714776
 20
-70.705359224
 30
0.0
 11
-14.0
 21
-70.105773328
 31
0.0
  0
LINE
  5
291
330
1D
100
AcDbEntity
  8
1
100
AcDbLine
 10
-14.0
 20
-28.528110964
 30
0.0
 11
-14.344451488
 21
-28.183158361
 31
0.0
  0
LINE
  5
292
330
1D
100
AcDbEntity
  8
1
100
AcDbLine
 10
-14.344451488
 20
-28.183158361
 30
0.0
 11
-14.658260908
 21
-27.79312233
 31
0.0
  0
LINE
  5
293
330
1D
100
AcDbEntity
  8
1
100
AcDbLine
 10
-14.658260908
 20
-27.79312233
 30
0.0
 11
-14.937854347
 21
-27.362444913
 31
0.0
  0
LINE
  5
294
330
1D
100
AcDbEntity
  8
1
100
AcDbLine
 10
-14.937854347
 20
-27.362444913
 30
0.0
 11
-15.180047571
 21
-26.896031012
 31
0.0
  0
LINE
  5
295
330
1D
100
AcDbEntity
  8
1
100
AcDbLine
 10
-15.180047571
 20
-26.896031012
 30
0.0
 11
-15.382082289
 21
-26.39919252
 31
0.0
  0
LINE
  5
296
330
1D
100
AcDbEntity
  8
1
100
AcDbLine
 10
-15.382082289
 20
-26.39919252
 30
0.0
 11
-15.541657568
 21
-25.877587832
 31
0.0
  0
LINE
  5
297
330
1D
100
AcDbEntity
  8
1
100
AcDbLine
 10
-15.541657568
 20
-25.877587832
 30
0.0
 11
-15.656956037
 21
-25.337157402
 31
0.0
  0
LINE
  5
298
330
1D
100
AcDbEntity
  8
1
100
AcDbLine
 10
-15.656956037
 20
-25.337157402
 30
0.0
 11
-15.726664585
 21
-24.784056083
 31
0.0
  0
LINE
  5
299
330
1D
100
AcDbEntity
  8
1
100
AcDbLine
 10
-15.726664585
 20
-24.784056083
 30
0.0
 11
-15.749989315
 21
-24.224583037
 31
0.0
  0
LINE
  5
29A
330
1D
100
AcDbEntity
  8
1
100
AcDbLine
 10
-15.749989315
 20
-24.224583037
 30
0.0
 11
-15.726664585
 21
-23.66510999
 31
0.0
  0
LINE
  5
29B
330
1D
100
AcDbEntity
  8
1
100
AcDbLine
 10
-15.726664585
 20
-23.66510999
 30
0.0
 11
-15.656956037
 21
-23.112008671
 31
0.0
  0
LINE
  5
29C
330
1D
100
AcDbEntity
  8
1
100
AcDbLine
 10
-15.656956037
 20
-23.112008671
 30
0.0
 11
-15.541657568
 21
-22.571578241
 31
0.0
  0
LINE
  5
29D
330
1D
100
AcDbEntity
  8
1
100
AcDbLine
 10
-15.541657568
 20
-22.571578241
 30
0.0
 11
-15.382082289
 21
-22.049973554
 31
0.0
  0
LINE
  5
29E
330
1D
100
AcDbEntity
  8
1
100
AcDbLine
 10
-15.382082289
 20
-22.049973554
 30
0.0
 11
-15.180047571
 21
-21.553135062
 31
0.0
  0
LINE
  5
29F
330
1D
100
AcDbEntity
  8
1
100
AcDbLine
 10
-15.180047571
 20
-21.553135062
 30
0.0
 11
-14.937854347
 21
-21.08672116
 31
0.0
  0
LINE
  5
2A0
330
1D
100
AcDbEntity
  8
1
100
AcDbLine
 10
-14.937854347
 20
-21.08672116
 30
0.0
 11
-14.658260908
 21
-20.656043744
 31
0.0
  0
LINE
  5
2A1
330
1D
100
AcDbEntity
  8
1
100
AcDbLine
 10
-14.658260908
 20
-20.656043744
 30
0.0
 11
-14.344451488
 21
-20.266007713
 31
0.0
  0
LINE
  5
2A2
330
1D
100
AcDbEntity
  8
1
100
AcDbLine
 10
-14.344451488
 20
-20.266007713
 30
0.0
 11
-14.0
 21
-19.921055109
 31
0.0
  0
LINE
  5
2A3
330
1D
100
AcDbEntity
  8
1
100
AcDbLine
 10
-14.0
 20
-40.528110964
 30
0.0
 11
-14.344451488
 21
-40.183158361
 31
0.0
  0
LINE
  5
2A4
330
1D
100
AcDbEntity
  8
1
100
AcDbLine
 10
-14.344451488
 20
-40.183158361
 30
0.0
 11
-14.658260908
 21
-39.79312233
 31
0.0
  0
LINE
  5
2A5
330
1D
100
AcDbEntity
  8
1
100
AcDbLine
 10
-14.658260908
 20
-39.79312233
 30
0.0
 11
-14.937854347
 21
-39.362444913
 31
0.0
  0
LINE
  5
2A6
330
1D
100
AcDbEntity
  8
1
100
AcDbLine
 10
-14.937854347
 20
-39.362444913
 30
0.0
 11
-15.180047571
 21
-38.896031012
 31
0.0
  0
LINE
  5
2A7
330
1D
100
AcDbEntity
  8
1
100
AcDbLine
 10
-15.180047571
 20
-38.896031012
 30
0.0
 11
-15.382082289
 21
-38.39919252
 31
0.0
  0
LINE
  5
2A8
330
1D
100
AcDbEntity
  8
1
100
AcDbLine
 10
-15.382082289
 20
-38.39919252
 30
0.0
 11
-15.541657568
 21
-37.877587832
 31
0.0
  0
LINE
  5
2A9
330
1D
100
AcDbEntity
  8
1
100
AcDbLine
 10
-15.541657568
 20
-37.877587832
 30
0.0
 11
-15.656956037
 21
-37.337157402
 31
0.0
  0
LINE
  5
2AA
330
1D
100
AcDbEntity
  8
1
100
AcDbLine
 10
-15.656956037
 20
-37.337157402
 30
0.0
 11
-15.726664585
 21
-36.784056083
 31
0.0
  0
LINE
  5
2AB
330
1D
100
AcDbEntity
  8
1
100
AcDbLine
 10
-15.726664585
 20
-36.784056083
 30
0.0
 11
-15.749989315
 21
-36.224583037
 31
0.0
  0
LINE
  5
2AC
330
1D
100
AcDbEntity
  8
1
100
AcDbLine
 10
-15.749989315
 20
-36.224583037
 30
0.0
 11
-15.726664585
 21
-35.66510999
 31
0.0
  0
LINE
  5
2AD
330
1D
100
AcDbEntity
  8
1
100
AcDbLine
 10
-15.726664585
 20
-35.66510999
 30
0.0
 11
-15.656956037
 21
-35.112008671
 31
0.0
  0
LINE
  5
2AE
330
1D
100
AcDbEntity
  8
1
100
AcDbLine
 10
-15.656956037
 20
-35.112008671
 30
0.0
 11
-15.541657568
 21
-34.571578241
 31
0.0
  0
LINE
  5
2AF
330
1D
100
AcDbEntity
  8
1
100
AcDbLine
 10
-15.541657568
 20
-34.571578241
 30
0.0
 11
-15.382082289
 21
-34.049973554
 31
0.0
  0
LINE
  5
2B0
330
1D
100
AcDbEntity
  8
1
100
AcDbLine
 10
-15.382082289
 20
-34.049973554
 30
0.0
 11
-15.180047571
 21
-33.553135062
 31
0.0
  0
LINE
  5
2B1
330
1D
100
AcDbEntity
  8
1
100
AcDbLine
 10
-15.180047571
 20
-33.553135062
 30
0.0
 11
-14.937854347
 21
-33.08672116
 31
0.0
  0
LINE
  5
2B2
330
1D
100
AcDbEntity
  8
1
100
AcDbLine
 10
-14.937854347
 20
-33.08672116
 30
0.0
 11
-14.658260908
 21
-32.656043744
 31
0.0
  0
LINE
  5
2B3
330
1D
100
AcDbEntity
  8
1
100
AcDbLine
 10
-14.658260908
 20
-32.656043744
 30
0.0
 11
-14.344451488
 21
-32.266007713
 31
0.0
  0
LINE
  5
2B4
330
1D
100
AcDbEntity
  8
1
100
AcDbLine
 10
-14.344451488
 20
-32.266007713
 30
0.0
 11
-14.0
 21
-31.921055109
 31
0.0
  0
LINE
  5
2B5
330
1D
100
AcDbEntity
  8
1
100
AcDbLine
 10
-14.0
 20
-52.528110964
 30
0.0
 11
-14.344451488
 21
-52.183158361
 31
0.0
  0
LINE
  5
2B6
330
1D
100
AcDbEntity
  8
1
100
AcDbLine
 10
-14.344451488
 20
-52.183158361
 30
0.0
 11
-14.658260908
 21
-51.79312233
 31
0.0
  0
LINE
  5
2B7
330
1D
100
AcDbEntity
  8
1
100
AcDbLine
 10
-14.658260908
 20
-51.79312233
 30
0.0
 11
-14.937854347
 21
-51.362444913
 31
0.0
  0
LINE
  5
2B8
330
1D
100
AcDbEntity
  8
1
100
AcDbLine
 10
-14.937854347
 20
-51.362444913
 30
0.0
 11
-15.180047571
 21
-50.896031012
 31
0.0
  0
LINE
  5
2B9
330
1D
100
AcDbEntity
  8
1
100
AcDbLine
 10
-15.180047571
 20
-50.896031012
 30
0.0
 11
-15.382082289
 21
-50.39919252
 31
0.0
  0
LINE
  5
2BA
330
1D
100
AcDbEntity
  8
1
100
AcDbLine
 10
-15.382082289
 20
-50.39919252
 30
0.0
 11
-15.541657568
 21
-49.877587832
 31
0.0
  0
LINE
  5
2BB
330
1D
100
AcDbEntity
  8
1
100
AcDbLine
 10
-15.541657568
 20
-49.877587832
 30
0.0
 11
-15.656956037
 21
-49.337157402
 31
0.0
  0
LINE
  5
2BC
330
1D
100
AcDbEntity
  8
1
100
AcDbLine
 10
-15.656956037
 20
-49.337157402
 30
0.0
 11
-15.726664585
 21
-48.784056083
 31
0.0
  0
LINE
  5
2BD
330
1D
100
AcDbEntity
  8
1
100
AcDbLine
 10
-15.726664585
 20
-48.784056083
 30
0.0
 11
-15.749989315
 21
-48.224583037
 31
0.0
  0
LINE
  5
2BE
330
1D
100
AcDbEntity
  8
1
100
AcDbLine
 10
-15.749989315
 20
-48.224583037
 30
0.0
 11
-15.726664585
 21
-47.66510999
 31
0.0
  0
LINE
  5
2BF
330
1D
100
AcDbEntity
  8
1
100
AcDbLine
 10
-15.726664585
 20
-47.66510999
 30
0.0
 11
-15.656956037
 21
-47.112008671
 31
0.0
  0
LINE
  5
2C0
330
1D
100
AcDbEntity
  8
1
100
AcDbLine
 10
-15.656956037
 20
-47.112008671
 30
0.0
 11
-15.541657568
 21
-46.571578241
 31
0.0
  0
LINE
  5
2C1
330
1D
100
AcDbEntity
  8
1
100
AcDbLine
 10
-15.541657568
 20
-46.571578241
 30
0.0
 11
-15.382082289
 21
-46.049973554
 31
0.0
  0
LINE
  5
2C2
330
1D
100
AcDbEntity
  8
1
100
AcDbLine
 10
-15.382082289
 20
-46.049973554
 30
0.0
 11
-15.180047571
 21
-45.553135062
 31
0.0
  0
LINE
  5
2C3
330
1D
100
AcDbEntity
  8
1
100
AcDbLine
 10
-15.180047571
 20
-45.553135062
 30
0.0
 11
-14.937854347
 21
-45.08672116
 31
0.0
  0
LINE
  5
2C4
330
1D
100
AcDbEntity
  8
1
100
AcDbLine
 10
-14.937854347
 20
-45.08672116
 30
0.0
 11
-14.658260908
 21
-44.656043744
 31
0.0
  0
LINE
  5
2C5
330
1D
100
AcDbEntity
  8
1
100
AcDbLine
 10
-14.658260908
 20
-44.656043744
 30
0.0
 11
-14.344451488
 21
-44.266007713
 31
0.0
  0
LINE
  5
2C6
330
1D
100
AcDbEntity
  8
1
100
AcDbLine
 10
-14.344451488
 20
-44.266007713
 30
0.0
 11
-14.0
 21
-43.921055109
 31
0.0
  0
LINE
  5
2C7
330
1D
100
AcDbEntity
  8
1
100
AcDbLine
 10
0.0
 20
-15.224583037
 30
0.0
 11
-16.0
 21
-15.224583037
 31
0.0
  0
LINE
  5
2C8
330
1D
100
AcDbEntity
  8
1
100
AcDbLine
 10
0.4
 20
-79.724583037
 30
0.0
 11
0.4
 21
-78.196580007
 31
0.0
  0
LINE
  5
2C9
330
1D
100
AcDbEntity
  8
1
100
AcDbLine
 10
0.4
 20
-78.196580007
 30
0.0
 11
0.0
 21
-78.196580007
 31
0.0
  0
LINE
  5
2CA
330
1D
100
AcDbEntity
  8
1
100
AcDbLine
 10
0.0
 20
-76.533577519
 30
0.0
 11
0.0
 21
-78.196580007
 31
0.0
  0
LINE
  5
2CB
330
1D
100
AcDbEntity
  8
1
100
AcDbLine
 10
-0.140964282
 20
-76.43346476
 30
0.0
 11
-0.070720984
 21
-76.459142525
 31
0.0
  0
LINE
  5
2CC
330
1D
100
AcDbEntity
  8
1
100
AcDbLine
 10
-0.070720984
 20
-76.459142525
 30
0.0
 11
-0.014546112
 21
-76.498658863
 31
0.0
  0
LINE
  5
2CD
330
1D
100
AcDbEntity
  8
1
100
AcDbLine
 10
-0.014546112
 20
-76.498658863
 30
0.0
 11
0.0
 21
-76.533577519
 31
0.0
  0
LINE
  5
2CE
330
1D
100
AcDbEntity
  8
1
100
AcDbLine
 10
-0.140964282
 20
-76.43346476
 30
0.0
 11
-0.213075461
 21
-76.341056876
 31
0.0
  0
LINE
  5
2CF
330
1D
100
AcDbEntity
  8
1
100
AcDbLine
 10
-0.213075461
 20
-76.341056876
 30
0.0
 11
-0.371779742
 21
-76.216378242
 31
0.0
  0
LINE
  5
2D0
330
1D
100
AcDbEntity
  8
1
100
AcDbLine
 10
-0.371779742
 20
-76.216378242
 30
0.0
 11
-0.59416945
 21
-76.100340912
 31
0.0
  0
LINE
  5
2D1
330
1D
100
AcDbEntity
  8
1
100
AcDbLine
 10
-0.59416945
 20
-76.100340912
 30
0.0
 11
-0.869680218
 21
-75.999380281
 31
0.0
  0
LINE
  5
2D2
330
1D
100
AcDbEntity
  8
1
100
AcDbLine
 10
-0.869680218
 20
-75.999380281
 30
0.0
 11
-1.194351372
 21
-75.915105651
 31
0.0
  0
LINE
  5
2D3
330
1D
100
AcDbEntity
  8
1
100
AcDbLine
 10
-1.194351372
 20
-75.915105651
 30
0.0
 11
-1.540016424
 21
-75.854490824
 31
0.0
  0
LINE
  5
2D4
330
1D
100
AcDbEntity
  8
1
100
AcDbLine
 10
-1.540016424
 20
-75.854490824
 30
0.0
 11
-1.911763939
 21
-75.815288103
 31
0.0
  0
LINE
  5
2D5
330
1D
100
AcDbEntity
  8
1
100
AcDbLine
 10
-1.911763939
 20
-75.815288103
 30
0.0
 11
-2.35
 21
-75.799597405
 31
0.0
  0
LINE
  5
2D6
330
1D
100
AcDbEntity
  8
1
100
AcDbLine
 10
-2.35
 20
-75.799597405
 30
0.0
 11
-3.062170667
 21
-75.841643116
 31
0.0
  0
LINE
  5
2D7
330
1D
100
AcDbEntity
  8
1
100
AcDbLine
 10
-3.062170667
 20
-75.841643116
 30
0.0
 11
-3.119545323
 21
-75.848890571
 31
0.0
  0
LINE
  5
2D8
330
1D
100
AcDbEntity
  8
1
100
AcDbLine
 10
-3.119545323
 20
-75.848890571
 30
0.0
 11
-6.358799811
 21
-76.262909905
 31
0.0
  0
LINE
  5
2D9
330
1D
100
AcDbEntity
  8
1
100
AcDbLine
 10
-6.358799811
 20
-76.262909905
 30
0.0
 11
-9.619354277
 21
-76.65415343
 31
0.0
  0
LINE
  5
2DA
330
1D
100
AcDbEntity
  8
1
100
AcDbLine
 10
-9.619354277
 20
-76.65415343
 30
0.0
 11
-12.9
 21
-77.02247611
 31
0.0
  0
LINE
  5
2DB
330
1D
100
AcDbEntity
  8
1
100
AcDbLine
 10
-12.9
 20
-77.02247611
 30
0.0
 11
-14.453514231
 21
-76.748165489
 31
0.0
  0
LINE
  5
2DC
330
1D
100
AcDbEntity
  8
1
100
AcDbLine
 10
-14.453514231
 20
-76.748165489
 30
0.0
 11
-16.0
 21
-76.460921587
 31
0.0
  0
LINE
  5
2DD
330
1D
100
AcDbEntity
  8
1
100
AcDbLine
 10
-16.0
 20
-76.460921587
 30
0.0
 11
-16.0
 21
-15.224583037
 31
0.0
  0
LINE
  5
2DE
330
1D
100
AcDbEntity
  8
1
100
AcDbLine
 10
23.888228568
 20
-72.713487102
 30
0.0
 11
23.957291633
 21
-72.723768338
 31
0.0
  0
LINE
  5
2DF
330
1D
100
AcDbEntity
  8
1
100
AcDbLine
 10
23.957291633
 20
-72.723768338
 30
0.0
 11
24.362276007
 21
-72.825222816
 31
0.0
  0
LINE
  5
2E0
330
1D
100
AcDbEntity
  8
1
100
AcDbLine
 10
24.362276007
 20
-72.825222816
 30
0.0
 11
24.692417713
 21
-72.983472654
 31
0.0
  0
LINE
  5
2E1
330
1D
100
AcDbEntity
  8
1
100
AcDbLine
 10
24.692417713
 20
-72.983472654
 30
0.0
 11
24.922211246
 21
-73.196026626
 31
0.0
  0
LINE
  5
2E2
330
1D
100
AcDbEntity
  8
1
100
AcDbLine
 10
24.922211246
 20
-73.196026626
 30
0.0
 11
25.0
 21
-73.425343744
 31
0.0
  0
LINE
  5
2E3
330
1D
100
AcDbEntity
  8
1
100
AcDbLine
 10
25.0
 20
-76.517268989
 30
0.0
 11
25.0
 21
-15.224583037
 31
0.0
  0
LINE
  5
2E4
330
1D
100
AcDbEntity
  8
1
100
AcDbLine
 10
25.0
 20
-76.517268989
 30
0.0
 11
16.5
 21
-76.517268989
 31
0.0
  0
LINE
  5
2E5
330
1D
100
AcDbEntity
  8
1
100
AcDbLine
 10
16.5
 20
-76.517268989
 30
0.0
 11
16.021407256
 21
-76.542820529
 31
0.0
  0
LINE
  5
2E6
330
1D
100
AcDbEntity
  8
1
100
AcDbLine
 10
16.021407256
 20
-76.542820529
 30
0.0
 11
15.5969955
 21
-76.615174453
 31
0.0
  0
LINE
  5
2E7
330
1D
100
AcDbEntity
  8
1
100
AcDbLine
 10
15.5969955
 20
-76.615174453
 30
0.0
 11
15.262905164
 21
-76.726333229
 31
0.0
  0
LINE
  5
2E8
330
1D
100
AcDbEntity
  8
1
100
AcDbLine
 10
15.262905164
 20
-76.726333229
 30
0.0
 11
15.052922067
 21
-76.867317069
 31
0.0
  0
LINE
  5
2E9
330
1D
100
AcDbEntity
  8
1
100
AcDbLine
 10
15.052922067
 20
-76.867317069
 30
0.0
 11
15.0
 21
-76.987172268
 31
0.0
  0
LINE
  5
2EA
330
1D
100
AcDbEntity
  8
1
100
AcDbLine
 10
15.0
 20
-76.987172268
 30
0.0
 11
15.0
 21
-77.009624445
 31
0.0
  0
LINE
  5
2EB
330
1D
100
AcDbEntity
  8
1
100
AcDbLine
 10
14.95
 20
-77.009624445
 30
0.0
 11
15.0
 21
-77.009624445
 31
0.0
  0
LINE
  5
2EC
330
1D
100
AcDbEntity
  8
1
100
AcDbLine
 10
14.95
 20
-79.724583037
 30
0.0
 11
14.95
 21
-77.009624445
 31
0.0
  0
LINE
  5
2ED
330
1D
100
AcDbEntity
  8
1
100
AcDbLine
 10
-8.411205595
 20
-52.970494536
 30
0.0
 11
-8.542403469
 21
-53.014530598
 31
0.0
  0
LINE
  5
2F0
330
1D
100
AcDbEntity
  8
1
100
AcDbLine
 10
43.45
 20
-45.924583037
 30
0.0
 11
43.45
 21
-61.524583037
 31
0.0
  0
LINE
  5
2F1
330
1D
100
AcDbEntity
  8
1
100
AcDbLine
 10
43.45
 20
-17.924583037
 30
0.0
 11
43.45
 21
-33.524583037
 31
0.0
  0
LINE
  5
2F3
330
1D
100
AcDbEntity
  8
1
100
AcDbLine
 10
29.45
 20
-36.724583037
 30
0.0
 11
29.45
 21
-14.724583037
 31
0.0
  0
LINE
  5
2F5
330
1D
100
AcDbEntity
  8
1
100
AcDbLine
 10
31.45
 20
-36.724583037
 30
0.0
 11
31.45
 21
-14.724583037
 31
0.0
  0
LINE
  5
2F6
330
1D
100
AcDbEntity
  8
1
100
AcDbLine
 10
29.45
 20
-64.724583037
 30
0.0
 11
29.45
 21
-42.724583037
 31
0.0
  0
LINE
  5
2F7
330
1D
100
AcDbEntity
  8
1
100
AcDbLine
 10
31.45
 20
-64.724583037
 30
0.0
 11
31.45
 21
-42.724583037
 31
0.0
  0
LINE
  5
2F8
330
1D
100
AcDbEntity
  8
1
100
AcDbLine
 10
8.0
 20
-56.956633844
 30
0.0
 11
9.5
 21
-56.09060844
 31
0.0
  0
LINE
  5
2F9
330
1D
100
AcDbEntity
  8
1
100
AcDbLine
 10
9.5
 20
-54.358557633
 30
0.0
 11
9.5
 21
-56.09060844
 31
0.0
  0
LINE
  5
2FA
330
1D
100
AcDbEntity
  8
1
100
AcDbLine
 10
8.0
 20
-53.492532229
 30
0.0
 11
9.5
 21
-54.358557633
 31
0.0
  0
LINE
  5
2FB
330
1D
100
AcDbEntity
  8
1
100
AcDbLine
 10
8.0
 20
-53.492532229
 30
0.0
 11
6.5
 21
-54.358557633
 31
0.0
  0
LINE
  5
2FC
330
1D
100
AcDbEntity
  8
1
100
AcDbLine
 10
6.5
 20
-56.09060844
 30
0.0
 11
6.5
 21
-54.358557633
 31
0.0
  0
LINE
  5
2FD
330
1D
100
AcDbEntity
  8
1
100
AcDbLine
 10
6.5
 20
-56.09060844
 30
0.0
 11
8.0
 21
-56.956633844
 31
0.0
  0
LINE
  5
2FE
330
1D
100
AcDbEntity
  8
4
100
AcDbLine
 10
28.639746409
 20
0.0
 30
0.0
 11
-20.747650031
 21
0.0
 31
0.0
  0
LINE
  5
2FF
330
1D
100
AcDbEntity
  8
2
100
AcDbLine
 10
55.227709961
 20
79.724583037
 30
0.0
 11
14.95
 21
79.724583037
 31
0.0
  0
LINE
  5
300
330
1D
100
AcDbEntity
  8
2
100
AcDbLine
 10
53.227709961
 20
79.724583037
 30
0.0
 11
53.677710002
 21
76.224583042
 31
0.0
  0
LINE
  5
301
330
1D
100
AcDbEntity
  8
2
100
AcDbLine
 10
53.677710002
 20
76.224583042
 30
0.0
 11
52.777710002
 21
76.224583031
 31
0.0
  0
LINE
  5
302
330
1D
100
AcDbEntity
  8
2
100
AcDbLine
 10
52.777710002
 20
76.224583031
 30
0.0
 11
53.227709961
 21
79.724583037
 31
0.0
  0
LINE
  5
303
330
1D
100
AcDbEntity
  8
2
100
AcDbLine
 10
55.227710724
 20
15.224583037
 30
0.0
 11
25.0
 21
15.224583037
 31
0.0
  0
LINE
  5
304
330
1D
100
AcDbEntity
  8
2
100
AcDbLine
 10
53.227710724
 20
15.224583037
 30
0.0
 11
52.777710682
 21
18.724583031
 31
0.0
  0
LINE
  5
305
330
1D
100
AcDbEntity
  8
2
100
AcDbLine
 10
52.777710682
 20
18.724583031
 30
0.0
 11
53.677710682
 21
18.724583042
 31
0.0
  0
LINE
  5
306
330
1D
100
AcDbEntity
  8
2
100
AcDbLine
 10
53.677710682
 20
18.724583042
 30
0.0
 11
53.227710724
 21
15.224583037
 31
0.0
  0
LINE
  5
307
330
1D
100
AcDbEntity
  8
2
100
AcDbLine
 10
53.227710682
 20
18.724583037
 30
0.0
 11
53.227710002
 21
76.224583037
 31
0.0
  0
TEXT
  5
308
330
1D
100
AcDbEntity
  8
2
100
AcDbText
 10
51.727710379
 20
44.360676048
 30
0.0
 40
3.5
  1
64.5
 50
90.00000067799999
  7
BMG_Text
100
AcDbText
  0
LINE
  5
309
330
1D
100
AcDbEntity
  8
2
100
AcDbLine
 10
55.227709961
 20
-79.724583037
 30
0.0
 11
14.95
 21
-79.724583037
 31
0.0
  0
LINE
  5
30A
330
1D
100
AcDbEntity
  8
2
100
AcDbLine
 10
53.227709961
 20
-79.724583037
 30
0.0
 11
52.777710002
 21
-76.224583031
 31
0.0
  0
LINE
  5
30B
330
1D
100
AcDbEntity
  8
2
100
AcDbLine
 10
52.777710002
 20
-76.224583031
 30
0.0
 11
53.677710002
 21
-76.224583042
 31
0.0
  0
LINE
  5
30C
330
1D
100
AcDbEntity
  8
2
100
AcDbLine
 10
53.677710002
 20
-76.224583042
 30
0.0
 11
53.227709961
 21
-79.724583037
 31
0.0
  0
LINE
  5
30D
330
1D
100
AcDbEntity
  8
2
100
AcDbLine
 10
55.227710724
 20
-15.224583037
 30
0.0
 11
25.0
 21
-15.224583037
 31
0.0
  0
LINE
  5
30E
330
1D
100
AcDbEntity
  8
2
100
AcDbLine
 10
53.227710724
 20
-15.224583037
 30
0.0
 11
53.677710682
 21
-18.724583042
 31
0.0
  0
LINE
  5
30F
330
1D
100
AcDbEntity
  8
2
100
AcDbLine
 10
53.677710682
 20
-18.724583042
 30
0.0
 11
52.777710682
 21
-18.724583031
 31
0.0
  0
LINE
  5
310
330
1D
100
AcDbEntity
  8
2
100
AcDbLine
 10
52.777710682
 20
-18.724583031
 30
0.0
 11
53.227710724
 21
-15.224583037
 31
0.0
  0
LINE
  5
311
330
1D
100
AcDbEntity
  8
2
100
AcDbLine
 10
53.227710002
 20
-76.224583037
 30
0.0
 11
53.227710682
 21
-18.724583037
 31
0.0
  0
TEXT
  5
312
330
1D
100
AcDbEntity
  8
2
100
AcDbText
 10
51.727710306
 20
-50.58848999
 30
0.0
 40
3.5
  1
64.5
 50
89.99999932199998
  7
BMG_Text
100
AcDbText
  0
LINE
  5
313
330
1D
100
AcDbEntity
  8
3
100
AcDbLine
 10
15.0
 20
76.426769483
 30
0.0
 11
15.0
 21
15.224583037
 31
0.0
  0
LINE
  5
314
330
1D
100
AcDbEntity
  8
3
100
AcDbLine
 10
15.0
 20
-15.224583037
 30
0.0
 11
15.0
 21
-77.009624445
 31
0.0
  0
LINE
  5
315
330
1D
100
AcDbEntity
  8
3
100
AcDbLine
 10
0.0
 20
78.196580007
 30
0.0
 11
0.0
 21
15.224583037
 31
0.0
  0
LINE
  5
316
330
1D
100
AcDbEntity
  8
3
100
AcDbLine
 10
0.0
 20
-15.224583037
 30
0.0
 11
0.0
 21
-76.459142525
 31
0.0
  0
TEXT
  5
317
330
1D
100
AcDbEntity
  8
SK6
100
AcDbText
 10
32.84544678720638
 20
-89.55994854637628
 30
0.0
 40
3.5
  1
317.288
  7
BMG_Text
100
AcDbText
  0
LINE
  5
318
330
1D
100
AcDbEntity
  8
1
100
AcDbLine
 10
-16.0
 20
47.724583037
 30
0.0
 11
-14.0
 21
47.724583037
 31
0.0
  0
LINE
  5
319
330
1D
100
AcDbEntity
  8
1
100
AcDbLine
 10
-8.0
 20
65.224583037
 30
0.0
 11
-16.0
 21
65.224583037
 31
0.0
  0
LINE
  5
3B6
330
1D
100
AcDbEntity
  8
1
100
AcDbLine
 10
-14.0
 20
-70.105773328
 30
0.0
 11
0.0
 21
-70.105773328
 31
0.0
  0
LINE
  5
3BE
330
1D
100
AcDbEntity
  8
1
100
AcDbLine
 10
-14.0
 20
70.105773328
 30
0.0
 11
0.0000000000000018
 21
70.105773328
 31
0.0
  0
LINE
  5
3C0
330
1D
100
AcDbEntity
  8
1
100
AcDbLine
 10
0.0000000000000018
 20
70.105773328
 30
0.0
 11
6.5
 21
70.105773328
 31
0.0
  0
LINE
  5
3C1
330
1D
100
AcDbEntity
  8
1
100
AcDbLine
 10
0.0
 20
15.224583037
 30
0.0
 11
25.0
 21
15.224583037
 31
0.0
  0
LINE
  5
3C2
330
1D
100
AcDbEntity
  8
1
100
AcDbLine
 10
0.0
 20
-15.224583037
 30
0.0
 11
25.0
 21
-15.224583037
 31
0.0
  0
LINE
  5
3C3
330
1D
100
AcDbEntity
  8
1
100
AcDbLine
 10
0.0
 20
-70.105773328
 30
0.0
 11
6.5
 21
-70.105773328
 31
0.0
  0
LINE
  5
3C6
330
1D
100
AcDbEntity
  8
NOCUT
100
AcDbLine
 10
0.0
 20
15.224583037
 30
0.0
 11
0.0
 21
78.196580007
 31
0.0
  0
LINE
  5
3C7
330
1D
100
AcDbEntity
  8
NOCUT
100
AcDbLine
 10
0.0
 20
78.196580007
 30
0.0
 11
0.4
 21
78.196580007
 31
0.0
  0
LINE
  5
3C8
330
1D
100
AcDbEntity
  8
NOCUT
100
AcDbLine
 10
0.4
 20
78.196580007
 30
0.0
 11
0.4
 21
79.724583037
 31
0.0
  0
LINE
  5
3C9
330
1D
100
AcDbEntity
  8
NOCUT
100
AcDbLine
 10
0.4
 20
79.724583037
 30
0.0
 11
14.95
 21
79.724583037
 31
0.0
  0
LINE
  5
3CA
330
1D
100
AcDbEntity
  8
NOCUT
100
AcDbLine
 10
14.95
 20
79.724583037
 30
0.0
 11
14.95
 21
76.426769483
 31
0.0
  0
LINE
  5
3CB
330
1D
100
AcDbEntity
  8
NOCUT
100
AcDbLine
 10
14.95
 20
76.426769483
 30
0.0
 11
15.0
 21
76.426769483
 31
0.0
  0
LINE
  5
3CC
330
1D
100
AcDbEntity
  8
NOCUT
100
AcDbLine
 10
16.5
 20
75.882015017
 30
0.0
 11
25.0
 21
75.882015017
 31
0.0
  0
LINE
  5
3CD
330
1D
100
AcDbEntity
  8
NOCUT
100
AcDbLine
 10
25.0
 20
75.882015017
 30
0.0
 11
25.0
 21
59.724583037
 31
0.0
  0
LINE
  5
3CE
330
1D
100
AcDbEntity
  8
NOCUT
100
AcDbLine
 10
25.0
 20
59.724583037
 30
0.0
 11
29.45
 21
59.724583037
 31
0.0
  0
LINE
  5
3CF
330
1D
100
AcDbEntity
  8
NOCUT
100
AcDbLine
 10
29.45
 20
59.724583037
 30
0.0
 11
29.45
 21
64.724583037
 31
0.0
  0
LINE
  5
3D0
330
1D
100
AcDbEntity
  8
NOCUT
100
AcDbLine
 10
29.45
 20
64.724583037
 30
0.0
 11
31.45
 21
64.724583037
 31
0.0
  0
LINE
  5
3D1
330
1D
100
AcDbEntity
  8
NOCUT
100
AcDbLine
 10
31.45
 20
64.724583037
 30
0.0
 11
31.45
 21
62.724583037
 31
0.0
  0
LINE
  5
3D2
330
1D
100
AcDbEntity
  8
NOCUT
100
AcDbLine
 10
31.45
 20
62.724583037
 30
0.0
 11
42.25
 21
62.724583037
 31
0.0
  0
LINE
  5
3D3
330
1D
100
AcDbEntity
  8
NOCUT
100
AcDbLine
 10
43.45
 20
61.524583037
 30
0.0
 11
43.45
 21
17.924583037
 31
0.0
  0
LINE
  5
3D4
330
1D
100
AcDbEntity
  8
NOCUT
100
AcDbLine
 10
42.25
 20
16.724583037
 30
0.0
 11
31.45
 21
16.724583037
 31
0.0
  0
LINE
  5
3D5
330
1D
100
AcDbEntity
  8
NOCUT
100
AcDbLine
 10
31.45
 20
16.724583037
 30
0.0
 11
31.45
 21
14.724583037
 31
0.0
  0
LINE
  5
3D6
330
1D
100
AcDbEntity
  8
NOCUT
100
AcDbLine
 10
31.45
 20
14.724583037
 30
0.0
 11
29.45
 21
14.724583037
 31
0.0
  0
LINE
  5
3D7
330
1D
100
AcDbEntity
  8
NOCUT
100
AcDbLine
 10
29.45
 20
14.724583037
 30
0.0
 11
29.45
 21
19.724583037
 31
0.0
  0
LINE
  5
3D8
330
1D
100
AcDbEntity
  8
NOCUT
100
AcDbLine
 10
29.45
 20
19.724583037
 30
0.0
 11
25.0
 21
19.724583037
 31
0.0
  0
LINE
  5
3D9
330
1D
100
AcDbEntity
  8
NOCUT
100
AcDbLine
 10
25.0
 20
19.724583037
 30
0.0
 11
25.0
 21
15.224583037
 31
0.0
  0
LINE
  5
3DA
330
1D
100
AcDbEntity
  8
NOCUT
100
AcDbLine
 10
25.0
 20
15.224583037
 30
0.0
 11
0.0
 21
15.224583037
 31
0.0
  0
LINE
  5
3DB
330
1D
100
AcDbEntity
  8
NOCUT
100
AcDbLine
 10
0.0
 20
-15.224583037
 30
0.0
 11
0.0
 21
-78.196580007
 31
0.0
  0
LINE
  5
3DC
330
1D
100
AcDbEntity
  8
NOCUT
100
AcDbLine
 10
0.0
 20
-78.196580007
 30
0.0
 11
0.4
 21
-78.196580007
 31
0.0
  0
LINE
  5
3DD
330
1D
100
AcDbEntity
  8
NOCUT
100
AcDbLine
 10
0.4
 20
-78.196580007
 30
0.0
 11
0.4
 21
-79.724583037
 31
0.0
  0
LINE
  5
3DE
330
1D
100
AcDbEntity
  8
NOCUT
100
AcDbLine
 10
0.4
 20
-79.724583037
 30
0.0
 11
14.95
 21
-79.724583037
 31
0.0
  0
LINE
  5
3DF
330
1D
100
AcDbEntity
  8
NOCUT
100
AcDbLine
 10
14.95
 20
-79.724583037
 30
0.0
 11
14.95
 21
-77.009624445
 31
0.0
  0
LINE
  5
3E0
330
1D
100
AcDbEntity
  8
NOCUT
100
AcDbLine
 10
14.95
 20
-77.009624445
 30
0.0
 11
15.0
 21
-77.009624445
 31
0.0
  0
LINE
  5
3E1
330
1D
100
AcDbEntity
  8
NOCUT
100
AcDbLine
 10
16.5
 20
-76.517268989
 30
0.0
 11
25.0
 21
-76.517268989
 31
0.0
  0
LINE
  5
3E2
330
1D
100
AcDbEntity
  8
NOCUT
100
AcDbLine
 10
25.0
 20
-76.517268989
 30
0.0
 11
25.0
 21
-59.724583037
 31
0.0
  0
LINE
  5
3E3
330
1D
100
AcDbEntity
  8
NOCUT
100
AcDbLine
 10
25.0
 20
-59.724583037
 30
0.0
 11
29.45
 21
-59.724583037
 31
0.0
  0
LINE
  5
3E4
330
1D
100
AcDbEntity
  8
NOCUT
100
AcDbLine
 10
29.45
 20
-59.724583037
 30
0.0
 11
29.45
 21
-64.724583037
 31
0.0
  0
LINE
  5
3E5
330
1D
100
AcDbEntity
  8
NOCUT
100
AcDbLine
 10
29.45
 20
-64.724583037
 30
0.0
 11
31.45
 21
-64.724583037
 31
0.0
  0
LINE
  5
3E6
330
1D
100
AcDbEntity
  8
NOCUT
100
AcDbLine
 10
31.45
 20
-64.724583037
 30
0.0
 11
31.45
 21
-62.724583037
 31
0.0
  0
LINE
  5
3E7
330
1D
100
AcDbEntity
  8
NOCUT
100
AcDbLine
 10
31.45
 20
-62.724583037
 30
0.0
 11
42.25
 21
-62.724583037
 31
0.0
  0
LINE
  5
3E8
330
1D
100
AcDbEntity
  8
NOCUT
100
AcDbLine
 10
43.45
 20
-61.524583037
 30
0.0
 11
43.45
 21
-17.924583037
 31
0.0
  0
LINE
  5
3E9
330
1D
100
AcDbEntity
  8
NOCUT
100
AcDbLine
 10
42.25
 20
-16.724583037
 30
0.0
 11
31.45
 21
-16.724583037
 31
0.0
  0
LINE
  5
3EA
330
1D
100
AcDbEntity
  8
NOCUT
100
AcDbLine
 10
31.45
 20
-16.724583037
 30
0.0
 11
31.45
 21
-14.724583037
 31
0.0
  0
LINE
  5
3EB
330
1D
100
AcDbEntity
  8
NOCUT
100
AcDbLine
 10
31.45
 20
-14.724583037
 30
0.0
 11
29.45
 21
-14.724583037
 31
0.0
  0
LINE
  5
3EC
330
1D
100
AcDbEntity
  8
NOCUT
100
AcDbLine
 10
29.45
 20
-14.724583037
 30
0.0
 11
29.45
 21
-19.724583037
 31
0.0
  0
LINE
  5
3ED
330
1D
100
AcDbEntity
  8
NOCUT
100
AcDbLine
 10
29.45
 20
-19.724583037
 30
0.0
 11
25.0
 21
-19.724583037
 31
0.0
  0
LINE
  5
3EE
330
1D
100
AcDbEntity
  8
NOCUT
100
AcDbLine
 10
25.0
 20
-19.724583037
 30
0.0
 11
25.0
 21
-15.224583037
 31
0.0
  0
LINE
  5
3EF
330
1D
100
AcDbEntity
  8
NOCUT
100
AcDbLine
 10
25.0
 20
-15.224583037
 30
0.0
 11
0.0
 21
-15.224583037
 31
0.0
  0
ARC
  5
3F0
330
1D
100
AcDbEntity
  8
NOCUT
100
AcDbCircle
 10
42.24999999999999
 20
61.52458303699999
 30
0.0
 40
1.200000000000015
100
AcDbArc
 50
0.0000000000006785
 51
89.99999999999933
  0
ARC
  5
3F1
330
1D
100
AcDbEntity
  8
NOCUT
100
AcDbCircle
 10
42.24999999999999
 20
17.92458303700001
 30
0.0
 40
1.200000000000009
100
AcDbArc
 50
270.0000000000003
 51
359.9999999999997
  0
ARC
  5
3F2
330
1D
100
AcDbEntity
  8
NOCUT
100
AcDbCircle
 10
42.24999999999999
 20
-17.92458303700001
 30
0.0
 40
1.200000000000009
100
AcDbArc
 50
0.0000000000005089
 51
89.99999999999967
  0
ARC
  5
3F3
330
1D
100
AcDbEntity
  8
NOCUT
100
AcDbCircle
 10
42.24999999999999
 20
-61.52458303699999
 30
0.0
 40
1.200000000000015
100
AcDbArc
 50
270.0000000000007
 51
359.9999999999993
  0
LWPOLYLINE
  5
404
330
1D
100
AcDbEntity
  8
INFTOTAL
100
AcDbPolyline
 90
        4
 70
     1
 43
0.0
 10
-31.88926114169638
 20
92.85482225889925
 10
-31.88926114169638
 20
-96.55545227724909
 10
69.29926784807535
 20
-96.55545227724909
 10
69.29926784807535
 20
92.85482225889925
  0
CIRCLE
  5
415
330
1D
100
AcDbEntity
  8
1
100
AcDbCircle
 10
8.0
 20
-55.224583037
 30
0.0
 40
3.25
  0
LINE
  5
439
330
1D
100
AcDbEntity
  8
NOCUT
100
AcDbLine
 10
15.0
 20
76.40185157
 30
0.0
 11
15.004339273
 21
76.363777567
 31
0.0
  0
LINE
  5
43A
330
1D
100
AcDbEntity
  8
NOCUT
100
AcDbLine
 10
15.004339273
 20
76.363777567
 30
0.0
 11
15.13675631
 21
76.189985065
 31
0.0
  0
LINE
  5
43B
330
1D
100
AcDbEntity
  8
NOCUT
100
AcDbLine
 10
15.13675631
 20
76.189985065
 30
0.0
 11
15.443420375
 21
76.037103261
 31
0.0
  0
LINE
  5
43C
330
1D
100
AcDbEntity
  8
NOCUT
100
AcDbLine
 10
15.443420375
 20
76.037103261
 30
0.0
 11
15.876393945
 21
75.930765824
 31
0.0
  0
LINE
  5
43D
330
1D
100
AcDbEntity
  8
NOCUT
100
AcDbLine
 10
15.876393945
 20
75.930765824
 30
0.0
 11
16.363469224
 21
75.884258159
 31
0.0
  0
LINE
  5
43E
330
1D
100
AcDbEntity
  8
NOCUT
100
AcDbLine
 10
16.363469224
 20
75.884258159
 30
0.0
 11
16.5
 21
75.882015017
 31
0.0
  0
ENDSEC
  0
SECTION
  2
OBJECTS
  0
DICTIONARY
  5
C
330
0
100
AcDbDictionary
281
     1
  3
ACAD_DETAILVIEWSTYLE
350
3BB
  3
ACAD_GROUP
350
D
  3
ACAD_LAYOUT
350
1A
  3
ACAD_MATERIAL
350
358
  3
ACAD_MLEADERSTYLE
350
366
  3
ACAD_MLINESTYLE
350
17
  3
ACAD_PLOTSETTINGS
350
19
  3
ACAD_PLOTSTYLENAME
350
E
  3
ACAD_SCALELIST
350
321
  3
ACAD_SECTIONVIEWSTYLE
350
3BC
  3
ACAD_TABLESTYLE
350
3AF
  3
ACAD_VISUALSTYLE
350
347
  3
ACDB_RECOMPOSE_DATA
350
443
  3
AcDbVariableDictionary
350
364
  3
APPDATA
350
3B2
  0
SUN
  5
414
330
31A
100
AcDbSun
 90
        1
290
     0
 63
     7
421
 16777215
 40
1.0
291
     1
 91
  2455826
 92
 54000000
292
     0
 70
     2
 71
   256
280
     1
  0
DICTIONARY
  5
3B3
330
2
100
AcDbDictionary
280
     1
281
     1
  3
ACAD_LAYERSTATES
360
3B4
  0
DICTIONARY
  5
3BB
102
{ACAD_REACTORS
330
C
102
}
330
C
100
AcDbDictionary
281
     1
  0
DICTIONARY
  5
D
102
{ACAD_REACTORS
330
C
102
}
330
C
100
AcDbDictionary
281
     1
  0
DICTIONARY
  5
1A
102
{ACAD_REACTORS
330
C
102
}
330
C
100
AcDbDictionary
281
     1
  3
Layout1
350
1C
  3
Model
350
1E
  0
DICTIONARY
  5
358
102
{ACAD_REACTORS
330
C
102
}
330
C
100
AcDbDictionary
281
     1
  3
ByBlock
350
35A
  3
ByLayer
350
359
  3
Global
350
35B
  0
DICTIONARY
  5
366
102
{ACAD_REACTORS
330
C
102
}
330
C
100
AcDbDictionary
281
     1
  3
Standard
350
3B1
  0
DICTIONARY
  5
17
102
{ACAD_REACTORS
330
C
102
}
330
C
100
AcDbDictionary
281
     1
  3
Standard
350
18
  0
DICTIONARY
  5
19
102
{ACAD_REACTORS
330
C
102
}
330
C
100
AcDbDictionary
281
     1
  0
ACDBDICTIONARYWDFLT
  5
E
102
{ACAD_REACTORS
330
C
102
}
330
C
100
AcDbDictionary
281
     1
  3
Normal
350
F
100
AcDbDictionaryWithDefault
340
F
  0
DICTIONARY
  5
321
102
{ACAD_REACTORS
330
C
102
}
330
C
100
AcDbDictionary
281
     1
  3
A0
350
322
  3
A1
350
323
  3
A2
350
324
  3
A3
350
325
  3
A4
350
326
  3
A5
350
327
  3
A6
350
328
  3
A7
350
329
  3
A8
350
32A
  3
A9
350
32B
  3
B0
350
32C
  3
B1
350
32D
  3
B2
350
32E
  3
B3
350
32F
  3
B4
350
330
  3
B5
350
331
  3
B6
350
332
  3
B7
350
333
  3
B8
350
334
  3
B9
350
335
  3
C0
350
336
  3
C1
350
337
  3
C2
350
338
  3
C3
350
339
  3
C4
350
33A
  3
C5
350
33B
  3
C6
350
33C
  3
C7
350
33D
  3
C8
350
33E
  3
C9
350
33F
  3
D0
350
340
  3
D1
350
341
  3
D2
350
342
  0
DICTIONARY
  5
3BC
102
{ACAD_REACTORS
330
C
102
}
330
C
100
AcDbDictionary
281
     1
  0
DICTIONARY
  5
3AF
102
{ACAD_REACTORS
330
C
102
}
330
C
100
AcDbDictionary
281
     1
  3
Standard
350
3B0
  0
DICTIONARY
  5
347
102
{ACAD_REACTORS
330
C
102
}
330
C
100
AcDbDictionary
281
     1
  3
2dWireframe
350
34C
  3
3D Hidden
350
34E
  3
3dWireframe
350
34D
  3
Basic
350
34F
  3
Brighten
350
353
  3
ColorChange
350
357
  3
Conceptual
350
351
  3
Dim
350
352
  3
EdgeColorOff
350
3A9
  3
Facepattern
350
356
  3
Flat
350
348
  3
FlatWithEdges
350
349
  3
Gouraud
350
34A
  3
GouraudWithEdges
350
34B
  3
Hidden
350
3A6
  3
JitterOff
350
3A7
  3
Linepattern
350
355
  3
OverhangOff
350
3A8
  3
Realistic
350
350
  3
Shaded
350
3AE
  3
Shaded with edges
350
3AD
  3
Shades of Gray
350
3AA
  3
Sketchy
350
3AB
  3
Thicken
350
354
  3
Wireframe
350
3A5
  3
X-Ray
350
3AC
  0
XRECORD
  5
443
102
{ACAD_REACTORS
330
C
102
}
330
C
100
AcDbXrecord
280
     1
 90
        1
330
3B0
  0
DICTIONARY
  5
364
102
{ACAD_REACTORS
330
C
102
}
330
C
100
AcDbDictionary
281
     1
  3
CANNOSCALE
350
3B8
  3
CMLEADERSTYLE
350
3BA
  3
CTABLESTYLE
350
3B9
  3
DIMASSOC
350
368
  3
HIDETEXT
350
369
  3
MSLTSCALE
350
367
  0
DICTIONARY
  5
3B2
102
{ACAD_REACTORS
330
C
102
}
330
C
100
AcDbDictionary
281
     1
  0
DICTIONARY
  5
3B4
102
{ACAD_REACTORS
330
3B3
102
}
330
3B3
100
AcDbDictionary
281
     1
  0
LAYOUT
  5
1C
102
{ACAD_REACTORS
330
1A
102
}
330
1A
100
AcDbPlotSettings
  1

  2
none_device
  4

  6

 40
0.0
 41
0.0
 42
0.0
 43
0.0
 44
0.0
 45
0.0
 46
0.0
 47
0.0
 48
0.0
 49
0.0
140
0.0
141
0.0
142
1.0
143
1.0
 70
   688
 72
     0
 73
     0
 74
     5
  7

 75
    16
 76
     0
 77
     2
 78
   300
147
1.0
148
0.0
149
0.0
100
AcDbLayout
  1
Layout1
 70
     1
 71
     1
 10
0.0
 20
0.0
 11
12.0
 21
9.0
 12
0.0
 22
0.0
 32
0.0
 14
1.000000000000000E+20
 24
1.000000000000000E+20
 34
1.000000000000000E+20
 15
-1.000000000000000E+20
 25
-1.000000000000000E+20
 35
-1.000000000000000E+20
146
0.0
 13
0.0
 23
0.0
 33
0.0
 16
1.0
 26
0.0
 36
0.0
 17
0.0
 27
1.0
 37
0.0
 76
     0
330
1B
  0
LAYOUT
  5
1E
102
{ACAD_REACTORS
330
1A
102
}
330
1A
100
AcDbPlotSettings
  1

  2
none_device
  4

  6

 40
0.0
 41
0.0
 42
0.0
 43
0.0
 44
0.0
 45
0.0
 46
0.0
 47
0.0
 48
0.0
 49
0.0
140
0.0
141
0.0
142
1.0
143
1.0
 70
  1712
 72
     0
 73
     0
 74
     0
  7

 75
     0
 76
     0
 77
     2
 78
   300
147
1.0
148
0.0
149
0.0
100
AcDbLayout
  1
Model
 70
     1
 71
     0
 10
0.0
 20
0.0
 11
12.0
 21
9.0
 12
0.0
 22
0.0
 32
0.0
 14
-31.88926114169638
 24
-96.55545227724909
 34
0.0
 15
69.29926784807535
 25
92.85482225889925
 35
0.0
146
0.0
 13
0.0
 23
0.0
 33
0.0
 16
1.0
 26
0.0
 36
0.0
 17
0.0
 27
1.0
 37
0.0
 76
     0
330
1D
331
31A
  0
MATERIAL
  5
35A
102
{ACAD_REACTORS
330
358
102
}
330
358
100
AcDbMaterial
  1
ByBlock
 72
     1
 94
      127
  0
MATERIAL
  5
359
102
{ACAD_REACTORS
330
358
102
}
330
358
100
AcDbMaterial
  1
ByLayer
 72
     1
 94
      127
  0
MATERIAL
  5
35B
102
{ACAD_REACTORS
330
358
102
}
330
358
100
AcDbMaterial
  1
Global
 72
     1
 94
      127
  0
MLEADERSTYLE
  5
3B1
102
{ACAD_REACTORS
330
366
102
}
330
366
100
AcDbMLeaderStyle
179
     2
170
     2
171
     1
172
     0
 90
        2
 40
0.0
 41
0.0
173
     1
 91
-1056964608
340
14
 92
       -2
290
     1
 42
0.09
291
     1
 43
0.36
  3
Standard
341
0
 44
0.18
300

342
11
174
     1
178
     1
175
     1
176
     0
 93
-1056964608
 45
0.18
292
     0
297
     0
 46
0.18
343
0
 94
-1056964608
 47
1.0
 49
1.0
140
1.0
293
     1
141
0.0
294
     1
177
     0
142
1.0
295
     0
296
     0
143
0.125
271
     0
272
     9
273
     9
298
     0
  0
MLINESTYLE
  5
18
102
{ACAD_REACTORS
330
17
102
}
330
17
100
AcDbMlineStyle
  2
Standard
 70
     0
  3

 62
   256
 51
90.0
 52
90.0
 71
     2
 49
0.5
 62
   256
  6
BYLAYER
 49
-0.5
 62
   256
  6
BYLAYER
  0
ACDBPLACEHOLDER
  5
F
102
{ACAD_REACTORS
330
E
102
}
330
E
  0
SCALE
  5
322
102
{ACAD_REACTORS
330
321
102
}
330
321
100
AcDbScale
 70
     0
300
1:1
140
1.0
141
1.0
290
     1
  0
SCALE
  5
323
102
{ACAD_REACTORS
330
321
102
}
330
321
100
AcDbScale
 70
     0
300
1:2
140
1.0
141
2.0
290
     0
  0
SCALE
  5
324
102
{ACAD_REACTORS
330
321
102
}
330
321
100
AcDbScale
 70
     0
300
1:4
140
1.0
141
4.0
290
     0
  0
SCALE
  5
325
102
{ACAD_REACTORS
330
321
102
}
330
321
100
AcDbScale
 70
     0
300
1:5
140
1.0
141
5.0
290
     0
  0
SCALE
  5
326
102
{ACAD_REACTORS
330
321
102
}
330
321
100
AcDbScale
 70
     0
300
1:8
140
1.0
141
8.0
290
     0
  0
SCALE
  5
327
102
{ACAD_REACTORS
330
321
102
}
330
321
100
AcDbScale
 70
     0
300
1:10
140
1.0
141
10.0
290
     0
  0
SCALE
  5
328
102
{ACAD_REACTORS
330
321
102
}
330
321
100
AcDbScale
 70
     0
300
1:16
140
1.0
141
16.0
290
     0
  0
SCALE
  5
329
102
{ACAD_REACTORS
330
321
102
}
330
321
100
AcDbScale
 70
     0
300
1:20
140
1.0
141
20.0
290
     0
  0
SCALE
  5
32A
102
{ACAD_REACTORS
330
321
102
}
330
321
100
AcDbScale
 70
     0
300
1:30
140
1.0
141
30.0
290
     0
  0
SCALE
  5
32B
102
{ACAD_REACTORS
330
321
102
}
330
321
100
AcDbScale
 70
     0
300
1:40
140
1.0
141
40.0
290
     0
  0
SCALE
  5
32C
102
{ACAD_REACTORS
330
321
102
}
330
321
100
AcDbScale
 70
     0
300
1:50
140
1.0
141
50.0
290
     0
  0
SCALE
  5
32D
102
{ACAD_REACTORS
330
321
102
}
330
321
100
AcDbScale
 70
     0
300
1:100
140
1.0
141
100.0
290
     0
  0
SCALE
  5
32E
102
{ACAD_REACTORS
330
321
102
}
330
321
100
AcDbScale
 70
     0
300
2:1
140
2.0
141
1.0
290
     0
  0
SCALE
  5
32F
102
{ACAD_REACTORS
330
321
102
}
330
321
100
AcDbScale
 70
     0
300
4:1
140
4.0
141
1.0
290
     0
  0
SCALE
  5
330
102
{ACAD_REACTORS
330
321
102
}
330
321
100
AcDbScale
 70
     0
300
8:1
140
8.0
141
1.0
290
     0
  0
SCALE
  5
331
102
{ACAD_REACTORS
330
321
102
}
330
321
100
AcDbScale
 70
     0
300
10:1
140
10.0
141
1.0
290
     0
  0
SCALE
  5
332
102
{ACAD_REACTORS
330
321
102
}
330
321
100
AcDbScale
 70
     0
300
100:1
140
100.0
141
1.0
290
     0
  0
SCALE
  5
333
102
{ACAD_REACTORS
330
321
102
}
330
321
100
AcDbScale
 70
     0
300
1/128" = 1'-0"
140
0.0078125
141
12.0
290
     0
  0
SCALE
  5
334
102
{ACAD_REACTORS
330
321
102
}
330
321
100
AcDbScale
 70
     0
300
1/64" = 1'-0"
140
0.015625
141
12.0
290
     0
  0
SCALE
  5
335
102
{ACAD_REACTORS
330
321
102
}
330
321
100
AcDbScale
 70
     0
300
1/32" = 1'-0"
140
0.03125
141
12.0
290
     0
  0
SCALE
  5
336
102
{ACAD_REACTORS
330
321
102
}
330
321
100
AcDbScale
 70
     0
300
1/16" = 1'-0"
140
0.0625
141
12.0
290
     0
  0
SCALE
  5
337
102
{ACAD_REACTORS
330
321
102
}
330
321
100
AcDbScale
 70
     0
300
3/32" = 1'-0"
140
0.09375
141
12.0
290
     0
  0
SCALE
  5
338
102
{ACAD_REACTORS
330
321
102
}
330
321
100
AcDbScale
 70
     0
300
1/8" = 1'-0"
140
0.125
141
12.0
290
     0
  0
SCALE
  5
339
102
{ACAD_REACTORS
330
321
102
}
330
321
100
AcDbScale
 70
     0
300
3/16" = 1'-0"
140
0.1875
141
12.0
290
     0
  0
SCALE
  5
33A
102
{ACAD_REACTORS
330
321
102
}
330
321
100
AcDbScale
 70
     0
300
1/4" = 1'-0"
140
0.25
141
12.0
290
     0
  0
SCALE
  5
33B
102
{ACAD_REACTORS
330
321
102
}
330
321
100
AcDbScale
 70
     0
300
3/8" = 1'-0"
140
0.375
141
12.0
290
     0
  0
SCALE
  5
33C
102
{ACAD_REACTORS
330
321
102
}
330
321
100
AcDbScale
 70
     0
300
1/2" = 1'-0"
140
0.5
141
12.0
290
     0
  0
SCALE
  5
33D
102
{ACAD_REACTORS
330
321
102
}
330
321
100
AcDbScale
 70
     0
300
3/4" = 1'-0"
140
0.75
141
12.0
290
     0
  0
SCALE
  5
33E
102
{ACAD_REACTORS
330
321
102
}
330
321
100
AcDbScale
 70
     0
300
1" = 1'-0"
140
1.0
141
12.0
290
     0
  0
SCALE
  5
33F
102
{ACAD_REACTORS
330
321
102
}
330
321
100
AcDbScale
 70
     0
300
1-1/2" = 1'-0"
140
1.5
141
12.0
290
     0
  0
SCALE
  5
340
102
{ACAD_REACTORS
330
321
102
}
330
321
100
AcDbScale
 70
     0
300
3" = 1'-0"
140
3.0
141
12.0
290
     0
  0
SCALE
  5
341
102
{ACAD_REACTORS
330
321
102
}
330
321
100
AcDbScale
 70
     0
300
6" = 1'-0"
140
6.0
141
12.0
290
     0
  0
SCALE
  5
342
102
{ACAD_REACTORS
330
321
102
}
330
321
100
AcDbScale
 70
     0
300
1'-0" = 1'-0"
140
12.0
141
12.0
290
     0
  0
TABLESTYLE
  5
3B0
102
{ACAD_REACTORS
330
3AF
102
}
102
{ACAD_XDICTIONARY
360
441
102
}
330
3AF
100
AcDbTableStyle
  3
Standard
 70
     0
 71
     0
 40
0.06
 41
0.06
280
     0
281
     0
  7
Standard
140
0.18
170
     2
 62
     0
 63
   257
283
     0
 90
        4
 91
        0
  1

274
    -2
284
     1
 64
     0
275
    -2
285
     1
 65
     0
276
    -2
286
     1
 66
     0
277
    -2
287
     1
 67
     0
278
    -2
288
     1
 68
     0
279
    -2
289
     1
 69
     0
  7
Standard
140
0.25
170
     5
 62
     0
 63
   257
283
     0
 90
        4
 91
        0
  1

274
    -2
284
     1
 64
     0
275
    -2
285
     1
 65
     0
276
    -2
286
     1
 66
     0
277
    -2
287
     1
 67
     0
278
    -2
288
     1
 68
     0
279
    -2
289
     1
 69
     0
  7
Standard
140
0.18
170
     5
 62
     0
 63
   257
283
     0
 90
        4
 91
        0
  1

274
    -2
284
     1
 64
     0
275
    -2
285
     1
 65
     0
276
    -2
286
     1
 66
     0
277
    -2
287
     1
 67
     0
278
    -2
288
     1
 68
     0
279
    -2
289
     1
 69
     0
  0
VISUALSTYLE
  5
34C
102
{ACAD_REACTORS
330
347
102
}
330
347
100
AcDbVisualStyle
  2
2dWireframe
 70
     4
177
     3
291
     0
 70
    58
 90
        0
176
     1
 90
        2
176
     1
 90
        0
176
     1
 90
        0
176
     1
 40
-0.6
176
     1
 40
-30.0
176
     1
 62
     7
176
     1
 90
        1
176
     1
 90
        4
176
     1
 62
     7
176
     1
 62
   257
176
     1
 90
        1
176
     1
 90
        1
176
     1
 40
1.0
176
     1
 90
        0
176
     1
 62
   257
176
     1
 40
1.0
176
     1
 90
        1
176
     1
 90
        6
176
     1
 90
        2
176
     1
 62
     7
176
     1
 90
        5
176
     1
 90
        0
176
     1
 90
        0
176
     1
290
     0
176
     1
 90
        1
176
     1
 40
0.0
176
     1
 90
        0
176
     1
290
     1
176
     1
290
     1
176
     1
290
     0
176
     1
290
     0
176
     1
290
     0
176
     1
290
     0
176
     1
290
     0
176
     1
290
     0
176
     1
290
     0
176
     1
 90
       50
176
     1
 40
0.0
176
     1
 40
1.0
176
     1
 90
        0
176
     1
 62
    18
420
        0
176
     1
 90
       50
176
     1
 90
        3
176
     1
 62
     5
420
      255
176
     1
290
     0
176
     1
 90
       50
176
     1
 90
       50
176
     1
 90
       50
176
     1
290
     0
176
     1
 90
       50
176
     1
 62
   256
176
     0
 40
1.0
176
     0
 90
        2
176
     1
  1
strokes_ogs.tif
176
     1
290
     0
176
     1
 40
1.0
176
     1
 40
1.0
176
     1
  0
VISUALSTYLE
  5
34E
102
{ACAD_REACTORS
330
347
102
}
330
347
100
AcDbVisualStyle
  2
3D Hidden
 70
     6
177
     3
291
     0
 70
    58
 90
        1
176
     1
 90
        2
176
     1
 90
        2
176
     1
 90
        0
176
     1
 40
-0.6
176
     1
 40
-30.0
176
     1
 62
     7
176
     1
 90
        2
176
     1
 90
        2
176
     1
 62
     7
176
     1
 62
   257
176
     1
 90
        2
176
     1
 90
        1
176
     1
 40
40.0
176
     1
 90
        0
176
     1
 62
   257
176
     1
 40
1.0
176
     1
 90
        1
176
     1
 90
        6
176
     1
 90
        2
176
     1
 62
     7
176
     1
 90
        3
176
     1
 90
        0
176
     1
 90
        0
176
     1
290
     0
176
     1
 90
        1
176
     1
 40
0.0
176
     1
 90
        0
176
     1
290
     0
176
     1
290
     1
176
     1
290
     1
176
     1
290
     0
176
     1
290
     0
176
     1
290
     0
176
     1
290
     0
176
     1
290
     0
176
     1
290
     0
176
     1
 90
       50
176
     1
 40
0.0
176
     1
 40
1.0
176
     1
 90
        0
176
     1
 62
    18
420
        0
176
     1
 90
       50
176
     1
 90
        3
176
     1
 62
     5
420
      255
176
     1
290
     0
176
     1
 90
       50
176
     1
 90
       50
176
     1
 90
       50
176
     1
290
     0
176
     1
 90
       50
176
     1
 62
   256
176
     0
 40
1.0
176
     0
 90
        2
176
     1
  1
strokes_ogs.tif
176
     1
290
     0
176
     1
 40
1.0
176
     1
 40
1.0
176
     1
  0
VISUALSTYLE
  5
34D
102
{ACAD_REACTORS
330
347
102
}
330
347
100
AcDbVisualStyle
  2
3dWireframe
 70
     5
177
     3
291
     0
 70
    58
 90
        0
176
     1
 90
        2
176
     1
 90
        0
176
     1
 90
        0
176
     1
 40
-0.6
176
     1
 40
-30.0
176
     1
 62
     7
176
     1
 90
        1
176
     1
 90
        4
176
     1
 62
     7
176
     1
 62
   257
176
     1
 90
        1
176
     1
 90
        1
176
     1
 40
1.0
176
     1
 90
        0
176
     1
 62
   257
176
     1
 40
1.0
176
     1
 90
        1
176
     1
 90
        6
176
     1
 90
        2
176
     1
 62
     7
176
     1
 90
        5
176
     1
 90
        0
176
     1
 90
        0
176
     1
290
     0
176
     1
 90
        1
176
     1
 40
0.0
176
     1
 90
        0
176
     1
290
     0
176
     1
290
     1
176
     1
290
     1
176
     1
290
     0
176
     1
290
     0
176
     1
290
     0
176
     1
290
     0
176
     1
290
     0
176
     1
290
     0
176
     1
 90
       50
176
     1
 40
0.0
176
     1
 40
1.0
176
     1
 90
        0
176
     1
 62
    18
420
        0
176
     1
 90
       50
176
     1
 90
        3
176
     1
 62
     5
420
      255
176
     1
290
     0
176
     1
 90
       50
176
     1
 90
       50
176
     1
 90
       50
176
     1
290
     0
176
     1
 90
       50
176
     1
 62
   256
176
     0
 40
1.0
176
     0
 90
        2
176
     1
  1
strokes_ogs.tif
176
     1
290
     0
176
     1
 40
1.0
176
     1
 40
1.0
176
     1
  0
VISUALSTYLE
  5
34F
102
{ACAD_REACTORS
330
347
102
}
330
347
100
AcDbVisualStyle
  2
Basic
 70
     7
177
     3
291
     1
 70
    58
 90
        1
176
     1
 90
        0
176
     1
 90
        1
176
     1
 90
        0
176
     1
 40
-0.6
176
     1
 40
-30.0
176
     1
 62
     7
176
     1
 90
        0
176
     1
 90
        4
176
     1
 62
     7
176
     1
 62
   257
176
     1
 90
        1
176
     1
 90
        1
176
     1
 40
1.0
176
     1
 90
        8
176
     1
 62
     7
176
     1
 40
1.0
176
     1
 90
        1
176
     1
 90
        6
176
     1
 90
        2
176
     1
 62
     7
176
     1
 90
        5
176
     1
 90
        0
176
     1
 90
        0
176
     1
290
     0
176
     1
 90
        1
176
     1
 40
0.0
176
     1
 90
        0
176
     1
290
     0
176
     1
290
     1
176
     1
290
     1
176
     1
290
     0
176
     1
290
     0
176
     1
290
     0
176
     1
290
     0
176
     1
290
     0
176
     1
290
     0
176
     1
 90
       50
176
     1
 40
0.0
176
     1
 40
1.0
176
     1
 90
        0
176
     1
 62
    18
420
        0
176
     1
 90
       50
176
     1
 90
        3
176
     1
 62
     5
420
      255
176
     1
290
     0
176
     1
 90
       50
176
     1
 90
       50
176
     1
 90
       50
176
     1
290
     0
176
     1
 90
       50
176
     1
 62
   256
176
     0
 40
1.0
176
     0
 90
        2
176
     1
  1
strokes_ogs.tif
176
     1
290
     0
176
     1
 40
1.0
176
     1
 40
1.0
176
     1
  0
VISUALSTYLE
  5
353
102
{ACAD_REACTORS
330
347
102
}
330
347
100
AcDbVisualStyle
  2
Brighten
 70
    12
177
     3
291
     1
 70
    58
 90
        2
176
     1
 90
        2
176
     1
 90
        0
176
     1
 90
        0
176
     1
 40
-0.6
176
     1
 40
-30.0
176
     1
 62
     7
176
     1
 90
        1
176
     1
 90
        4
176
     1
 62
     7
176
     1
 62
   257
176
     1
 90
        1
176
     1
 90
        1
176
     1
 40
1.0
176
     1
 90
        8
176
     1
 62
     7
176
     1
 40
1.0
176
     1
 90
        1
176
     1
 90
        6
176
     1
 90
        2
176
     1
 62
     7
176
     1
 90
        5
176
     1
 90
        0
176
     1
 90
        0
176
     1
290
     0
176
     1
 90
        1
176
     1
 40
50.0
176
     1
 90
        0
176
     1
290
     0
176
     1
290
     1
176
     1
290
     1
176
     1
290
     0
176
     1
290
     0
176
     1
290
     0
176
     1
290
     0
176
     1
290
     0
176
     1
290
     0
176
     1
 90
       50
176
     1
 40
0.0
176
     1
 40
1.0
176
     1
 90
        0
176
     1
 62
    18
420
        0
176
     1
 90
       50
176
     1
 90
        3
176
     1
 62
     5
420
      255
176
     1
290
     0
176
     1
 90
       50
176
     1
 90
       50
176
     1
 90
       50
176
     1
290
     0
176
     1
 90
       50
176
     1
 62
   256
176
     0
 40
1.0
176
     0
 90
        2
176
     1
  1
strokes_ogs.tif
176
     1
290
     0
176
     1
 40
1.0
176
     1
 40
1.0
176
     1
  0
VISUALSTYLE
  5
357
102
{ACAD_REACTORS
330
347
102
}
330
347
100
AcDbVisualStyle
  2
ColorChange
 70
    16
177
     3
291
     1
 70
    58
 90
        2
176
     1
 90
        2
176
     1
 90
        3
176
     1
 90
        0
176
     1
 40
-0.6
176
     1
 40
-30.0
176
     1
 62
     8
176
     1
 90
        1
176
     1
 90
        4
176
     1
 62
     7
176
     1
 62
   257
176
     1
 90
        1
176
     1
 90
        1
176
     1
 40
1.0
176
     1
 90
        8
176
     1
 62
     8
176
     1
 40
1.0
176
     1
 90
        1
176
     1
 90
        6
176
     1
 90
        2
176
     1
 62
     7
176
     1
 90
        5
176
     1
 90
        0
176
     1
 90
        0
176
     1
290
     0
176
     1
 90
        1
176
     1
 40
0.0
176
     1
 90
        0
176
     1
290
     0
176
     1
290
     1
176
     1
290
     1
176
     1
290
     0
176
     1
290
     0
176
     1
290
     0
176
     1
290
     0
176
     1
290
     0
176
     1
290
     0
176
     1
 90
       50
176
     1
 40
0.0
176
     1
 40
1.0
176
     1
 90
        0
176
     1
 62
    18
420
        0
176
     1
 90
       50
176
     1
 90
        3
176
     1
 62
     5
420
      255
176
     1
290
     0
176
     1
 90
       50
176
     1
 90
       50
176
     1
 90
       50
176
     1
290
     0
176
     1
 90
       50
176
     1
 62
   256
176
     0
 40
1.0
176
     0
 90
        2
176
     1
  1
strokes_ogs.tif
176
     1
290
     0
176
     1
 40
1.0
176
     1
 40
1.0
176
     1
  0
VISUALSTYLE
  5
351
102
{ACAD_REACTORS
330
347
102
}
330
347
100
AcDbVisualStyle
  2
Conceptual
 70
     9
177
     3
291
     0
 70
    58
 90
        3
176
     1
 90
        2
176
     1
 90
        0
176
     1
 90
        0
176
     1
 40
-0.6
176
     1
 40
-30.0
176
     1
 62
     7
176
     1
 90
        2
176
     1
 90
        2
176
     1
 62
     7
176
     1
 62
   257
176
     1
 90
        1
176
     1
 90
        1
176
     1
 40
40.0
176
     1
 90
        8
176
     1
 62
     7
176
     1
 40
1.0
176
     1
 90
        1
176
     1
 90
        6
176
     1
 90
        2
176
     1
 62
     7
176
     1
 90
        3
176
     1
 90
        0
176
     1
 90
        0
176
     1
290
     0
176
     1
 90
        1
176
     1
 40
0.0
176
     1
 90
        0
176
     1
290
     0
176
     1
290
     1
176
     1
290
     1
176
     1
290
     0
176
     1
290
     0
176
     1
290
     0
176
     1
290
     0
176
     1
290
     0
176
     1
290
     0
176
     1
 90
       50
176
     1
 40
0.0
176
     1
 40
1.0
176
     1
 90
        0
176
     1
 62
    18
420
        0
176
     1
 90
       50
176
     1
 90
        3
176
     1
 62
     5
420
      255
176
     1
290
     0
176
     1
 90
       50
176
     1
 90
       50
176
     1
 90
       50
176
     1
290
     0
176
     1
 90
       50
176
     1
 62
   256
176
     0
 40
1.0
176
     0
 90
        2
176
     1
  1
strokes_ogs.tif
176
     1
290
     0
176
     1
 40
1.0
176
     1
 40
1.0
176
     1
  0
VISUALSTYLE
  5
352
102
{ACAD_REACTORS
330
347
102
}
330
347
100
AcDbVisualStyle
  2
Dim
 70
    11
177
     3
291
     1
 70
    58
 90
        2
176
     1
 90
        2
176
     1
 90
        0
176
     1
 90
        0
176
     1
 40
-0.6
176
     1
 40
-30.0
176
     1
 62
     7
176
     1
 90
        1
176
     1
 90
        4
176
     1
 62
     7
176
     1
 62
   257
176
     1
 90
        1
176
     1
 90
        1
176
     1
 40
1.0
176
     1
 90
        8
176
     1
 62
     7
176
     1
 40
1.0
176
     1
 90
        1
176
     1
 90
        6
176
     1
 90
        2
176
     1
 62
     7
176
     1
 90
        5
176
     1
 90
        0
176
     1
 90
        0
176
     1
290
     0
176
     1
 90
        1
176
     1
 40
-50.0
176
     1
 90
        0
176
     1
290
     0
176
     1
290
     1
176
     1
290
     1
176
     1
290
     0
176
     1
290
     0
176
     1
290
     0
176
     1
290
     0
176
     1
290
     0
176
     1
290
     0
176
     1
 90
       50
176
     1
 40
0.0
176
     1
 40
1.0
176
     1
 90
        0
176
     1
 62
    18
420
        0
176
     1
 90
       50
176
     1
 90
        3
176
     1
 62
     5
420
      255
176
     1
290
     0
176
     1
 90
       50
176
     1
 90
       50
176
     1
 90
       50
176
     1
290
     0
176
     1
 90
       50
176
     1
 62
   256
176
     0
 40
1.0
176
     0
 90
        2
176
     1
  1
strokes_ogs.tif
176
     1
290
     0
176
     1
 40
1.0
176
     1
 40
1.0
176
     1
  0
VISUALSTYLE
  5
3A9
102
{ACAD_REACTORS
330
347
102
}
330
347
100
AcDbVisualStyle
  2
EdgeColorOff
 70
    22
177
     3
291
     1
 70
    58
 90
        2
176
     0
 90
        2
176
     0
 90
        0
176
     0
 90
        0
176
     0
 40
0.6
176
     0
 40
30.0
176
     0
 62
     7
420
 16777215
176
     0
 90
        1
176
     0
 90
        4
176
     0
 62
     7
176
     0
 62
   257
176
     0
 90
        1
176
     0
 90
        1
176
     0
 40
1.0
176
     0
 90
        8
176
     2
 62
     7
176
     0
 40
1.0
176
     0
 90
        1
176
     0
 90
        6
176
     0
 90
        2
176
     0
 62
     7
176
     0
 90
        5
176
     0
 90
        0
176
     0
 90
        0
176
     0
290
     0
176
     0
 90
        1
176
     0
 40
0.0
176
     0
 90
        0
176
     0
290
     0
176
     0
290
     1
176
     0
290
     1
176
     0
290
     0
176
     0
290
     0
176
     0
290
     0
176
     0
290
     0
176
     0
290
     0
176
     0
290
     0
176
     0
 90
       50
176
     0
 40
0.0
176
     0
 40
1.0
176
     0
 90
        0
176
     0
 62
    18
420
        0
176
     0
 90
       50
176
     0
 90
        3
176
     0
 62
     5
420
      255
176
     0
290
     0
176
     0
 90
       50
176
     0
 90
       50
176
     0
 90
       50
176
     0
290
     0
176
     0
 90
       50
176
     0
 62
   256
176
     0
 40
1.0
176
     0
 90
        2
176
     0
  1
strokes_ogs.tif
176
     0
290
     0
176
     0
 40
1.0
176
     0
 40
1.0
176
     0
  0
VISUALSTYLE
  5
356
102
{ACAD_REACTORS
330
347
102
}
330
347
100
AcDbVisualStyle
  2
Facepattern
 70
    15
177
     3
291
     1
 70
    58
 90
        2
176
     1
 90
        2
176
     1
 90
        0
176
     1
 90
        0
176
     1
 40
-0.6
176
     1
 40
-30.0
176
     1
 62
     7
176
     1
 90
        1
176
     1
 90
        4
176
     1
 62
     7
176
     1
 62
   257
176
     1
 90
        1
176
     1
 90
        1
176
     1
 40
1.0
176
     1
 90
        8
176
     1
 62
     7
176
     1
 40
1.0
176
     1
 90
        1
176
     1
 90
        6
176
     1
 90
        2
176
     1
 62
     7
176
     1
 90
        5
176
     1
 90
        0
176
     1
 90
        0
176
     1
290
     0
176
     1
 90
        1
176
     1
 40
0.0
176
     1
 90
        0
176
     1
290
     0
176
     1
290
     1
176
     1
290
     1
176
     1
290
     0
176
     1
290
     0
176
     1
290
     0
176
     1
290
     0
176
     1
290
     0
176
     1
290
     0
176
     1
 90
       50
176
     1
 40
0.0
176
     1
 40
1.0
176
     1
 90
        0
176
     1
 62
    18
420
        0
176
     1
 90
       50
176
     1
 90
        3
176
     1
 62
     5
420
      255
176
     1
290
     0
176
     1
 90
       50
176
     1
 90
       50
176
     1
 90
       50
176
     1
290
     0
176
     1
 90
       50
176
     1
 62
   256
176
     0
 40
1.0
176
     0
 90
        2
176
     1
  1
strokes_ogs.tif
176
     1
290
     0
176
     1
 40
1.0
176
     1
 40
1.0
176
     1
  0
VISUALSTYLE
  5
348
102
{ACAD_REACTORS
330
347
102
}
330
347
100
AcDbVisualStyle
  2
Flat
 70
     0
177
     3
291
     1
 70
    58
 90
        2
176
     1
 90
        1
176
     1
 90
        1
176
     1
 90
        2
176
     1
 40
-0.6
176
     1
 40
30.0
176
     1
 62
     7
176
     1
 90
        0
176
     1
 90
        4
176
     1
 62
     7
176
     1
 62
   257
176
     1
 90
        1
176
     1
 90
        1
176
     1
 40
1.0
176
     1
 90
        8
176
     1
 62
     7
176
     1
 40
1.0
176
     1
 90
        1
176
     1
 90
        6
176
     1
 90
        2
176
     1
 62
     7
176
     1
 90
        5
176
     1
 90
        0
176
     1
 90
        0
176
     1
290
     0
176
     1
 90
       13
176
     1
 40
0.0
176
     1
 90
        0
176
     1
290
     0
176
     1
290
     1
176
     1
290
     1
176
     1
290
     0
176
     1
290
     0
176
     1
290
     0
176
     1
290
     0
176
     1
290
     0
176
     1
290
     0
176
     1
 90
       50
176
     1
 40
0.0
176
     1
 40
1.0
176
     1
 90
        0
176
     1
 62
    18
420
        0
176
     1
 90
       50
176
     1
 90
        3
176
     1
 62
     5
420
      255
176
     1
290
     0
176
     1
 90
       50
176
     1
 90
       50
176
     1
 90
       50
176
     1
290
     0
176
     1
 90
       50
176
     1
 62
   256
176
     0
 40
1.0
176
     0
 90
        2
176
     1
  1
strokes_ogs.tif
176
     1
290
     0
176
     1
 40
1.0
176
     1
 40
1.0
176
     1
  0
VISUALSTYLE
  5
349
102
{ACAD_REACTORS
330
347
102
}
330
347
100
AcDbVisualStyle
  2
FlatWithEdges
 70
     1
177
     3
291
     1
 70
    58
 90
        2
176
     1
 90
        1
176
     1
 90
        1
176
     1
 90
        2
176
     1
 40
-0.6
176
     1
 40
30.0
176
     1
 62
     7
176
     1
 90
        1
176
     1
 90
        4
176
     1
 62
     7
176
     1
 62
   257
176
     1
 90
        1
176
     1
 90
        1
176
     1
 40
1.0
176
     1
 90
        0
176
     1
 62
   257
176
     1
 40
1.0
176
     1
 90
        1
176
     1
 90
        6
176
     1
 90
        2
176
     1
 62
     7
176
     1
 90
        5
176
     1
 90
        0
176
     1
 90
        0
176
     1
290
     0
176
     1
 90
       13
176
     1
 40
0.0
176
     1
 90
        0
176
     1
290
     0
176
     1
290
     1
176
     1
290
     1
176
     1
290
     0
176
     1
290
     0
176
     1
290
     0
176
     1
290
     0
176
     1
290
     0
176
     1
290
     0
176
     1
 90
       50
176
     1
 40
0.0
176
     1
 40
1.0
176
     1
 90
        0
176
     1
 62
    18
420
        0
176
     1
 90
       50
176
     1
 90
        3
176
     1
 62
     5
420
      255
176
     1
290
     0
176
     1
 90
       50
176
     1
 90
       50
176
     1
 90
       50
176
     1
290
     0
176
     1
 90
       50
176
     1
 62
   256
176
     0
 40
1.0
176
     0
 90
        2
176
     1
  1
strokes_ogs.tif
176
     1
290
     0
176
     1
 40
1.0
176
     1
 40
1.0
176
     1
  0
VISUALSTYLE
  5
34A
102
{ACAD_REACTORS
330
347
102
}
330
347
100
AcDbVisualStyle
  2
Gouraud
 70
     2
177
     3
291
     1
 70
    58
 90
        2
176
     1
 90
        2
176
     1
 90
        1
176
     1
 90
        2
176
     1
 40
-0.6
176
     1
 40
30.0
176
     1
 62
     7
176
     1
 90
        0
176
     1
 90
        4
176
     1
 62
     7
176
     1
 62
   257
176
     1
 90
        1
176
     1
 90
        1
176
     1
 40
1.0
176
     1
 90
        0
176
     1
 62
     7
176
     1
 40
1.0
176
     1
 90
        1
176
     1
 90
        6
176
     1
 90
        2
176
     1
 62
     7
176
     1
 90
        5
176
     1
 90
        0
176
     1
 90
        0
176
     1
290
     0
176
     1
 90
       13
176
     1
 40
0.0
176
     1
 90
        0
176
     1
290
     0
176
     1
290
     1
176
     1
290
     1
176
     1
290
     0
176
     1
290
     0
176
     1
290
     0
176
     1
290
     0
176
     1
290
     0
176
     1
290
     0
176
     1
 90
       50
176
     1
 40
0.0
176
     1
 40
1.0
176
     1
 90
        0
176
     1
 62
    18
420
        0
176
     1
 90
       50
176
     1
 90
        3
176
     1
 62
     5
420
      255
176
     1
290
     0
176
     1
 90
       50
176
     1
 90
       50
176
     1
 90
       50
176
     1
290
     0
176
     1
 90
       50
176
     1
 62
   256
176
     0
 40
1.0
176
     0
 90
        2
176
     1
  1
strokes_ogs.tif
176
     1
290
     0
176
     1
 40
1.0
176
     1
 40
1.0
176
     1
  0
VISUALSTYLE
  5
34B
102
{ACAD_REACTORS
330
347
102
}
330
347
100
AcDbVisualStyle
  2
GouraudWithEdges
 70
     3
177
     3
291
     1
 70
    58
 90
        2
176
     1
 90
        2
176
     1
 90
        1
176
     1
 90
        2
176
     1
 40
-0.6
176
     1
 40
30.0
176
     1
 62
     7
176
     1
 90
        1
176
     1
 90
        4
176
     1
 62
     7
176
     1
 62
   257
176
     1
 90
        1
176
     1
 90
        1
176
     1
 40
1.0
176
     1
 90
        0
176
     1
 62
   257
176
     1
 40
1.0
176
     1
 90
        1
176
     1
 90
        6
176
     1
 90
        2
176
     1
 62
     7
176
     1
 90
        5
176
     1
 90
        0
176
     1
 90
        0
176
     1
290
     0
176
     1
 90
       13
176
     1
 40
0.0
176
     1
 90
        0
176
     1
290
     0
176
     1
290
     1
176
     1
290
     1
176
     1
290
     0
176
     1
290
     0
176
     1
290
     0
176
     1
290
     0
176
     1
290
     0
176
     1
290
     0
176
     1
 90
       50
176
     1
 40
0.0
176
     1
 40
1.0
176
     1
 90
        0
176
     1
 62
    18
420
        0
176
     1
 90
       50
176
     1
 90
        3
176
     1
 62
     5
420
      255
176
     1
290
     0
176
     1
 90
       50
176
     1
 90
       50
176
     1
 90
       50
176
     1
290
     0
176
     1
 90
       50
176
     1
 62
   256
176
     0
 40
1.0
176
     0
 90
        2
176
     1
  1
strokes_ogs.tif
176
     1
290
     0
176
     1
 40
1.0
176
     1
 40
1.0
176
     1
  0
VISUALSTYLE
  5
3A6
102
{ACAD_REACTORS
330
347
102
}
330
347
100
AcDbVisualStyle
  2
Hidden
 70
     6
177
     3
291
     0
 70
    58
 90
        1
176
     1
 90
        2
176
     1
 90
        2
176
     1
 90
        0
176
     1
 40
0.6
176
     1
 40
30.0
176
     1
 62
     7
420
 16777215
176
     1
 90
        2
176
     1
 90
        2
176
     1
 62
     7
176
     1
 62
   257
176
     1
 90
        2
176
     1
 90
        1
176
     1
 40
40.0
176
     1
 90
        0
176
     1
 62
   257
176
     1
 40
1.0
176
     1
 90
        1
176
     1
 90
        6
176
     1
 90
        2
176
     1
 62
     7
176
     1
 90
        3
176
     1
 90
        0
176
     1
 90
        0
176
     1
290
     0
176
     1
 90
        1
176
     1
 40
0.0
176
     1
 90
        0
176
     1
290
     0
176
     1
290
     1
176
     1
290
     1
176
     1
290
     0
176
     1
290
     0
176
     1
290
     0
176
     1
290
     0
176
     1
290
     0
176
     1
290
     0
176
     1
 90
       50
176
     1
 40
0.0
176
     1
 40
1.0
176
     1
 90
        0
176
     1
 62
    18
420
        0
176
     1
 90
       50
176
     1
 90
        3
176
     1
 62
     5
420
      255
176
     1
290
     0
176
     1
 90
       50
176
     1
 90
       50
176
     1
 90
       50
176
     1
290
     0
176
     1
 90
       50
176
     1
 62
   256
176
     0
 40
1.0
176
     0
 90
        2
176
     1
  1
strokes_ogs.tif
176
     1
290
     0
176
     1
 40
1.0
176
     1
 40
1.0
176
     1
  0
VISUALSTYLE
  5
3A7
102
{ACAD_REACTORS
330
347
102
}
330
347
100
AcDbVisualStyle
  2
JitterOff
 70
    20
177
     3
291
     1
 70
    58
 90
        2
176
     0
 90
        2
176
     0
 90
        0
176
     0
 90
        0
176
     0
 40
0.6
176
     0
 40
30.0
176
     0
 62
     7
420
 16777215
176
     0
 90
        1
176
     0
 90
        4
176
     0
 62
     7
176
     0
 62
   257
176
     0
 90
        1
176
     0
 90
        1
176
     0
 40
1.0
176
     0
 90
       10
176
     2
 62
     7
176
     0
 40
1.0
176
     0
 90
        1
176
     0
 90
        6
176
     0
 90
        2
176
     0
 62
     7
176
     0
 90
        5
176
     0
 90
        0
176
     0
 90
        0
176
     0
290
     0
176
     0
 90
        1
176
     0
 40
0.0
176
     0
 90
        0
176
     0
290
     0
176
     0
290
     1
176
     0
290
     1
176
     0
290
     0
176
     0
290
     0
176
     0
290
     0
176
     0
290
     0
176
     0
290
     0
176
     0
290
     0
176
     0
 90
       50
176
     0
 40
0.0
176
     0
 40
1.0
176
     0
 90
        0
176
     0
 62
    18
420
        0
176
     0
 90
       50
176
     0
 90
        3
176
     0
 62
     5
420
      255
176
     0
290
     0
176
     0
 90
       50
176
     0
 90
       50
176
     0
 90
       50
176
     0
290
     0
176
     0
 90
       50
176
     0
 62
   256
176
     0
 40
1.0
176
     0
 90
        2
176
     0
  1
strokes_ogs.tif
176
     0
290
     0
176
     0
 40
1.0
176
     0
 40
1.0
176
     0
  0
VISUALSTYLE
  5
355
102
{ACAD_REACTORS
330
347
102
}
330
347
100
AcDbVisualStyle
  2
Linepattern
 70
    14
177
     3
291
     1
 70
    58
 90
        2
176
     1
 90
        2
176
     1
 90
        0
176
     1
 90
        0
176
     1
 40
-0.6
176
     1
 40
-30.0
176
     1
 62
     7
176
     1
 90
        1
176
     1
 90
        4
176
     1
 62
     7
176
     1
 62
   257
176
     1
 90
        7
176
     1
 90
        7
176
     1
 40
1.0
176
     1
 90
        8
176
     1
 62
     7
176
     1
 40
1.0
176
     1
 90
        1
176
     1
 90
        6
176
     1
 90
        2
176
     1
 62
     7
176
     1
 90
        5
176
     1
 90
        0
176
     1
 90
        0
176
     1
290
     0
176
     1
 90
        1
176
     1
 40
0.0
176
     1
 90
        0
176
     1
290
     0
176
     1
290
     1
176
     1
290
     1
176
     1
290
     0
176
     1
290
     0
176
     1
290
     0
176
     1
290
     0
176
     1
290
     0
176
     1
290
     0
176
     1
 90
       50
176
     1
 40
0.0
176
     1
 40
1.0
176
     1
 90
        0
176
     1
 62
    18
420
        0
176
     1
 90
       50
176
     1
 90
        3
176
     1
 62
     5
420
      255
176
     1
290
     0
176
     1
 90
       50
176
     1
 90
       50
176
     1
 90
       50
176
     1
290
     0
176
     1
 90
       50
176
     1
 62
   256
176
     0
 40
1.0
176
     0
 90
        2
176
     1
  1
strokes_ogs.tif
176
     1
290
     0
176
     1
 40
1.0
176
     1
 40
1.0
176
     1
  0
VISUALSTYLE
  5
3A8
102
{ACAD_REACTORS
330
347
102
}
330
347
100
AcDbVisualStyle
  2
OverhangOff
 70
    21
177
     3
291
     1
 70
    58
 90
        2
176
     0
 90
        2
176
     0
 90
        0
176
     0
 90
        0
176
     0
 40
0.6
176
     0
 40
30.0
176
     0
 62
     7
420
 16777215
176
     0
 90
        1
176
     0
 90
        4
176
     0
 62
     7
176
     0
 62
   257
176
     0
 90
        1
176
     0
 90
        1
176
     0
 40
1.0
176
     0
 90
        9
176
     2
 62
     7
176
     0
 40
1.0
176
     0
 90
        1
176
     0
 90
        6
176
     0
 90
        2
176
     0
 62
     7
176
     0
 90
        5
176
     0
 90
        0
176
     0
 90
        0
176
     0
290
     0
176
     0
 90
        1
176
     0
 40
0.0
176
     0
 90
        0
176
     0
290
     0
176
     0
290
     1
176
     0
290
     1
176
     0
290
     0
176
     0
290
     0
176
     0
290
     0
176
     0
290
     0
176
     0
290
     0
176
     0
290
     0
176
     0
 90
       50
176
     0
 40
0.0
176
     0
 40
1.0
176
     0
 90
        0
176
     0
 62
    18
420
        0
176
     0
 90
       50
176
     0
 90
        3
176
     0
 62
     5
420
      255
176
     0
290
     0
176
     0
 90
       50
176
     0
 90
       50
176
     0
 90
       50
176
     0
290
     0
176
     0
 90
       50
176
     0
 62
   256
176
     0
 40
1.0
176
     0
 90
        2
176
     0
  1
strokes_ogs.tif
176
     0
290
     0
176
     0
 40
1.0
176
     0
 40
1.0
176
     0
  0
VISUALSTYLE
  5
350
102
{ACAD_REACTORS
330
347
102
}
330
347
100
AcDbVisualStyle
  2
Realistic
 70
     8
177
     3
291
     0
 70
    58
 90
        2
176
     1
 90
        2
176
     1
 90
        0
176
     1
 90
        0
176
     1
 40
-0.6
176
     1
 40
-30.0
176
     1
 62
     7
176
     1
 90
        1
176
     1
 90
        0
176
     1
 62
     7
176
     1
 62
   257
176
     1
 90
        1
176
     1
 90
        1
176
     1
 40
1.0
176
     1
 90
        8
176
     1
 62
     8
176
     1
 40
1.0
176
     1
 90
        1
176
     1
 90
        6
176
     1
 90
        2
176
     1
 62
     7
176
     1
 90
        5
176
     1
 90
        0
176
     1
 90
        0
176
     1
290
     0
176
     1
 90
       13
176
     1
 40
0.0
176
     1
 90
        0
176
     1
290
     0
176
     1
290
     1
176
     1
290
     1
176
     1
290
     0
176
     1
290
     0
176
     1
290
     0
176
     1
290
     0
176
     1
290
     0
176
     1
290
     0
176
     1
 90
       50
176
     1
 40
0.0
176
     1
 40
1.0
176
     1
 90
        0
176
     1
 62
    18
420
        0
176
     1
 90
       50
176
     1
 90
        3
176
     1
 62
     5
420
      255
176
     1
290
     0
176
     1
 90
       50
176
     1
 90
       50
176
     1
 90
       50
176
     1
290
     0
176
     1
 90
       50
176
     1
 62
   256
176
     0
 40
1.0
176
     0
 90
        2
176
     1
  1
strokes_ogs.tif
176
     1
290
     0
176
     1
 40
1.0
176
     1
 40
1.0
176
     1
  0
VISUALSTYLE
  5
3AE
102
{ACAD_REACTORS
330
347
102
}
330
347
100
AcDbVisualStyle
  2
Shaded
 70
    27
177
     3
291
     0
 70
    58
 90
        2
176
     1
 90
        2
176
     1
 90
        1
176
     1
 90
        2
176
     1
 40
0.6
176
     1
 40
30.0
176
     1
 62
     7
420
 16777215
176
     1
 90
        0
176
     1
 90
        4
176
     1
 62
     7
176
     1
 62
   257
176
     1
 90
        1
176
     1
 90
        1
176
     1
 40
1.0
176
     1
 90
        8
176
     1
 62
   257
176
     1
 40
1.0
176
     1
 90
        1
176
     1
 90
        6
176
     1
 90
        2
176
     1
 62
     8
420
  7895160
176
     1
 90
        3
176
     1
 90
        0
176
     1
 90
        0
176
     1
290
     0
176
     1
 90
        5
176
     1
 40
0.0
176
     1
 90
        0
176
     1
290
     0
176
     1
290
     1
176
     1
290
     1
176
     1
290
     0
176
     1
290
     0
176
     1
290
     0
176
     1
290
     0
176
     1
290
     0
176
     1
290
     0
176
     1
 90
       50
176
     1
 40
0.0
176
     1
 40
1.0
176
     1
 90
        0
176
     1
 62
    18
420
        0
176
     1
 90
       50
176
     1
 90
        3
176
     1
 62
     5
420
      255
176
     1
290
     0
176
     1
 90
       50
176
     1
 90
       50
176
     1
 90
       50
176
     1
290
     0
176
     1
 90
       50
176
     1
 62
   256
176
     0
 40
1.0
176
     0
 90
        2
176
     1
  1
strokes_ogs.tif
176
     1
290
     0
176
     1
 40
1.0
176
     1
 40
1.0
176
     1
  0
VISUALSTYLE
  5
3AD
102
{ACAD_REACTORS
330
347
102
}
330
347
100
AcDbVisualStyle
  2
Shaded with edges
 70
    26
177
     3
291
     0
 70
    58
 90
        2
176
     1
 90
        2
176
     1
 90
        1
176
     1
 90
        2
176
     1
 40
0.6
176
     1
 40
30.0
176
     1
 62
     7
420
 16777215
176
     1
 90
        1
176
     1
 90
       10
176
     1
 62
     7
176
     1
 62
   257
176
     1
 90
        2
176
     1
 90
        1
176
     1
 40
1.0
176
     1
 90
        8
176
     1
 62
   257
176
     1
 40
1.0
176
     1
 90
        1
176
     1
 90
        6
176
     1
 90
        2
176
     1
 62
     7
176
     1
 90
        3
176
     1
 90
        0
176
     1
 90
        0
176
     1
290
     0
176
     1
 90
        5
176
     1
 40
0.0
176
     1
 90
        0
176
     1
290
     0
176
     1
290
     1
176
     1
290
     1
176
     1
290
     0
176
     1
290
     0
176
     1
290
     0
176
     1
290
     0
176
     1
290
     0
176
     1
290
     0
176
     1
 90
       50
176
     1
 40
0.0
176
     1
 40
1.0
176
     1
 90
        0
176
     1
 62
    18
420
        0
176
     1
 90
       50
176
     1
 90
        3
176
     1
 62
     5
420
      255
176
     1
290
     0
176
     1
 90
       50
176
     1
 90
       50
176
     1
 90
       50
176
     1
290
     0
176
     1
 90
       50
176
     1
 62
   256
176
     0
 40
1.0
176
     0
 90
        2
176
     1
  1
strokes_ogs.tif
176
     1
290
     0
176
     1
 40
1.0
176
     1
 40
1.0
176
     1
  0
VISUALSTYLE
  5
3AA
102
{ACAD_REACTORS
330
347
102
}
330
347
100
AcDbVisualStyle
  2
Shades of Gray
 70
    23
177
     3
291
     0
 70
    58
 90
        2
176
     1
 90
        2
176
     1
 90
        3
176
     1
 90
        0
176
     1
 40
0.6
176
     1
 40
30.0
176
     1
 62
     7
420
 16777215
176
     1
 90
        2
176
     1
 90
        2
176
     1
 62
     7
176
     1
 62
     7
176
     1
 90
        1
176
     1
 90
        1
176
     1
 40
40.0
176
     1
 90
        8
176
     1
 62
     7
176
     1
 40
1.0
176
     1
 90
        1
176
     1
 90
        6
176
     1
 90
        2
176
     1
 62
     7
176
     1
 90
        3
176
     1
 90
        0
176
     1
 90
        0
176
     1
290
     0
176
     1
 90
        1
176
     1
 40
0.0
176
     1
 90
        0
176
     1
290
     0
176
     1
290
     1
176
     1
290
     1
176
     1
290
     0
176
     1
290
     0
176
     1
290
     0
176
     1
290
     0
176
     1
290
     0
176
     1
290
     0
176
     1
 90
       50
176
     1
 40
0.0
176
     1
 40
1.0
176
     1
 90
        0
176
     1
 62
    18
420
        0
176
     1
 90
       50
176
     1
 90
        3
176
     1
 62
     5
420
      255
176
     1
290
     0
176
     1
 90
       50
176
     1
 90
       50
176
     1
 90
       50
176
     1
290
     0
176
     1
 90
       50
176
     1
 62
   256
176
     0
 40
1.0
176
     0
 90
        2
176
     1
  1
strokes_ogs.tif
176
     1
290
     0
176
     1
 40
1.0
176
     1
 40
1.0
176
     1
  0
VISUALSTYLE
  5
3AB
102
{ACAD_REACTORS
330
347
102
}
330
347
100
AcDbVisualStyle
  2
Sketchy
 70
    24
177
     3
291
     0
 70
    58
 90
        1
176
     1
 90
        2
176
     1
 90
        2
176
     1
 90
        0
176
     1
 40
0.6
176
     1
 40
30.0
176
     1
 62
     7
420
 16777215
176
     1
 90
        2
176
     1
 90
        2
176
     1
 62
     7
176
     1
 62
     7
176
     1
 90
        1
176
     1
 90
        1
176
     1
 40
40.0
176
     1
 90
       11
176
     1
 62
     7
176
     1
 40
1.0
176
     1
 90
        1
176
     1
 90
        6
176
     1
 90
        2
176
     1
 62
     7
176
     1
 90
        6
176
     1
 90
        0
176
     1
 90
        0
176
     1
290
     0
176
     1
 90
        1
176
     1
 40
0.0
176
     1
 90
        0
176
     1
290
     0
176
     1
290
     1
176
     1
290
     1
176
     1
290
     0
176
     1
290
     0
176
     1
290
     0
176
     1
290
     0
176
     1
290
     0
176
     1
290
     0
176
     1
 90
       50
176
     1
 40
0.0
176
     1
 40
1.0
176
     1
 90
        0
176
     1
 62
    18
420
        0
176
     1
 90
       50
176
     1
 90
        3
176
     1
 62
     5
420
      255
176
     1
290
     0
176
     1
 90
       50
176
     1
 90
       50
176
     1
 90
       50
176
     1
290
     0
176
     1
 90
       50
176
     1
 62
   256
176
     0
 40
1.0
176
     0
 90
        2
176
     1
  1
strokes_ogs.tif
176
     1
290
     0
176
     1
 40
1.0
176
     1
 40
1.0
176
     1
  0
VISUALSTYLE
  5
354
102
{ACAD_REACTORS
330
347
102
}
330
347
100
AcDbVisualStyle
  2
Thicken
 70
    13
177
     3
291
     1
 70
    58
 90
        2
176
     1
 90
        2
176
     1
 90
        0
176
     1
 90
        0
176
     1
 40
-0.6
176
     1
 40
-30.0
176
     1
 62
     7
176
     1
 90
        1
176
     1
 90
        4
176
     1
 62
     7
176
     1
 62
   257
176
     1
 90
        1
176
     1
 90
        1
176
     1
 40
1.0
176
     1
 90
       12
176
     1
 62
     7
176
     1
 40
1.0
176
     1
 90
        1
176
     1
 90
        6
176
     1
 90
        2
176
     1
 62
     7
176
     1
 90
        5
176
     1
 90
        0
176
     1
 90
        0
176
     1
290
     0
176
     1
 90
        1
176
     1
 40
0.0
176
     1
 90
        0
176
     1
290
     0
176
     1
290
     1
176
     1
290
     1
176
     1
290
     0
176
     1
290
     0
176
     1
290
     0
176
     1
290
     0
176
     1
290
     0
176
     1
290
     0
176
     1
 90
       50
176
     1
 40
0.0
176
     1
 40
1.0
176
     1
 90
        0
176
     1
 62
    18
420
        0
176
     1
 90
       50
176
     1
 90
        3
176
     1
 62
     5
420
      255
176
     1
290
     0
176
     1
 90
       50
176
     1
 90
       50
176
     1
 90
       50
176
     1
290
     0
176
     1
 90
       50
176
     1
 62
   256
176
     0
 40
1.0
176
     0
 90
        2
176
     1
  1
strokes_ogs.tif
176
     1
290
     0
176
     1
 40
1.0
176
     1
 40
1.0
176
     1
  0
VISUALSTYLE
  5
3A5
102
{ACAD_REACTORS
330
347
102
}
330
347
100
AcDbVisualStyle
  2
Wireframe
 70
     5
177
     3
291
     0
 70
    58
 90
        0
176
     1
 90
        2
176
     1
 90
        0
176
     1
 90
        0
176
     1
 40
0.6
176
     1
 40
30.0
176
     1
 62
     7
420
 16777215
176
     1
 90
        1
176
     1
 90
        4
176
     1
 62
     7
176
     1
 62
   257
176
     1
 90
        1
176
     1
 90
        1
176
     1
 40
1.0
176
     1
 90
        0
176
     1
 62
   257
176
     1
 40
1.0
176
     1
 90
        1
176
     1
 90
        6
176
     1
 90
        2
176
     1
 62
     7
176
     1
 90
        3
176
     1
 90
        0
176
     1
 90
        0
176
     1
290
     0
176
     1
 90
        1
176
     1
 40
0.0
176
     1
 90
        0
176
     1
290
     0
176
     1
290
     1
176
     1
290
     1
176
     1
290
     0
176
     1
290
     0
176
     1
290
     0
176
     1
290
     0
176
     1
290
     0
176
     1
290
     0
176
     1
 90
       50
176
     1
 40
0.0
176
     1
 40
1.0
176
     1
 90
        0
176
     1
 62
    18
420
        0
176
     1
 90
       50
176
     1
 90
        3
176
     1
 62
     5
420
      255
176
     1
290
     0
176
     1
 90
       50
176
     1
 90
       50
176
     1
 90
       50
176
     1
290
     0
176
     1
 90
       50
176
     1
 62
   256
176
     0
 40
1.0
176
     0
 90
        2
176
     1
  1
strokes_ogs.tif
176
     1
290
     0
176
     1
 40
1.0
176
     1
 40
1.0
176
     1
  0
VISUALSTYLE
  5
3AC
102
{ACAD_REACTORS
330
347
102
}
330
347
100
AcDbVisualStyle
  2
X-Ray
 70
    25
177
     3
291
     0
 70
    58
 90
        2
176
     1
 90
        2
176
     1
 90
        1
176
     1
 90
        1
176
     1
 40
0.5
176
     1
 40
30.0
176
     1
 62
     7
420
 16777215
176
     1
 90
        1
176
     1
 90
        0
176
     1
 62
     7
176
     1
 62
   257
176
     1
 90
        1
176
     1
 90
        1
176
     1
 40
1.0
176
     1
 90
        8
176
     1
 62
     7
176
     1
 40
1.0
176
     1
 90
        1
176
     1
 90
        6
176
     1
 90
        2
176
     1
 62
     7
176
     1
 90
        3
176
     1
 90
        0
176
     1
 90
        0
176
     1
290
     0
176
     1
 90
       13
176
     1
 40
0.0
176
     1
 90
        0
176
     1
290
     0
176
     1
290
     1
176
     1
290
     1
176
     1
290
     0
176
     1
290
     0
176
     1
290
     0
176
     1
290
     0
176
     1
290
     0
176
     1
290
     0
176
     1
 90
       50
176
     1
 40
0.0
176
     1
 40
1.0
176
     1
 90
        0
176
     1
 62
    18
420
        0
176
     1
 90
       50
176
     1
 90
        3
176
     1
 62
     5
420
      255
176
     1
290
     0
176
     1
 90
       50
176
     1
 90
       50
176
     1
 90
       50
176
     1
290
     0
176
     1
 90
       50
176
     1
 62
   256
176
     0
 40
1.0
176
     0
 90
        2
176
     1
  1
strokes_ogs.tif
176
     1
290
     0
176
     1
 40
1.0
176
     1
 40
1.0
176
     1
  0
DICTIONARYVAR
  5
3B8
102
{ACAD_REACTORS
330
364
102
}
330
364
100
DictionaryVariables
280
     0
  1
1:1
  0
DICTIONARYVAR
  5
3BA
102
{ACAD_REACTORS
330
364
102
}
330
364
100
DictionaryVariables
280
     0
  1
Standard
  0
DICTIONARYVAR
  5
3B9
102
{ACAD_REACTORS
330
364
102
}
330
364
100
DictionaryVariables
280
     0
  1
Standard
  0
DICTIONARYVAR
  5
368
102
{ACAD_REACTORS
330
364
102
}
330
364
100
DictionaryVariables
280
     0
  1
2
  0
DICTIONARYVAR
  5
369
102
{ACAD_REACTORS
330
364
102
}
330
364
100
DictionaryVariables
280
     0
  1
1
  0
DICTIONARYVAR
  5
367
102
{ACAD_REACTORS
330
364
102
}
330
364
100
DictionaryVariables
280
     0
  1
0
  0
DICTIONARY
  5
441
330
3B0
100
AcDbDictionary
280
     1
281
     1
  3
ACAD_ROUNDTRIP_2008_TABLESTYLE_CELLSTYLEMAP
360
442
  0
CELLSTYLEMAP
  5
442
102
{ACAD_REACTORS
330
441
102
}
330
441
100
AcDbCellStyleMap
 90
        3
300
CELLSTYLE
  1
TABLEFORMAT_BEGIN
 90
        5
170
     1
 91
        0
 92
    32768
 62
   257
 93
        1
300
CONTENTFORMAT
  1
CONTENTFORMAT_BEGIN
 90
        0
 91
        0
 92
        4
 93
        0
300

 40
0.0
140
1.0
 94
        5
 62
     0
340
11
144
0.25
309
CONTENTFORMAT_END
171
     1
301
MARGIN
  1
CELLMARGIN_BEGIN
 40
0.06
 40
0.06
 40
0.06
 40
0.06
 40
0.06
 40
0.06
309
CELLMARGIN_END
 94
        6
 95
        1
302
GRIDFORMAT
  1
GRIDFORMAT_BEGIN
 90
        0
 91
        1
 62
     0
 92
       -2
340
14
 93
        0
 40
0.045
309
GRIDFORMAT_END
 95
        2
302
GRIDFORMAT
  1
GRIDFORMAT_BEGIN
 90
        0
 91
        1
 62
     0
 92
       -2
340
14
 93
        0
 40
0.045
309
GRIDFORMAT_END
 95
        4
302
GRIDFORMAT
  1
GRIDFORMAT_BEGIN
 90
        0
 91
        1
 62
     0
 92
       -2
340
14
 93
        0
 40
0.045
309
GRIDFORMAT_END
 95
        8
302
GRIDFORMAT
  1
GRIDFORMAT_BEGIN
 90
        0
 91
        1
 62
     0
 92
       -2
340
14
 93
        0
 40
0.045
309
GRIDFORMAT_END
 95
       16
302
GRIDFORMAT
  1
GRIDFORMAT_BEGIN
 90
        0
 91
        1
 62
     0
 92
       -2
340
14
 93
        0
 40
0.045
309
GRIDFORMAT_END
 95
       32
302
GRIDFORMAT
  1
GRIDFORMAT_BEGIN
 90
        0
 91
        1
 62
     0
 92
       -2
340
14
 93
        0
 40
0.045
309
GRIDFORMAT_END
309
TABLEFORMAT_END
  1
CELLSTYLE_BEGIN
 90
        1
 91
        1
300
_TITLE
309
CELLSTYLE_END
300
CELLSTYLE
  1
TABLEFORMAT_BEGIN
 90
        5
170
     1
 91
        0
 92
        0
 62
   257
 93
        1
300
CONTENTFORMAT
  1
CONTENTFORMAT_BEGIN
 90
        0
 91
        0
 92
        4
 93
        0
300

 40
0.0
140
1.0
 94
        5
 62
     0
340
11
144
0.18
309
CONTENTFORMAT_END
171
     1
301
MARGIN
  1
CELLMARGIN_BEGIN
 40
0.06
 40
0.06
 40
0.06
 40
0.06
 40
0.06
 40
0.06
309
CELLMARGIN_END
 94
        6
 95
        1
302
GRIDFORMAT
  1
GRIDFORMAT_BEGIN
 90
        0
 91
        1
 62
     0
 92
       -2
340
14
 93
        0
 40
0.045
309
GRIDFORMAT_END
 95
        2
302
GRIDFORMAT
  1
GRIDFORMAT_BEGIN
 90
        0
 91
        1
 62
     0
 92
       -2
340
14
 93
        0
 40
0.045
309
GRIDFORMAT_END
 95
        4
302
GRIDFORMAT
  1
GRIDFORMAT_BEGIN
 90
        0
 91
        1
 62
     0
 92
       -2
340
14
 93
        0
 40
0.045
309
GRIDFORMAT_END
 95
        8
302
GRIDFORMAT
  1
GRIDFORMAT_BEGIN
 90
        0
 91
        1
 62
     0
 92
       -2
340
14
 93
        0
 40
0.045
309
GRIDFORMAT_END
 95
       16
302
GRIDFORMAT
  1
GRIDFORMAT_BEGIN
 90
        0
 91
        1
 62
     0
 92
       -2
340
14
 93
        0
 40
0.045
309
GRIDFORMAT_END
 95
       32
302
GRIDFORMAT
  1
GRIDFORMAT_BEGIN
 90
        0
 91
        1
 62
     0
 92
       -2
340
14
 93
        0
 40
0.045
309
GRIDFORMAT_END
309
TABLEFORMAT_END
  1
CELLSTYLE_BEGIN
 90
        2
 91
        1
300
_HEADER
309
CELLSTYLE_END
300
CELLSTYLE
  1
TABLEFORMAT_BEGIN
 90
        5
170
     1
 91
        0
 92
        0
 62
   257
 93
        1
300
CONTENTFORMAT
  1
CONTENTFORMAT_BEGIN
 90
        0
 91
        0
 92
        4
 93
        0
300

 40
0.0
140
1.0
 94
        2
 62
     0
340
11
144
0.18
309
CONTENTFORMAT_END
171
     1
301
MARGIN
  1
CELLMARGIN_BEGIN
 40
0.06
 40
0.06
 40
0.06
 40
0.06
 40
0.06
 40
0.06
309
CELLMARGIN_END
 94
        6
 95
        1
302
GRIDFORMAT
  1
GRIDFORMAT_BEGIN
 90
        0
 91
        1
 62
     0
 92
       -2
340
14
 93
        0
 40
0.045
309
GRIDFORMAT_END
 95
        2
302
GRIDFORMAT
  1
GRIDFORMAT_BEGIN
 90
        0
 91
        1
 62
     0
 92
       -2
340
14
 93
        0
 40
0.045
309
GRIDFORMAT_END
 95
        4
302
GRIDFORMAT
  1
GRIDFORMAT_BEGIN
 90
        0
 91
        1
 62
     0
 92
       -2
340
14
 93
        0
 40
0.045
309
GRIDFORMAT_END
 95
        8
302
GRIDFORMAT
  1
GRIDFORMAT_BEGIN
 90
        0
 91
        1
 62
     0
 92
       -2
340
14
 93
        0
 40
0.045
309
GRIDFORMAT_END
 95
       16
302
GRIDFORMAT
  1
GRIDFORMAT_BEGIN
 90
        0
 91
        1
 62
     0
 92
       -2
340
14
 93
        0
 40
0.045
309
GRIDFORMAT_END
 95
       32
302
GRIDFORMAT
  1
GRIDFORMAT_BEGIN
 90
        0
 91
        1
 62
     0
 92
       -2
340
14
 93
        0
 40
0.045
309
GRIDFORMAT_END
309
TABLEFORMAT_END
  1
CELLSTYLE_BEGIN
 90
        3
 91
        2
300
_DATA
309
CELLSTYLE_END
  0
ENDSEC
  0
EOF
