  0
SECTION
  2
HEADER
  9
$ACADVER
  1
AC1027
  9
$ACADMAINTVER
 70
   105
  9
$DWGCODEPAGE
  3
ANSI_1252
  9
$REQUIREDVERSIONS
160
                 0
  9
$LASTSAVEDBY
  1
matthias.ochs
  9
$INSBASE
 10
0.0
 20
0.0
 30
0.0
  9
$EXTMIN
 10
-44.5109220732208
 20
-21.07012709609332
 30
0.0
  9
$EXTMAX
 10
93.43835052800796
 20
124.8510883941512
 30
0.0
  9
$LIMMIN
 10
-59.46667399
 20
-89.58252718
  9
$LIMMAX
 10
103.292993366
 20
14.105553405
  9
$ORTHOMODE
 70
     0
  9
$REGENMODE
 70
     1
  9
$FILLMODE
 70
     1
  9
$QTEXTMODE
 70
     0
  9
$MIRRTEXT
 70
     1
  9
$LTSCALE
 40
1.0
  9
$ATTMODE
 70
     1
  9
$TEXTSIZE
 40
0.2
  9
$TRACEWID
 40
0.05
  9
$TEXTSTYLE
  7
Standard
  9
$CLAYER
  8
2
  9
$CELTYPE
  6
ByLayer
  9
$CECOLOR
 62
   256
  9
$CELTSCALE
 40
1.0
  9
$DISPSILH
 70
     0
  9
$DIMSCALE
 40
1.0
  9
$DIMASZ
 40
0.18
  9
$DIMEXO
 40
0.0625
  9
$DIMDLI
 40
0.38
  9
$DIMRND
 40
0.0
  9
$DIMDLE
 40
0.0
  9
$DIMEXE
 40
0.18
  9
$DIMTP
 40
0.0
  9
$DIMTM
 40
0.0
  9
$DIMTXT
 40
0.18
  9
$DIMCEN
 40
0.09
  9
$DIMTSZ
 40
0.0
  9
$DIMTOL
 70
     0
  9
$DIMLIM
 70
     0
  9
$DIMTIH
 70
     1
  9
$DIMTOH
 70
     1
  9
$DIMSE1
 70
     0
  9
$DIMSE2
 70
     0
  9
$DIMTAD
 70
     0
  9
$DIMZIN
 70
     0
  9
$DIMBLK
  1

  9
$DIMASO
 70
     1
  9
$DIMSHO
 70
     1
  9
$DIMPOST
  1

  9
$DIMAPOST
  1

  9
$DIMALT
 70
     0
  9
$DIMALTD
 70
     2
  9
$DIMALTF
 40
25.4
  9
$DIMLFAC
 40
1.0
  9
$DIMTOFL
 70
     0
  9
$DIMTVP
 40
0.0
  9
$DIMTIX
 70
     0
  9
$DIMSOXD
 70
     0
  9
$DIMSAH
 70
     0
  9
$DIMBLK1
  1

  9
$DIMBLK2
  1

  9
$DIMSTYLE
  2
Standard
  9
$DIMCLRD
 70
     0
  9
$DIMCLRE
 70
     0
  9
$DIMCLRT
 70
     0
  9
$DIMTFAC
 40
1.0
  9
$DIMGAP
 40
0.09
  9
$DIMJUST
 70
     0
  9
$DIMSD1
 70
     0
  9
$DIMSD2
 70
     0
  9
$DIMTOLJ
 70
     1
  9
$DIMTZIN
 70
     0
  9
$DIMALTZ
 70
     0
  9
$DIMALTTZ
 70
     0
  9
$DIMUPT
 70
     0
  9
$DIMDEC
 70
     4
  9
$DIMTDEC
 70
     4
  9
$DIMALTU
 70
     2
  9
$DIMALTTD
 70
     2
  9
$DIMTXSTY
  7
Standard
  9
$DIMAUNIT
 70
     0
  9
$DIMADEC
 70
     0
  9
$DIMALTRND
 40
0.0
  9
$DIMAZIN
 70
     0
  9
$DIMDSEP
 70
    46
  9
$DIMATFIT
 70
     3
  9
$DIMFRAC
 70
     0
  9
$DIMLDRBLK
  1

  9
$DIMLUNIT
 70
     2
  9
$DIMLWD
 70
    -2
  9
$DIMLWE
 70
    -2
  9
$DIMTMOVE
 70
     2
  9
$DIMFXL
 40
1.0
  9
$DIMFXLON
 70
     0
  9
$DIMJOGANG
 40
0.7853981633974483
  9
$DIMTFILL
 70
     0
  9
$DIMTFILLCLR
 70
     0
  9
$DIMARCSYM
 70
     0
  9
$DIMLTYPE
  6

  9
$DIMLTEX1
  6

  9
$DIMLTEX2
  6

  9
$DIMTXTDIRECTION
 70
     0
  9
$LUNITS
 70
     2
  9
$LUPREC
 70
     4
  9
$SKETCHINC
 40
0.1
  9
$FILLETRAD
 40
0.5
  9
$AUNITS
 70
     2
  9
$AUPREC
 70
     0
  9
$MENU
  1
.
  9
$ELEVATION
 40
0.0
  9
$PELEVATION
 40
0.0
  9
$THICKNESS
 40
0.0
  9
$LIMCHECK
 70
     0
  9
$CHAMFERA
 40
0.5
  9
$CHAMFERB
 40
0.5
  9
$CHAMFERC
 40
1.0
  9
$CHAMFERD
 40
0.0
  9
$SKPOLY
 70
     0
  9
$TDCREATE
 40
2458327.544397952
  9
$TDUCREATE
 40
2458327.461064618
  9
$TDUPDATE
 40
2458670.455674641
  9
$TDUUPDATE
 40
2458670.372341308
  9
$TDINDWG
 40
0.0148523727
  9
$TDUSRTIMER
 40
0.0112696296
  9
$USRTIMER
 70
     1
  9
$ANGBASE
 50
0.0
  9
$ANGDIR
 70
     0
  9
$PDMODE
 70
     0
  9
$PDSIZE
 40
0.0
  9
$PLINEWID
 40
0.0
  9
$SPLFRAME
 70
     0
  9
$SPLINETYPE
 70
     6
  9
$SPLINESEGS
 70
     8
  9
$HANDSEED
  5
680
  9
$SURFTAB1
 70
     6
  9
$SURFTAB2
 70
     6
  9
$SURFTYPE
 70
     6
  9
$SURFU
 70
     6
  9
$SURFV
 70
     6
  9
$UCSBASE
  2

  9
$UCSNAME
  2

  9
$UCSORG
 10
0.0
 20
0.0
 30
0.0
  9
$UCSXDIR
 10
1.0
 20
0.0
 30
0.0
  9
$UCSYDIR
 10
0.0
 20
1.0
 30
0.0
  9
$UCSORTHOREF
  2

  9
$UCSORTHOVIEW
 70
     0
  9
$UCSORGTOP
 10
0.0
 20
0.0
 30
0.0
  9
$UCSORGBOTTOM
 10
0.0
 20
0.0
 30
0.0
  9
$UCSORGLEFT
 10
0.0
 20
0.0
 30
0.0
  9
$UCSORGRIGHT
 10
0.0
 20
0.0
 30
0.0
  9
$UCSORGFRONT
 10
0.0
 20
0.0
 30
0.0
  9
$UCSORGBACK
 10
0.0
 20
0.0
 30
0.0
  9
$PUCSBASE
  2

  9
$PUCSNAME
  2

  9
$PUCSORG
 10
0.0
 20
0.0
 30
0.0
  9
$PUCSXDIR
 10
1.0
 20
0.0
 30
0.0
  9
$PUCSYDIR
 10
0.0
 20
1.0
 30
0.0
  9
$PUCSORTHOREF
  2

  9
$PUCSORTHOVIEW
 70
     0
  9
$PUCSORGTOP
 10
0.0
 20
0.0
 30
0.0
  9
$PUCSORGBOTTOM
 10
0.0
 20
0.0
 30
0.0
  9
$PUCSORGLEFT
 10
0.0
 20
0.0
 30
0.0
  9
$PUCSORGRIGHT
 10
0.0
 20
0.0
 30
0.0
  9
$PUCSORGFRONT
 10
0.0
 20
0.0
 30
0.0
  9
$PUCSORGBACK
 10
0.0
 20
0.0
 30
0.0
  9
$USERI1
 70
     0
  9
$USERI2
 70
     0
  9
$USERI3
 70
     0
  9
$USERI4
 70
     0
  9
$USERI5
 70
     0
  9
$USERR1
 40
0.0
  9
$USERR2
 40
0.0
  9
$USERR3
 40
0.0
  9
$USERR4
 40
0.0
  9
$USERR5
 40
0.0
  9
$WORLDVIEW
 70
     1
  9
$SHADEDGE
 70
     3
  9
$SHADEDIF
 70
    70
  9
$TILEMODE
 70
     1
  9
$MAXACTVP
 70
    64
  9
$PINSBASE
 10
0.0
 20
0.0
 30
0.0
  9
$PLIMCHECK
 70
     0
  9
$PEXTMIN
 10
1.000000000000000E+20
 20
1.000000000000000E+20
 30
1.000000000000000E+20
  9
$PEXTMAX
 10
-1.000000000000000E+20
 20
-1.000000000000000E+20
 30
-1.000000000000000E+20
  9
$PLIMMIN
 10
0.0
 20
0.0
  9
$PLIMMAX
 10
0.0
 20
0.0
  9
$UNITMODE
 70
     0
  9
$VISRETAIN
 70
     1
  9
$PLINEGEN
 70
     0
  9
$PSLTSCALE
 70
     1
  9
$TREEDEPTH
 70
  3020
  9
$CMLSTYLE
  2
Standard
  9
$CMLJUST
 70
     0
  9
$CMLSCALE
 40
1.0
  9
$PROXYGRAPHICS
 70
     1
  9
$MEASUREMENT
 70
     0
  9
$CELWEIGHT
370
    -1
  9
$ENDCAPS
280
     0
  9
$JOINSTYLE
280
     0
  9
$LWDISPLAY
290
     0
  9
$INSUNITS
 70
     0
  9
$HYPERLINKBASE
  1

  9
$STYLESHEET
  1

  9
$XEDIT
290
     1
  9
$CEPSNTYPE
380
     0
  9
$PSTYLEMODE
290
     1
  9
$FINGERPRINTGUID
  2
{D0B926EC-D38F-4CC2-AD53-999D57F03FA5}
  9
$VERSIONGUID
  2
{FAEB1C32-E019-11D5-929B-00C0DF256EC4}
  9
$EXTNAMES
290
     1
  9
$PSVPSCALE
 40
0.0
  9
$OLESTARTUP
290
     0
  9
$SORTENTS
280
   127
  9
$INDEXCTL
280
     0
  9
$HIDETEXT
280
     1
  9
$XCLIPFRAME
280
     2
  9
$HALOGAP
280
     0
  9
$OBSCOLOR
 70
   257
  9
$OBSLTYPE
280
     0
  9
$INTERSECTIONDISPLAY
280
     0
  9
$INTERSECTIONCOLOR
 70
   257
  9
$DIMASSOC
280
     2
  9
$PROJECTNAME
  1

  9
$CAMERADISPLAY
290
     0
  9
$LENSLENGTH
 40
50.0
  9
$CAMERAHEIGHT
 40
0.0
  9
$STEPSPERSEC
 40
2.0
  9
$STEPSIZE
 40
6.0
  9
$3DDWFPREC
 40
2.0
  9
$PSOLWIDTH
 40
0.25
  9
$PSOLHEIGHT
 40
4.0
  9
$LOFTANG1
 40
1.570796326794897
  9
$LOFTANG2
 40
1.570796326794897
  9
$LOFTMAG1
 40
0.0
  9
$LOFTMAG2
 40
0.0
  9
$LOFTPARAM
 70
     7
  9
$LOFTNORMALS
280
     1
  9
$LATITUDE
 40
37.795
  9
$LONGITUDE
 40
-122.394
  9
$NORTHDIRECTION
 40
0.0
  9
$TIMEZONE
 70
 -8000
  9
$LIGHTGLYPHDISPLAY
280
     1
  9
$TILEMODELIGHTSYNCH
280
     1
  9
$SOLIDHIST
280
     0
  9
$SHOWHIST
280
     1
  9
$DWFFRAME
280
     2
  9
$DGNFRAME
280
     2
  9
$REALWORLDSCALE
290
     1
  9
$INTERFERECOLOR
 62
   256
  9
$CSHADOW
280
     0
  9
$SHADOWPLANELOCATION
 40
0.0
  0
ENDSEC
  0
SECTION
  2
CLASSES
  0
CLASS
  1
ACDBDICTIONARYWDFLT
  2
AcDbDictionaryWithDefault
  3
ObjectDBX Classes
 90
        0
 91
       16
280
     0
281
     0
  0
CLASS
  1
SCALE
  2
AcDbScale
  3
ObjectDBX Classes
 90
     1153
 91
       16
280
     0
281
     0
  0
CLASS
  1
VISUALSTYLE
  2
AcDbVisualStyle
  3
ObjectDBX Classes
 90
     4095
 91
       16
280
     0
281
     0
  0
CLASS
  1
MATERIAL
  2
AcDbMaterial
  3
ObjectDBX Classes
 90
     1153
 91
       16
280
     0
281
     0
  0
CLASS
  1
DICTIONARYVAR
  2
AcDbDictionaryVar
  3
ObjectDBX Classes
 90
        0
 91
        9
280
     0
281
     0
  0
CLASS
  1
ACDBPLACEHOLDER
  2
AcDbPlaceHolder
  3
ObjectDBX Classes
 90
        0
 91
        1
280
     0
281
     0
  0
CLASS
  1
LAYOUT
  2
AcDbLayout
  3
ObjectDBX Classes
 90
        0
 91
        1
280
     0
281
     0
  0
CLASS
  1
TABLESTYLE
  2
AcDbTableStyle
  3
ObjectDBX Classes
 90
     4095
 91
       16
280
     0
281
     0
  0
CLASS
  1
MLEADERSTYLE
  2
AcDbMLeaderStyle
  3
ACDB_MLEADERSTYLE_CLASS
 90
     4095
 91
       16
280
     0
281
     0
  0
CLASS
  1
CELLSTYLEMAP
  2
AcDbCellStyleMap
  3
ObjectDBX Classes
 90
     1152
 91
        9
280
     0
281
     0
  0
CLASS
  1
SUN
  2
AcDbSun
  3
SCENEOE
 90
     1153
 91
       16
280
     0
281
     0
  0
CLASS
  1
DIMASSOC
  2
AcDbDimAssoc
  3
"AcDbDimAssoc|Product Desc:     AcDim ARX App For Dimension|Company:          Autodesk, Inc.|WEB Address:      www.autodesk.com"
 90
        0
 91
       10
280
     0
281
     0
  0
CLASS
  1
SORTENTSTABLE
  2
AcDbSortentsTable
  3
ObjectDBX Classes
 90
        0
 91
        9
280
     0
281
     0
  0
ENDSEC
  0
SECTION
  2
TABLES
  0
TABLE
  2
VPORT
  5
8
330
0
100
AcDbSymbolTable
 70
     1
  0
VPORT
  5
104
330
8
100
AcDbSymbolTableRecord
100
AcDbViewportTableRecord
  2
*Active
 70
     0
 10
0.0
 20
0.0
 11
1.0
 21
1.0
 12
65.4743981151517
 22
27.25776964654018
 13
0.0
 23
0.0
 14
0.5
 24
0.5
 15
0.5
 25
0.5
 16
0.0
 26
0.0
 36
1.0
 17
0.0
 27
0.0
 37
0.0
 40
202.229170775039
 41
1.831002331002331
 42
50.0
 43
0.0
 44
0.0
 50
0.0
 51
0.0
 71
    16
 72
   100
 73
     1
 74
     3
 75
     0
 76
     0
 77
     0
 78
     0
281
     0
 65
     1
110
0.0
120
0.0
130
0.0
111
1.0
121
0.0
131
0.0
112
0.0
122
1.0
132
0.0
 79
     0
146
0.0
348
136
 60
     3
 61
     5
292
     1
282
     1
141
0.0
142
0.0
 63
   256
361
21C
  0
ENDTAB
  0
TABLE
  2
LTYPE
  5
5
330
0
100
AcDbSymbolTable
 70
     8
  0
LTYPE
  5
14
330
5
100
AcDbSymbolTableRecord
100
AcDbLinetypeTableRecord
  2
ByBlock
 70
     0
  3

 72
    65
 73
     0
 40
0.0
  0
LTYPE
  5
15
330
5
100
AcDbSymbolTableRecord
100
AcDbLinetypeTableRecord
  2
ByLayer
 70
     0
  3

 72
    65
 73
     0
 40
0.0
  0
LTYPE
  5
16
330
5
100
AcDbSymbolTableRecord
100
AcDbLinetypeTableRecord
  2
Continuous
 70
     0
  3
Solid line
 72
    65
 73
     0
 40
0.0
  0
LTYPE
  5
20
330
5
100
AcDbSymbolTableRecord
100
AcDbLinetypeTableRecord
  2
PUNKT
 70
     0
  3
..............
 72
    65
 73
     2
 40
1.5
 49
0.7
 74
     0
 49
-0.8
 74
     0
  0
LTYPE
  5
21
330
5
100
AcDbSymbolTableRecord
100
AcDbLinetypeTableRecord
  2
GESTRICHELT
 70
     0
  3
-- -- -- -- --
 72
    65
 73
     7
 40
2.8
 49
0.9
 74
     0
 49
0.0
 74
     0
 49
0.9
 74
     0
 49
0.0
 74
     0
 49
0.2
 74
     0
 49
0.0
 74
     0
 49
-0.8
 74
     0
  0
LTYPE
  5
22
330
5
100
AcDbSymbolTableRecord
100
AcDbLinetypeTableRecord
  2
STRICHPUNKT
 70
     0
  3
--.--.--.--.--
 72
    65
 73
     4
 40
8.8
 49
5.5
 74
     0
 49
-1.3
 74
     0
 49
0.7
 74
     0
 49
-1.3
 74
     0
  0
LTYPE
  5
25
330
5
100
AcDbSymbolTableRecord
100
AcDbLinetypeTableRecord
  2
PHANTOM
 70
     0
  3
--..--..--..--
 72
    65
 73
     6
 40
14.2
 49
7.0
 74
     0
 49
-1.8
 74
     0
 49
0.9
 74
     0
 49
-1.8
 74
     0
 49
0.9
 74
     0
 49
-1.8
 74
     0
  0
LTYPE
  5
17E
330
5
100
AcDbSymbolTableRecord
100
AcDbLinetypeTableRecord
  2
DASH
 70
     0
  3
DASH _ _ _ _ _
 72
    65
 73
     2
 40
0.75
 49
0.4
 74
     0
 49
-0.35
 74
     0
  0
LTYPE
  5
17F
330
5
100
AcDbSymbolTableRecord
100
AcDbLinetypeTableRecord
  2
LONGDASH_DASH
 70
     0
  3
LONGDASH_DASH __ . __ . __
 72
    65
 73
     4
 40
0.85
 49
0.4
 74
     0
 49
-0.2
 74
     0
 49
0.05
 74
     0
 49
-0.2
 74
     0
  0
LTYPE
  5
180
330
5
100
AcDbSymbolTableRecord
100
AcDbLinetypeTableRecord
  2
LONGDASH_DASH_DASH
 70
     0
  3
LONGDASH_DASH_DASH __ . . __ . . __
 72
    65
 73
     6
 40
1.1
 49
0.4
 74
     0
 49
-0.2
 74
     0
 49
0.05
 74
     0
 49
-0.2
 74
     0
 49
0.05
 74
     0
 49
-0.2
 74
     0
  0
ENDTAB
  0
TABLE
  2
LAYER
  5
2
102
{ACAD_XDICTIONARY
360
19D
102
}
330
0
100
AcDbSymbolTable
 70
    19
  0
LAYER
  5
147
330
2
100
AcDbSymbolTableRecord
100
AcDbLayerTableRecord
  2
200
 70
     0
 62
     2
  6
Continuous
370
    50
390
F
347
145
348
0
  0
LAYER
  5
181
330
2
100
AcDbSymbolTableRecord
100
AcDbLayerTableRecord
  2
0
 70
     0
 62
     1
  6
Continuous
370
    -3
390
F
347
145
348
0
  0
LAYER
  5
182
330
2
100
AcDbSymbolTableRecord
100
AcDbLayerTableRecord
  2
1
 70
     0
 62
     4
  6
Continuous
370
    50
390
F
347
145
348
0
  0
LAYER
  5
183
330
2
100
AcDbSymbolTableRecord
100
AcDbLayerTableRecord
  2
2
 70
     0
 62
     7
  6
Continuous
370
    25
390
F
347
145
348
0
  0
LAYER
  5
184
330
2
100
AcDbSymbolTableRecord
100
AcDbLayerTableRecord
  2
3
 70
     0
 62
     1
  6
DASH
370
    35
390
F
347
145
348
0
  0
LAYER
  5
185
330
2
100
AcDbSymbolTableRecord
100
AcDbLayerTableRecord
  2
4
 70
     0
 62
     2
  6
LONGDASH_DASH
370
    25
390
F
347
145
348
0
  0
LAYER
  5
186
330
2
100
AcDbSymbolTableRecord
100
AcDbLayerTableRecord
  2
6
 70
     0
 62
     5
  6
Continuous
370
    -3
390
F
347
145
348
0
  0
LAYER
  5
187
330
2
100
AcDbSymbolTableRecord
100
AcDbLayerTableRecord
  2
CUT
 70
     0
 62
     1
  6
Continuous
370
    25
390
F
347
145
348
0
  0
LAYER
  5
188
330
2
100
AcDbSymbolTableRecord
100
AcDbLayerTableRecord
  2
NOCUT
 70
     0
 62
     7
  6
Continuous
370
    25
390
F
347
145
348
0
  0
LAYER
  5
189
330
2
100
AcDbSymbolTableRecord
100
AcDbLayerTableRecord
  2
SK1
 70
     0
 62
     4
  6
Continuous
370
    50
390
F
347
145
348
0
  0
LAYER
  5
18A
330
2
100
AcDbSymbolTableRecord
100
AcDbLayerTableRecord
  2
SK2
 70
     0
 62
     7
  6
Continuous
370
    25
390
F
347
145
348
0
  0
LAYER
  5
18B
330
2
100
AcDbSymbolTableRecord
100
AcDbLayerTableRecord
  2
SK3
 70
     0
 62
     1
  6
DASH
370
    35
390
F
347
145
348
0
  0
LAYER
  5
18C
330
2
100
AcDbSymbolTableRecord
100
AcDbLayerTableRecord
  2
SK4
 70
     0
 62
     2
  6
LONGDASH_DASH
370
    25
390
F
347
145
348
0
  0
LAYER
  5
18D
330
2
100
AcDbSymbolTableRecord
100
AcDbLayerTableRecord
  2
SK6
 70
     0
 62
     5
  6
Continuous
370
    -3
390
F
347
145
348
0
  0
LAYER
  5
18E
330
2
100
AcDbSymbolTableRecord
100
AcDbLayerTableRecord
  2
INFTOTAL
 70
     0
 62
     9
  6
Continuous
370
    18
390
F
347
145
348
0
  0
LAYER
  5
247
330
2
100
AcDbSymbolTableRecord
100
AcDbLayerTableRecord
  2
Defpoints
 70
     0
 62
     7
  6
Continuous
290
     0
370
    -3
390
F
347
145
348
0
  0
LAYER
  5
255
330
2
100
AcDbSymbolTableRecord
100
AcDbLayerTableRecord
  2
7
 70
     0
 62
     5
  6
Continuous
370
    18
390
F
347
145
348
0
1001
AcAecLayerStandard
1000

1000

  0
LAYER
  5
257
330
2
100
AcDbSymbolTableRecord
100
AcDbLayerTableRecord
  2
11
 70
     0
 62
     4
  6
Continuous
370
    50
390
F
347
145
348
0
1001
AcAecLayerStandard
1000

1000

  0
LAYER
  5
25A
330
2
100
AcDbSymbolTableRecord
100
AcDbLayerTableRecord
  2
SK11
 70
     0
 62
     4
  6
Continuous
370
    25
390
F
347
145
348
0
1001
AcAecLayerStandard
1000

1000

1001
AcCmTransparency
1071
        0
  0
ENDTAB
  0
TABLE
  2
STYLE
  5
3
330
0
100
AcDbSymbolTable
 70
     4
  0
STYLE
  5
11
330
3
100
AcDbSymbolTableRecord
100
AcDbTextStyleTableRecord
  2
Standard
 70
     0
 40
0.0
 41
1.0
 50
0.0
 71
     0
 42
0.2
  3
txt
  4

  0
STYLE
  5
146
330
3
100
AcDbSymbolTableRecord
100
AcDbTextStyleTableRecord
  2
BMG_Text
 70
     0
 40
3.5
 41
1.0
 50
0.0
 71
     0
 42
0.2
  3
monos.ttf
  4

1001
ACAD
1000
Monospac821 BT
1071
       49
  0
STYLE
  5
260
330
3
100
AcDbSymbolTableRecord
100
AcDbTextStyleTableRecord
  2
SLDTEXTSTYLE0
 70
     0
 40
0.0
 41
0.605
 50
0.0
 71
     0
 42
0.2
  3
TXT
  4

  0
STYLE
  5
264
330
3
100
AcDbSymbolTableRecord
100
AcDbTextStyleTableRecord
  2
MONOSPACE821BT
 70
     0
 40
0.0
 41
1.0
 50
0.0
 71
     0
 42
0.2
  3
monos.ttf
  4

1001
ACAD
1000
Monospac821 BT
1071
       49
  0
ENDTAB
  0
TABLE
  2
VIEW
  5
6
330
0
100
AcDbSymbolTable
 70
     0
  0
ENDTAB
  0
TABLE
  2
UCS
  5
7
330
0
100
AcDbSymbolTable
 70
     0
  0
ENDTAB
  0
TABLE
  2
APPID
  5
9
330
0
100
AcDbSymbolTable
 70
     5
  0
APPID
  5
12
330
9
100
AcDbSymbolTableRecord
100
AcDbRegAppTableRecord
  2
ACAD
 70
     0
  0
APPID
  5
256
330
9
100
AcDbSymbolTableRecord
100
AcDbRegAppTableRecord
  2
AcAecLayerStandard
 70
     0
  0
APPID
  5
25B
330
9
100
AcDbSymbolTableRecord
100
AcDbRegAppTableRecord
  2
AcCmTransparency
 70
     0
  0
APPID
  5
265
330
9
100
AcDbSymbolTableRecord
100
AcDbRegAppTableRecord
  2
ACAD_DSTYLE_DIMJOGGED_JOGANGLE_SYMBOL
 70
     0
  0
APPID
  5
266
330
9
100
AcDbSymbolTableRecord
100
AcDbRegAppTableRecord
  2
PE_URL
 70
     0
  0
ENDTAB
  0
TABLE
  2
DIMSTYLE
  5
A
330
0
100
AcDbSymbolTable
 70
     6
100
AcDbDimStyleTable
  0
DIMSTYLE
105
28
330
A
100
AcDbSymbolTableRecord
100
AcDbDimStyleTableRecord
  2
Standard
 70
     0
178
     0
340
11
  0
DIMSTYLE
105
25E
102
{ACAD_REACTORS
330
299
330
2A9
330
2B6
330
331
330
343
330
354
330
363
330
372
102
}
330
A
100
AcDbSymbolTableRecord
100
AcDbDimStyleTableRecord
  2
ISO-25
 70
     0
 41
2.5
 42
0.625
 43
3.75
 44
1.25
 73
     0
 74
     0
 77
     1
 78
     8
140
2.5
141
2.5
143
0.0393700787
147
0.625
171
     3
172
     1
178
     0
271
     2
272
     2
274
     3
278
    44
283
     0
284
     8
340
11
  0
DIMSTYLE
105
25F
330
A
100
AcDbSymbolTableRecord
100
AcDbDimStyleTableRecord
  2
SLDDIMSTYLE0
 70
     0
 41
3.5
 44
0.0
 45
0.000000001
 73
     0
 74
     0
 77
     1
 78
    12
 79
     3
140
3.5
144
0.5
147
0.875
173
     1
178
     0
271
     2
272
     1
276
     2
284
    12
340
260
  0
DIMSTYLE
105
261
330
A
100
AcDbSymbolTableRecord
100
AcDbDimStyleTableRecord
  2
SLDDIMSTYLE1
 70
     0
 41
3.5
 44
0.0
 45
0.000000001
 73
     0
 74
     0
 77
     1
 78
    12
 79
     3
140
3.5
144
0.5
147
0.875
173
     1
178
     0
271
     2
272
     3
276
     2
284
    12
340
260
  0
DIMSTYLE
105
262
330
A
100
AcDbSymbolTableRecord
100
AcDbDimStyleTableRecord
  2
SLDDIMSTYLE2
 70
     0
 41
3.5
 44
0.0
 45
0.000000001
 73
     0
 74
     0
 77
     1
 78
    12
 79
     3
140
3.5
147
0.875
173
     1
178
     0
271
     2
272
     0
276
     2
284
    12
340
260
  0
DIMSTYLE
105
263
330
A
100
AcDbSymbolTableRecord
100
AcDbDimStyleTableRecord
  2
BMG_MONOSPACE
 70
     0
 41
4.5
 42
0.0
 43
10.0
 44
1.5
 49
1.25
 50
89.99999999999996
 73
     0
 74
     0
 77
     1
 78
     8
 79
     2
140
3.5
141
2.5
143
0.03937007874016
147
1.199999999999999
171
     3
172
     1
178
     0
179
     2
271
     3
272
     3
274
     3
284
     8
289
     0
340
264
1001
ACAD_DSTYLE_DIMJOGGED_JOGANGLE_SYMBOL
1070
   384
1040
1.570796326794896
  0
ENDTAB
  0
TABLE
  2
BLOCK_RECORD
  5
1
330
0
100
AcDbSymbolTable
 70
    17
  0
BLOCK_RECORD
  5
1D
102
{ACAD_XDICTIONARY
360
4BF
102
}
330
1
100
AcDbSymbolTableRecord
100
AcDbBlockTableRecord
  2
*Model_Space
340
1E
 70
     0
280
     1
281
     0
  0
BLOCK_RECORD
  5
1B
330
1
100
AcDbSymbolTableRecord
100
AcDbBlockTableRecord
  2
*Paper_Space
340
1C
 70
     0
280
     1
281
     0
  0
BLOCK_RECORD
  5
29A
330
1
100
AcDbSymbolTableRecord
100
AcDbBlockTableRecord
  2
*D1
340
0
 70
     0
280
     1
281
     0
  0
BLOCK_RECORD
  5
2AA
330
1
100
AcDbSymbolTableRecord
100
AcDbBlockTableRecord
  2
*D2
340
0
 70
     0
280
     1
281
     0
  0
BLOCK_RECORD
  5
2B7
330
1
100
AcDbSymbolTableRecord
100
AcDbBlockTableRecord
  2
*D3
340
0
 70
     0
280
     1
281
     0
  0
BLOCK_RECORD
  5
334
330
1
100
AcDbSymbolTableRecord
100
AcDbBlockTableRecord
  2
*D4
340
0
 70
     0
280
     1
281
     0
  0
BLOCK_RECORD
  5
346
330
1
100
AcDbSymbolTableRecord
100
AcDbBlockTableRecord
  2
*D5
340
0
 70
     0
280
     1
281
     0
  0
BLOCK_RECORD
  5
357
330
1
100
AcDbSymbolTableRecord
100
AcDbBlockTableRecord
  2
*D6
340
0
 70
     0
280
     1
281
     0
  0
BLOCK_RECORD
  5
366
330
1
100
AcDbSymbolTableRecord
100
AcDbBlockTableRecord
  2
*D7
340
0
 70
     0
280
     1
281
     0
  0
BLOCK_RECORD
  5
375
330
1
100
AcDbSymbolTableRecord
100
AcDbBlockTableRecord
  2
*D8
340
0
 70
     0
280
     1
281
     0
  0
BLOCK_RECORD
  5
42F
330
1
100
AcDbSymbolTableRecord
100
AcDbBlockTableRecord
  2
*D9
340
0
 70
     0
280
     1
281
     0
  0
BLOCK_RECORD
  5
43E
330
1
100
AcDbSymbolTableRecord
100
AcDbBlockTableRecord
  2
*D10
340
0
 70
     0
280
     1
281
     0
  0
BLOCK_RECORD
  5
44A
330
1
100
AcDbSymbolTableRecord
100
AcDbBlockTableRecord
  2
*D11
340
0
 70
     0
280
     1
281
     0
  0
BLOCK_RECORD
  5
456
330
1
100
AcDbSymbolTableRecord
100
AcDbBlockTableRecord
  2
*D12
340
0
 70
     0
280
     1
281
     0
  0
BLOCK_RECORD
  5
465
330
1
100
AcDbSymbolTableRecord
100
AcDbBlockTableRecord
  2
*D13
340
0
 70
     0
280
     1
281
     0
  0
BLOCK_RECORD
  5
473
330
1
100
AcDbSymbolTableRecord
100
AcDbBlockTableRecord
  2
*D14
340
0
 70
     0
280
     1
281
     0
  0
BLOCK_RECORD
  5
47F
330
1
100
AcDbSymbolTableRecord
100
AcDbBlockTableRecord
  2
*D15
340
0
 70
     0
280
     1
281
     0
  0
BLOCK_RECORD
  5
48B
330
1
100
AcDbSymbolTableRecord
100
AcDbBlockTableRecord
  2
*D16
340
0
 70
     0
280
     1
281
     0
  0
ENDTAB
  0
ENDSEC
  0
SECTION
  2
BLOCKS
  0
BLOCK
  5
12F
330
1D
100
AcDbEntity
  8
0
100
AcDbBlockBegin
  2
*Model_Space
 70
     0
 10
0.0
 20
0.0
 30
0.0
  3
*Model_Space
  1

  0
ENDBLK
  5
130
330
1D
100
AcDbEntity
  8
0
100
AcDbBlockEnd
  0
BLOCK
  5
12D
330
1B
100
AcDbEntity
 67
     1
  8
0
100
AcDbBlockBegin
  2
*Paper_Space
 70
     0
 10
0.0
 20
0.0
 30
0.0
  3
*Paper_Space
  1

  0
ENDBLK
  5
12E
330
1B
100
AcDbEntity
 67
     1
  8
0
100
AcDbBlockEnd
  0
BLOCK
  5
29B
330
29A
100
AcDbEntity
  8
0
100
AcDbBlockBegin
  2
*D1
 70
     1
 10
0.0
 20
0.0
 30
0.0
  3
*D1
  1

  0
LINE
  5
29C
330
29A
100
AcDbEntity
  8
SK2
 62
     0
370
    -2
100
AcDbLine
 10
49.59403971015308
 20
43.87396534256308
 30
0.0
 11
65.61903971015309
 21
43.87396534256308
 31
0.0
  0
LINE
  5
29D
330
29A
100
AcDbEntity
  8
SK2
 62
     0
370
    -2
100
AcDbLine
 10
51.56270772275309
 20
35.02396534046308
 30
0.0
 11
65.61903971015309
 21
35.02396534046308
 31
0.0
  0
LINE
  5
29E
330
29A
100
AcDbEntity
  8
SK2
 62
     0
370
    -2
100
AcDbLine
 10
64.36903971015309
 20
43.87396534256308
 30
0.0
 11
64.36903971015309
 21
58.36746534256307
 31
0.0
  0
LINE
  5
29F
330
29A
100
AcDbEntity
  8
SK2
 62
     0
370
    -2
100
AcDbLine
 10
64.36903971015309
 20
43.87396534256308
 30
0.0
 11
64.36903971015309
 21
35.02396534046308
 31
0.0
  0
LINE
  5
2A0
330
29A
100
AcDbEntity
  8
SK2
 62
     0
370
    -2
100
AcDbLine
 10
64.36903971015309
 20
46.37396534256308
 30
0.0
 11
64.36903971015309
 21
48.87396534256308
 31
0.0
  0
LINE
  5
2A1
330
29A
100
AcDbEntity
  8
SK2
 62
     0
370
    -2
100
AcDbLine
 10
64.36903971015309
 20
32.52396534046308
 30
0.0
 11
64.36903971015309
 21
30.02396534046308
 31
0.0
  0
SOLID
  5
2A2
330
29A
100
AcDbEntity
  8
SK2
 62
     0
100
AcDbTrace
 10
63.95237304348642
 20
46.37396534256308
 30
0.0
 11
64.78570637681976
 21
46.37396534256308
 31
0.0
 12
64.36903971015309
 22
43.87396534256308
 32
0.0
 13
64.36903971015309
 23
43.87396534256308
 33
0.0
  0
SOLID
  5
2A3
330
29A
100
AcDbEntity
  8
SK2
 62
     0
100
AcDbTrace
 10
64.78570637681976
 20
32.52396534046308
 30
0.0
 11
63.95237304348642
 21
32.52396534046308
 31
0.0
 12
64.36903971015309
 22
35.02396534046308
 32
0.0
 13
64.36903971015309
 23
35.02396534046308
 33
0.0
  0
MTEXT
  5
2A4
330
29A
100
AcDbEntity
  8
SK2
 62
     0
100
AcDbMText
 10
61.24403971015309
 20
53.99246534256307
 30
0.0
 40
2.5
 41
0.0
 46
0.0
 71
     2
 72
     1
  1
8.85^J
 11
0.0
 21
1.0
 31
0.0
 73
     1
 44
1.0
  0
POINT
  5
2A5
330
29A
100
AcDbEntity
  8
Defpoints
 62
     0
100
AcDbPoint
 10
48.96903971015308
 20
43.87396534256308
 30
0.0
  0
POINT
  5
2A6
330
29A
100
AcDbEntity
  8
Defpoints
 62
     0
100
AcDbPoint
 10
50.93770772275309
 20
35.02396534046308
 30
0.0
  0
POINT
  5
2A7
330
29A
100
AcDbEntity
  8
Defpoints
 62
     0
100
AcDbPoint
 10
64.36903971015309
 20
35.02396534046308
 30
0.0
  0
ENDBLK
  5
2A8
330
29A
100
AcDbEntity
  8
0
100
AcDbBlockEnd
  0
BLOCK
  5
2AB
330
2AA
100
AcDbEntity
  8
0
100
AcDbBlockBegin
  2
*D2
 70
     1
 10
0.0
 20
0.0
 30
0.0
  3
*D2
  1

  0
LINE
  5
2AC
330
2AA
100
AcDbEntity
  8
2
 62
     0
370
    -2
100
AcDbLine
 10
22.36629306585309
 20
43.14896534046309
 30
0.0
 11
22.36629306585309
 21
111.2739653404631
 31
0.0
  0
LINE
  5
2AD
330
2AA
100
AcDbEntity
  8
2
 62
     0
370
    -2
100
AcDbLine
 10
49.36903971015309
 20
44.09896534256308
 30
0.0
 11
49.36903971015309
 21
111.2739653404631
 31
0.0
  0
LINE
  5
2AE
330
2AA
100
AcDbEntity
  8
2
 62
     0
370
    -2
100
AcDbLine
 10
24.86629306585309
 20
110.0239653404631
 30
0.0
 11
46.86903971015309
 21
110.0239653404631
 31
0.0
  0
SOLID
  5
2AF
330
2AA
100
AcDbEntity
  8
2
 62
     0
100
AcDbTrace
 10
24.86629306585309
 20
110.4406320071298
 30
0.0
 11
24.86629306585309
 21
109.6072986737964
 31
0.0
 12
22.36629306585309
 22
110.0239653404631
 32
0.0
 13
22.36629306585309
 23
110.0239653404631
 33
0.0
  0
SOLID
  5
2B0
330
2AA
100
AcDbEntity
  8
2
 62
     0
100
AcDbTrace
 10
46.86903971015309
 20
109.6072986737964
 30
0.0
 11
46.86903971015309
 21
110.4406320071298
 31
0.0
 12
49.36903971015309
 22
110.0239653404631
 32
0.0
 13
49.36903971015309
 23
110.0239653404631
 33
0.0
  0
MTEXT
  5
2B1
330
2AA
100
AcDbEntity
  8
2
 62
     0
100
AcDbMText
 10
33.36831189887815
 20
113.1489653404631
 30
0.0
 40
2.5
 41
0.0
 46
0.0
 71
     2
 72
     1
  1
27^J
 73
     1
 44
1.0
  0
POINT
  5
2B2
330
2AA
100
AcDbEntity
  8
Defpoints
 62
     0
100
AcDbPoint
 10
22.36629306585309
 20
42.52396534046309
 30
0.0
  0
POINT
  5
2B3
330
2AA
100
AcDbEntity
  8
Defpoints
 62
     0
100
AcDbPoint
 10
49.36903971015309
 20
43.47396534256308
 30
0.0
  0
POINT
  5
2B4
330
2AA
100
AcDbEntity
  8
Defpoints
 62
     0
100
AcDbPoint
 10
49.36903971015309
 20
110.0239653404631
 30
0.0
  0
ENDBLK
  5
2B5
330
2AA
100
AcDbEntity
  8
0
100
AcDbBlockEnd
  0
BLOCK
  5
2B8
330
2B7
100
AcDbEntity
  8
0
100
AcDbBlockBegin
  2
*D3
 70
     1
 10
0.0
 20
0.0
 30
0.0
  3
*D3
  1

  0
LINE
  5
2B9
330
2B7
100
AcDbEntity
  8
SK2
 62
     0
370
    -2
100
AcDbLine
 10
22.24129306585309
 20
43.02396534046309
 30
0.0
 11
6.116293065853086
 21
43.02396534046309
 31
0.0
  0
LINE
  5
2BA
330
2B7
100
AcDbEntity
  8
SK2
 62
     0
370
    -2
100
AcDbLine
 10
22.24129306585309
 20
27.02396534046309
 30
0.0
 11
6.116293065853084
 21
27.02396534046309
 31
0.0
  0
LINE
  5
2BB
330
2B7
100
AcDbEntity
  8
SK2
 62
     0
370
    -2
100
AcDbLine
 10
7.366293065853086
 20
40.52396534046309
 30
0.0
 11
7.366293065853084
 21
29.52396534046309
 31
0.0
  0
SOLID
  5
2BC
330
2B7
100
AcDbEntity
  8
SK2
 62
     0
100
AcDbTrace
 10
7.782959732519753
 20
40.52396534046309
 30
0.0
 11
6.949626399186419
 21
40.52396534046309
 31
0.0
 12
7.366293065853086
 22
43.02396534046309
 32
0.0
 13
7.366293065853086
 23
43.02396534046309
 33
0.0
  0
SOLID
  5
2BD
330
2B7
100
AcDbEntity
  8
SK2
 62
     0
100
AcDbTrace
 10
6.949626399186417
 20
29.52396534046309
 30
0.0
 11
7.782959732519751
 21
29.52396534046309
 31
0.0
 12
7.366293065853084
 22
27.02396534046309
 32
0.0
 13
7.366293065853084
 23
27.02396534046309
 33
0.0
  0
MTEXT
  5
2BE
330
2B7
100
AcDbEntity
  8
SK2
 62
     0
100
AcDbMText
 10
4.241293065853085
 20
35.59633653914357
 30
0.0
 40
2.5
 41
0.0
 46
0.0
 71
     2
 72
     1
  1
ø16
 11
1.665334536937735E-16
 21
1.0
 31
0.0
 73
     1
 44
1.0
  0
POINT
  5
2BF
330
2B7
100
AcDbEntity
  8
Defpoints
 62
     0
100
AcDbPoint
 10
22.86629306585309
 20
43.02396534046309
 30
0.0
  0
POINT
  5
2C0
330
2B7
100
AcDbEntity
  8
Defpoints
 62
     0
100
AcDbPoint
 10
22.86629306585309
 20
27.02396534046309
 30
0.0
  0
POINT
  5
2C1
330
2B7
100
AcDbEntity
  8
Defpoints
 62
     0
100
AcDbPoint
 10
7.366293065853085
 20
27.02396534046309
 30
0.0
  0
ENDBLK
  5
2C2
330
2B7
100
AcDbEntity
  8
0
100
AcDbBlockEnd
  0
BLOCK
  5
335
330
334
100
AcDbEntity
  8
0
100
AcDbBlockBegin
  2
*D4
 70
     1
 10
0.0
 20
0.0
 30
0.0
  3
*D4
  1

  0
LINE
  5
336
330
334
100
AcDbEntity
  8
SK2
 62
     0
370
    -2
100
AcDbLine
 10
231.3130161428642
 20
18.66698734865288
 30
0.0
 11
247.5380146128643
 21
18.66698734865288
 31
0.0
  0
LINE
  5
337
330
334
100
AcDbEntity
  8
SK2
 62
     0
370
    -2
100
AcDbLine
 10
231.3130161428642
 20
23.66698734865288
 30
0.0
 11
247.5380146128643
 21
23.66698734865288
 31
0.0
  0
LINE
  5
338
330
334
100
AcDbEntity
  8
SK2
 62
     0
370
    -2
100
AcDbLine
 10
246.2880146128643
 20
23.66698734865288
 30
0.0
 11
246.2880146128643
 21
34.93637790642255
 31
0.0
  0
LINE
  5
339
330
334
100
AcDbEntity
  8
SK2
 62
     0
370
    -2
100
AcDbLine
 10
246.2880146128643
 20
18.66698734865288
 30
0.0
 11
246.2880146128643
 21
23.66698734865288
 31
0.0
  0
LINE
  5
33A
330
334
100
AcDbEntity
  8
SK2
 62
     0
370
    -2
100
AcDbLine
 10
246.2880146128643
 20
16.16698734865288
 30
0.0
 11
246.2880146128643
 21
13.66698734865288
 31
0.0
  0
LINE
  5
33B
330
334
100
AcDbEntity
  8
SK2
 62
     0
370
    -2
100
AcDbLine
 10
246.2880146128643
 20
26.16698734865288
 30
0.0
 11
246.2880146128643
 21
28.66698734865288
 31
0.0
  0
SOLID
  5
33C
330
334
100
AcDbEntity
  8
SK2
 62
     0
100
AcDbTrace
 10
246.7046812795309
 20
16.16698734865288
 30
0.0
 11
245.8713479461976
 21
16.16698734865288
 31
0.0
 12
246.2880146128643
 22
18.66698734865288
 32
0.0
 13
246.2880146128643
 23
18.66698734865288
 33
0.0
  0
SOLID
  5
33D
330
334
100
AcDbEntity
  8
SK2
 62
     0
100
AcDbTrace
 10
245.8713479461976
 20
26.16698734865288
 30
0.0
 11
246.7046812795309
 21
26.16698734865288
 31
0.0
 12
246.2880146128643
 22
23.66698734865288
 32
0.0
 13
246.2880146128643
 23
23.66698734865288
 33
0.0
  0
MTEXT
  5
33E
330
334
100
AcDbEntity
  8
SK2
 62
     0
100
AcDbMText
 10
244.4130146128643
 20
32.22804457308921
 30
0.0
 40
2.5
 41
0.0
 46
0.0
 71
     5
 72
     1
  1
M5
 11
0.0
 21
1.0
 31
0.0
 73
     1
 44
1.0
  0
POINT
  5
33F
330
334
100
AcDbEntity
  8
Defpoints
 62
     0
100
AcDbPoint
 10
230.6880161428642
 20
18.66698734865288
 30
0.0
  0
POINT
  5
340
330
334
100
AcDbEntity
  8
Defpoints
 62
     0
100
AcDbPoint
 10
230.6880161428642
 20
23.66698734865288
 30
0.0
  0
POINT
  5
341
330
334
100
AcDbEntity
  8
Defpoints
 62
     0
100
AcDbPoint
 10
246.2880146128643
 20
23.66698734865288
 30
0.0
  0
ENDBLK
  5
342
330
334
100
AcDbEntity
  8
0
100
AcDbBlockEnd
  0
BLOCK
  5
347
330
346
100
AcDbEntity
  8
0
100
AcDbBlockBegin
  2
*D5
 70
     1
 10
0.0
 20
0.0
 30
0.0
  3
*D5
  1

  0
LINE
  5
348
330
346
100
AcDbEntity
  8
SK2
 62
     0
370
    -2
100
AcDbLine
 10
139.6630146128643
 20
17.16697971865288
 30
0.0
 11
123.0380146128643
 21
17.16697971865288
 31
0.0
  0
LINE
  5
349
330
346
100
AcDbEntity
  8
SK2
 62
     0
370
    -2
100
AcDbLine
 10
139.6630146128643
 20
25.16698734865288
 30
0.0
 11
123.0380146128643
 21
25.16698734865288
 31
0.0
  0
LINE
  5
34A
330
346
100
AcDbEntity
  8
SK2
 62
     0
370
    -2
100
AcDbLine
 10
124.2880146128643
 20
17.16697971865288
 30
0.0
 11
124.2880146128643
 21
25.16698734865288
 31
0.0
  0
LINE
  5
34B
330
346
100
AcDbEntity
  8
SK2
 62
     0
370
    -2
100
AcDbLine
 10
124.2880146128643
 20
14.66697971865288
 30
0.0
 11
124.2880146128643
 21
12.16697971865288
 31
0.0
  0
LINE
  5
34C
330
346
100
AcDbEntity
  8
SK2
 62
     0
370
    -2
100
AcDbLine
 10
124.2880146128643
 20
27.66698734865288
 30
0.0
 11
124.2880146128643
 21
30.16698734865288
 31
0.0
  0
SOLID
  5
34D
330
346
100
AcDbEntity
  8
SK2
 62
     0
100
AcDbTrace
 10
124.7046812795309
 20
14.66697971865288
 30
0.0
 11
123.8713479461976
 21
14.66697971865288
 31
0.0
 12
124.2880146128643
 22
17.16697971865288
 32
0.0
 13
124.2880146128643
 23
17.16697971865288
 33
0.0
  0
SOLID
  5
34E
330
346
100
AcDbEntity
  8
SK2
 62
     0
100
AcDbTrace
 10
123.8713479461976
 20
27.66698734865288
 30
0.0
 11
124.7046812795309
 21
27.66698734865288
 31
0.0
 12
124.2880146128643
 22
25.16698734865288
 32
0.0
 13
124.2880146128643
 23
25.16698734865288
 33
0.0
  0
MTEXT
  5
34F
330
346
100
AcDbEntity
  8
SK2
 62
     0
100
AcDbMText
 10
122.4130146128643
 20
20.9323234378125
 30
0.0
 40
2.5
 41
0.0
 46
0.0
 71
     5
 72
     1
  1
8
 11
0.0
 21
1.0
 31
0.0
 73
     1
 44
1.0
  0
POINT
  5
350
330
346
100
AcDbEntity
  8
Defpoints
 62
     0
100
AcDbPoint
 10
140.2880146128643
 20
17.16697971865288
 30
0.0
  0
POINT
  5
351
330
346
100
AcDbEntity
  8
Defpoints
 62
     0
100
AcDbPoint
 10
140.2880146128643
 20
25.16698734865288
 30
0.0
  0
POINT
  5
352
330
346
100
AcDbEntity
  8
Defpoints
 62
     0
100
AcDbPoint
 10
124.2880146128643
 20
25.16698734865288
 30
0.0
  0
ENDBLK
  5
353
330
346
100
AcDbEntity
  8
0
100
AcDbBlockEnd
  0
BLOCK
  5
358
330
357
100
AcDbEntity
  8
0
100
AcDbBlockBegin
  2
*D6
 70
     1
 10
0.0
 20
0.0
 30
0.0
  3
*D6
  1

  0
LINE
  5
359
330
357
100
AcDbEntity
  8
SK2
 62
     0
370
    -2
100
AcDbLine
 10
231.2880146128643
 20
23.69198123865287
 30
0.0
 11
231.2880146128643
 21
112.4169873486529
 31
0.0
  0
LINE
  5
35A
330
357
100
AcDbEntity
  8
SK2
 62
     0
370
    -2
100
AcDbLine
 10
139.2880146128643
 20
24.79198734865288
 30
0.0
 11
139.2880146128643
 21
112.4169873486529
 31
0.0
  0
LINE
  5
35B
330
357
100
AcDbEntity
  8
SK2
 62
     0
370
    -2
100
AcDbLine
 10
228.7880146128643
 20
111.1669873486529
 30
0.0
 11
141.7880146128643
 21
111.1669873486529
 31
0.0
  0
SOLID
  5
35C
330
357
100
AcDbEntity
  8
SK2
 62
     0
100
AcDbTrace
 10
228.7880146128643
 20
110.7503206819862
 30
0.0
 11
228.7880146128643
 21
111.5836540153196
 31
0.0
 12
231.2880146128643
 22
111.1669873486529
 32
0.0
 13
231.2880146128643
 23
111.1669873486529
 33
0.0
  0
SOLID
  5
35D
330
357
100
AcDbEntity
  8
SK2
 62
     0
100
AcDbTrace
 10
141.7880146128643
 20
111.5836540153196
 30
0.0
 11
141.7880146128643
 21
110.7503206819862
 31
0.0
 12
139.2880146128643
 22
111.1669873486529
 32
0.0
 13
139.2880146128643
 23
111.1669873486529
 33
0.0
  0
MTEXT
  5
35E
330
357
100
AcDbEntity
  8
SK2
 62
     0
100
AcDbMText
 10
181.6222827977068
 20
113.0419873486529
 30
0.0
 40
2.5
 41
0.0
 46
0.0
 71
     5
 72
     1
  1
92
 73
     1
 44
1.0
  0
POINT
  5
35F
330
357
100
AcDbEntity
  8
Defpoints
 62
     0
100
AcDbPoint
 10
231.2880146128643
 20
23.06698123865287
 30
0.0
  0
POINT
  5
360
330
357
100
AcDbEntity
  8
Defpoints
 62
     0
100
AcDbPoint
 10
139.2880146128643
 20
24.16698734865288
 30
0.0
  0
POINT
  5
361
330
357
100
AcDbEntity
  8
Defpoints
 62
     0
100
AcDbPoint
 10
139.2880146128643
 20
111.1669873486529
 30
0.0
  0
ENDBLK
  5
362
330
357
100
AcDbEntity
  8
0
100
AcDbBlockEnd
  0
BLOCK
  5
367
330
366
100
AcDbEntity
  8
0
100
AcDbBlockBegin
  2
*D7
 70
     1
 10
0.0
 20
0.0
 30
0.0
  3
*D7
  1

  0
LINE
  5
368
330
366
100
AcDbEntity
  8
SK2
 62
     0
370
    -2
100
AcDbLine
 10
139.2880146128643
 20
24.79198734865288
 30
0.0
 11
139.2880146128643
 21
97.41698734865288
 31
0.0
  0
LINE
  5
369
330
366
100
AcDbEntity
  8
SK2
 62
     0
370
    -2
100
AcDbLine
 10
226.2880146128643
 20
25.79198734865288
 30
0.0
 11
226.2880146128643
 21
97.41698734865288
 31
0.0
  0
LINE
  5
36A
330
366
100
AcDbEntity
  8
SK2
 62
     0
370
    -2
100
AcDbLine
 10
141.7880146128643
 20
96.16698734865288
 30
0.0
 11
223.7880146128643
 21
96.16698734865288
 31
0.0
  0
SOLID
  5
36B
330
366
100
AcDbEntity
  8
SK2
 62
     0
100
AcDbTrace
 10
141.7880146128643
 20
96.58365401531955
 30
0.0
 11
141.7880146128643
 21
95.75032068198621
 31
0.0
 12
139.2880146128643
 22
96.16698734865288
 32
0.0
 13
139.2880146128643
 23
96.16698734865288
 33
0.0
  0
SOLID
  5
36C
330
366
100
AcDbEntity
  8
SK2
 62
     0
100
AcDbTrace
 10
223.7880146128643
 20
95.75032068198621
 30
0.0
 11
223.7880146128643
 21
96.58365401531955
 31
0.0
 12
226.2880146128643
 22
96.16698734865288
 32
0.0
 13
226.2880146128643
 23
96.16698734865288
 33
0.0
  0
MTEXT
  5
36D
330
366
100
AcDbEntity
  8
SK2
 62
     0
100
AcDbMText
 10
184.2231102727423
 20
98.04198734865288
 30
0.0
 40
2.5
 41
0.0
 46
0.0
 71
     5
 72
     1
  1
87
 73
     1
 44
1.0
  0
POINT
  5
36E
330
366
100
AcDbEntity
  8
Defpoints
 62
     0
100
AcDbPoint
 10
139.2880146128643
 20
24.16698734865288
 30
0.0
  0
POINT
  5
36F
330
366
100
AcDbEntity
  8
Defpoints
 62
     0
100
AcDbPoint
 10
226.2880146128643
 20
25.16698734865288
 30
0.0
  0
POINT
  5
370
330
366
100
AcDbEntity
  8
Defpoints
 62
     0
100
AcDbPoint
 10
226.2880146128643
 20
96.16698734865288
 30
0.0
  0
ENDBLK
  5
371
330
366
100
AcDbEntity
  8
0
100
AcDbBlockEnd
  0
BLOCK
  5
376
330
375
100
AcDbEntity
  8
0
100
AcDbBlockBegin
  2
*D8
 70
     1
 10
0.0
 20
0.0
 30
0.0
  3
*D8
  1

  0
LINE
  5
377
330
375
100
AcDbEntity
  8
2
 62
     0
370
    -2
100
AcDbLine
 10
226.2880146128643
 20
25.79198734865288
 30
0.0
 11
226.2880146128643
 21
82.41698734865288
 31
0.0
  0
LINE
  5
378
330
375
100
AcDbEntity
  8
2
 62
     0
370
    -2
100
AcDbLine
 10
178.2880146128643
 20
21.79198734865288
 30
0.0
 11
178.2880146128643
 21
82.41698734865288
 31
0.0
  0
LINE
  5
379
330
375
100
AcDbEntity
  8
2
 62
     0
370
    -2
100
AcDbLine
 10
223.7880146128643
 20
81.16698734865288
 30
0.0
 11
180.7880146128643
 21
81.16698734865288
 31
0.0
  0
SOLID
  5
37A
330
375
100
AcDbEntity
  8
2
 62
     0
100
AcDbTrace
 10
223.7880146128643
 20
80.75032068198621
 30
0.0
 11
223.7880146128643
 21
81.58365401531955
 31
0.0
 12
226.2880146128643
 22
81.16698734865288
 32
0.0
 13
226.2880146128643
 23
81.16698734865288
 33
0.0
  0
SOLID
  5
37B
330
375
100
AcDbEntity
  8
2
 62
     0
100
AcDbTrace
 10
180.7880146128643
 20
81.58365401531955
 30
0.0
 11
180.7880146128643
 21
80.75032068198621
 31
0.0
 12
178.2880146128643
 22
81.16698734865288
 32
0.0
 13
178.2880146128643
 23
81.16698734865288
 33
0.0
  0
MTEXT
  5
37C
330
375
100
AcDbEntity
  8
2
 62
     0
100
AcDbMText
 10
200.8529189529861
 20
83.04198734865288
 30
0.0
 40
2.5
 41
0.0
 46
0.0
 71
     5
 72
     1
  1
48
 73
     1
 44
1.0
  0
POINT
  5
37D
330
375
100
AcDbEntity
  8
Defpoints
 62
     0
100
AcDbPoint
 10
226.2880146128643
 20
25.16698734865288
 30
0.0
  0
POINT
  5
37E
330
375
100
AcDbEntity
  8
Defpoints
 62
     0
100
AcDbPoint
 10
178.2880146128643
 20
21.16698734865288
 30
0.0
  0
POINT
  5
37F
330
375
100
AcDbEntity
  8
Defpoints
 62
     0
100
AcDbPoint
 10
178.2880146128643
 20
81.16698734865288
 30
0.0
  0
ENDBLK
  5
380
330
375
100
AcDbEntity
  8
0
100
AcDbBlockEnd
  0
BLOCK
  5
430
330
42F
100
AcDbEntity
  8
0
100
AcDbBlockBegin
  2
*D9
 70
     1
 10
0.0
 20
0.0
 30
0.0
  3
*D9
  1

  0
LINE
  5
432
330
42F
100
AcDbEntity
  8
SK2
 62
     0
370
    -2
100
AcDbLine
 10
212.8503124130017
 20
129.8048384761512
 30
0.0
 11
228.8753124130017
 21
129.8048384761512
 31
0.0
  0
LINE
  5
433
330
42F
100
AcDbEntity
  8
SK2
 62
     0
370
    -2
100
AcDbLine
 10
214.8189804256017
 20
120.9548384740512
 30
0.0
 11
228.8753124130017
 21
120.9548384740512
 31
0.0
  0
LINE
  5
434
330
42F
100
AcDbEntity
  8
SK2
 62
     0
370
    -2
100
AcDbLine
 10
227.6253124130017
 20
129.8048384761512
 30
0.0
 11
227.6253124130017
 21
144.2983384761512
 31
0.0
  0
LINE
  5
435
330
42F
100
AcDbEntity
  8
SK2
 62
     0
370
    -2
100
AcDbLine
 10
227.6253124130017
 20
129.8048384761512
 30
0.0
 11
227.6253124130017
 21
120.9548384740512
 31
0.0
  0
LINE
  5
436
330
42F
100
AcDbEntity
  8
SK2
 62
     0
370
    -2
100
AcDbLine
 10
227.6253124130017
 20
132.3048384761512
 30
0.0
 11
227.6253124130017
 21
134.8048384761512
 31
0.0
  0
LINE
  5
437
330
42F
100
AcDbEntity
  8
SK2
 62
     0
370
    -2
100
AcDbLine
 10
227.6253124130017
 20
118.4548384740512
 30
0.0
 11
227.6253124130017
 21
115.9548384740512
 31
0.0
  0
SOLID
  5
438
330
42F
100
AcDbEntity
  8
SK2
 62
     0
100
AcDbTrace
 10
227.208645746335
 20
132.3048384761512
 30
0.0
 11
228.0419790796684
 21
132.3048384761512
 31
0.0
 12
227.6253124130017
 22
129.8048384761512
 32
0.0
 13
227.6253124130017
 23
129.8048384761512
 33
0.0
  0
SOLID
  5
439
330
42F
100
AcDbEntity
  8
SK2
 62
     0
100
AcDbTrace
 10
228.0419790796684
 20
118.4548384740512
 30
0.0
 11
227.208645746335
 21
118.4548384740512
 31
0.0
 12
227.6253124130017
 22
120.9548384740512
 32
0.0
 13
227.6253124130017
 23
120.9548384740512
 33
0.0
  0
MTEXT
  5
43A
330
42F
100
AcDbEntity
  8
SK2
 62
     0
100
AcDbMText
 10
224.5003124130017
 20
139.9233384761512
 30
0.0
 40
2.5
 41
0.0
 46
0.0
 71
     2
 72
     1
  1
8.85^J
 11
0.0
 21
1.0
 31
0.0
 73
     1
 44
1.0
  0
POINT
  5
43B
330
42F
100
AcDbEntity
  8
Defpoints
 62
     0
100
AcDbPoint
 10
212.2253124130017
 20
129.8048384761512
 30
0.0
  0
POINT
  5
43C
330
42F
100
AcDbEntity
  8
Defpoints
 62
     0
100
AcDbPoint
 10
214.1939804256017
 20
120.9548384740512
 30
0.0
  0
POINT
  5
43D
330
42F
100
AcDbEntity
  8
Defpoints
 62
     0
100
AcDbPoint
 10
227.6253124130017
 20
120.9548384740512
 30
0.0
  0
ENDBLK
  5
431
330
42F
100
AcDbEntity
  8
0
100
AcDbBlockEnd
  0
BLOCK
  5
43F
330
43E
100
AcDbEntity
  8
0
100
AcDbBlockBegin
  2
*D10
 70
     1
 10
0.0
 20
0.0
 30
0.0
  3
*D10
  1

  0
LINE
  5
441
330
43E
100
AcDbEntity
  8
2
 62
     0
370
    -2
100
AcDbLine
 10
185.6225657687017
 20
129.0798384740512
 30
0.0
 11
185.6225657687017
 21
197.2048384740512
 31
0.0
  0
LINE
  5
442
330
43E
100
AcDbEntity
  8
2
 62
     0
370
    -2
100
AcDbLine
 10
212.6253124130017
 20
130.0298384761512
 30
0.0
 11
212.6253124130017
 21
197.2048384740512
 31
0.0
  0
LINE
  5
443
330
43E
100
AcDbEntity
  8
2
 62
     0
370
    -2
100
AcDbLine
 10
188.1225657687017
 20
195.9548384740512
 30
0.0
 11
210.1253124130017
 21
195.9548384740512
 31
0.0
  0
SOLID
  5
444
330
43E
100
AcDbEntity
  8
2
 62
     0
100
AcDbTrace
 10
188.1225657687017
 20
196.3715051407179
 30
0.0
 11
188.1225657687017
 21
195.5381718073846
 31
0.0
 12
185.6225657687017
 22
195.9548384740512
 32
0.0
 13
185.6225657687017
 23
195.9548384740512
 33
0.0
  0
SOLID
  5
445
330
43E
100
AcDbEntity
  8
2
 62
     0
100
AcDbTrace
 10
210.1253124130017
 20
195.5381718073846
 30
0.0
 11
210.1253124130017
 21
196.3715051407179
 31
0.0
 12
212.6253124130017
 22
195.9548384740512
 32
0.0
 13
212.6253124130017
 23
195.9548384740512
 33
0.0
  0
MTEXT
  5
446
330
43E
100
AcDbEntity
  8
2
 62
     0
100
AcDbMText
 10
196.6245846017268
 20
199.0798384740512
 30
0.0
 40
2.5
 41
0.0
 46
0.0
 71
     2
 72
     1
  1
27^J
 73
     1
 44
1.0
  0
POINT
  5
447
330
43E
100
AcDbEntity
  8
Defpoints
 62
     0
100
AcDbPoint
 10
185.6225657687017
 20
128.4548384740512
 30
0.0
  0
POINT
  5
448
330
43E
100
AcDbEntity
  8
Defpoints
 62
     0
100
AcDbPoint
 10
212.6253124130017
 20
129.4048384761512
 30
0.0
  0
POINT
  5
449
330
43E
100
AcDbEntity
  8
Defpoints
 62
     0
100
AcDbPoint
 10
212.6253124130017
 20
195.9548384740512
 30
0.0
  0
ENDBLK
  5
440
330
43E
100
AcDbEntity
  8
0
100
AcDbBlockEnd
  0
BLOCK
  5
44B
330
44A
100
AcDbEntity
  8
0
100
AcDbBlockBegin
  2
*D11
 70
     1
 10
0.0
 20
0.0
 30
0.0
  3
*D11
  1

  0
LINE
  5
44D
330
44A
100
AcDbEntity
  8
SK2
 62
     0
370
    -2
100
AcDbLine
 10
185.4975657687017
 20
128.9548384740512
 30
0.0
 11
169.3725657687017
 21
128.9548384740512
 31
0.0
  0
LINE
  5
44E
330
44A
100
AcDbEntity
  8
SK2
 62
     0
370
    -2
100
AcDbLine
 10
185.4975657687017
 20
112.9548384740512
 30
0.0
 11
169.3725657687017
 21
112.9548384740512
 31
0.0
  0
LINE
  5
44F
330
44A
100
AcDbEntity
  8
SK2
 62
     0
370
    -2
100
AcDbLine
 10
170.6225657687017
 20
126.4548384740512
 30
0.0
 11
170.6225657687017
 21
115.4548384740512
 31
0.0
  0
SOLID
  5
450
330
44A
100
AcDbEntity
  8
SK2
 62
     0
100
AcDbTrace
 10
171.0392324353683
 20
126.4548384740512
 30
0.0
 11
170.205899102035
 21
126.4548384740512
 31
0.0
 12
170.6225657687017
 22
128.9548384740512
 32
0.0
 13
170.6225657687017
 23
128.9548384740512
 33
0.0
  0
SOLID
  5
451
330
44A
100
AcDbEntity
  8
SK2
 62
     0
100
AcDbTrace
 10
170.205899102035
 20
115.4548384740512
 30
0.0
 11
171.0392324353683
 21
115.4548384740512
 31
0.0
 12
170.6225657687017
 22
112.9548384740512
 32
0.0
 13
170.6225657687017
 23
112.9548384740512
 33
0.0
  0
MTEXT
  5
452
330
44A
100
AcDbEntity
  8
SK2
 62
     0
100
AcDbMText
 10
167.4975657687017
 20
121.5272096727317
 30
0.0
 40
2.5
 41
0.0
 46
0.0
 71
     2
 72
     1
  1
ø16
 11
0.0
 21
1.0
 31
0.0
 73
     1
 44
1.0
  0
POINT
  5
453
330
44A
100
AcDbEntity
  8
Defpoints
 62
     0
100
AcDbPoint
 10
186.1225657687017
 20
128.9548384740512
 30
0.0
  0
POINT
  5
454
330
44A
100
AcDbEntity
  8
Defpoints
 62
     0
100
AcDbPoint
 10
186.1225657687017
 20
112.9548384740512
 30
0.0
  0
POINT
  5
455
330
44A
100
AcDbEntity
  8
Defpoints
 62
     0
100
AcDbPoint
 10
170.6225657687017
 20
112.9548384740512
 30
0.0
  0
ENDBLK
  5
44C
330
44A
100
AcDbEntity
  8
0
100
AcDbBlockEnd
  0
BLOCK
  5
457
330
456
100
AcDbEntity
  8
0
100
AcDbBlockBegin
  2
*D12
 70
     1
 10
0.0
 20
0.0
 30
0.0
  3
*D12
  1

  0
LINE
  5
459
330
456
100
AcDbEntity
  8
SK2
 62
     0
370
    -2
100
AcDbLine
 10
394.5692888457128
 20
104.597860482241
 30
0.0
 11
410.7942873157129
 21
104.597860482241
 31
0.0
  0
LINE
  5
45A
330
456
100
AcDbEntity
  8
SK2
 62
     0
370
    -2
100
AcDbLine
 10
394.5692888457128
 20
109.597860482241
 30
0.0
 11
410.7942873157129
 21
109.597860482241
 31
0.0
  0
LINE
  5
45B
330
456
100
AcDbEntity
  8
SK2
 62
     0
370
    -2
100
AcDbLine
 10
409.5442873157129
 20
109.597860482241
 30
0.0
 11
409.5442873157129
 21
120.8672510400107
 31
0.0
  0
LINE
  5
45C
330
456
100
AcDbEntity
  8
SK2
 62
     0
370
    -2
100
AcDbLine
 10
409.5442873157129
 20
104.597860482241
 30
0.0
 11
409.5442873157129
 21
109.597860482241
 31
0.0
  0
LINE
  5
45D
330
456
100
AcDbEntity
  8
SK2
 62
     0
370
    -2
100
AcDbLine
 10
409.5442873157129
 20
102.097860482241
 30
0.0
 11
409.5442873157129
 21
99.59786048224103
 31
0.0
  0
LINE
  5
45E
330
456
100
AcDbEntity
  8
SK2
 62
     0
370
    -2
100
AcDbLine
 10
409.5442873157129
 20
112.097860482241
 30
0.0
 11
409.5442873157129
 21
114.597860482241
 31
0.0
  0
SOLID
  5
45F
330
456
100
AcDbEntity
  8
SK2
 62
     0
100
AcDbTrace
 10
409.9609539823796
 20
102.097860482241
 30
0.0
 11
409.1276206490462
 21
102.097860482241
 31
0.0
 12
409.5442873157129
 22
104.597860482241
 32
0.0
 13
409.5442873157129
 23
104.597860482241
 33
0.0
  0
SOLID
  5
460
330
456
100
AcDbEntity
  8
SK2
 62
     0
100
AcDbTrace
 10
409.1276206490462
 20
112.097860482241
 30
0.0
 11
409.9609539823796
 21
112.097860482241
 31
0.0
 12
409.5442873157129
 22
109.597860482241
 32
0.0
 13
409.5442873157129
 23
109.597860482241
 33
0.0
  0
MTEXT
  5
461
330
456
100
AcDbEntity
  8
SK2
 62
     0
100
AcDbMText
 10
407.6692873157129
 20
118.1589177066774
 30
0.0
 40
2.5
 41
0.0
 46
0.0
 71
     5
 72
     1
  1
M5
 11
0.0
 21
1.0
 31
0.0
 73
     1
 44
1.0
  0
POINT
  5
462
330
456
100
AcDbEntity
  8
Defpoints
 62
     0
100
AcDbPoint
 10
393.9442888457128
 20
104.597860482241
 30
0.0
  0
POINT
  5
463
330
456
100
AcDbEntity
  8
Defpoints
 62
     0
100
AcDbPoint
 10
393.9442888457128
 20
109.597860482241
 30
0.0
  0
POINT
  5
464
330
456
100
AcDbEntity
  8
Defpoints
 62
     0
100
AcDbPoint
 10
409.5442873157129
 20
109.597860482241
 30
0.0
  0
ENDBLK
  5
458
330
456
100
AcDbEntity
  8
0
100
AcDbBlockEnd
  0
BLOCK
  5
466
330
465
100
AcDbEntity
  8
0
100
AcDbBlockBegin
  2
*D13
 70
     1
 10
0.0
 20
0.0
 30
0.0
  3
*D13
  1

  0
LINE
  5
468
330
465
100
AcDbEntity
  8
SK2
 62
     0
370
    -2
100
AcDbLine
 10
302.9192873157128
 20
103.097852852241
 30
0.0
 11
286.2942873157128
 21
103.097852852241
 31
0.0
  0
LINE
  5
469
330
465
100
AcDbEntity
  8
SK2
 62
     0
370
    -2
100
AcDbLine
 10
302.9192873157128
 20
111.097860482241
 30
0.0
 11
286.2942873157128
 21
111.097860482241
 31
0.0
  0
LINE
  5
46A
330
465
100
AcDbEntity
  8
SK2
 62
     0
370
    -2
100
AcDbLine
 10
287.5442873157128
 20
103.097852852241
 30
0.0
 11
287.5442873157128
 21
111.097860482241
 31
0.0
  0
LINE
  5
46B
330
465
100
AcDbEntity
  8
SK2
 62
     0
370
    -2
100
AcDbLine
 10
287.5442873157128
 20
100.597852852241
 30
0.0
 11
287.5442873157128
 21
98.09785285224103
 31
0.0
  0
LINE
  5
46C
330
465
100
AcDbEntity
  8
SK2
 62
     0
370
    -2
100
AcDbLine
 10
287.5442873157128
 20
113.597860482241
 30
0.0
 11
287.5442873157128
 21
116.097860482241
 31
0.0
  0
SOLID
  5
46D
330
465
100
AcDbEntity
  8
SK2
 62
     0
100
AcDbTrace
 10
287.9609539823795
 20
100.597852852241
 30
0.0
 11
287.1276206490462
 21
100.597852852241
 31
0.0
 12
287.5442873157128
 22
103.097852852241
 32
0.0
 13
287.5442873157128
 23
103.097852852241
 33
0.0
  0
SOLID
  5
46E
330
465
100
AcDbEntity
  8
SK2
 62
     0
100
AcDbTrace
 10
287.1276206490462
 20
113.597860482241
 30
0.0
 11
287.9609539823795
 21
113.597860482241
 31
0.0
 12
287.5442873157128
 22
111.097860482241
 32
0.0
 13
287.5442873157128
 23
111.097860482241
 33
0.0
  0
MTEXT
  5
46F
330
465
100
AcDbEntity
  8
SK2
 62
     0
100
AcDbMText
 10
285.6692873157128
 20
106.8631965714006
 30
0.0
 40
2.5
 41
0.0
 46
0.0
 71
     5
 72
     1
  1
8
 11
0.0
 21
1.0
 31
0.0
 73
     1
 44
1.0
  0
POINT
  5
470
330
465
100
AcDbEntity
  8
Defpoints
 62
     0
100
AcDbPoint
 10
303.5442873157128
 20
103.097852852241
 30
0.0
  0
POINT
  5
471
330
465
100
AcDbEntity
  8
Defpoints
 62
     0
100
AcDbPoint
 10
303.5442873157128
 20
111.097860482241
 30
0.0
  0
POINT
  5
472
330
465
100
AcDbEntity
  8
Defpoints
 62
     0
100
AcDbPoint
 10
287.5442873157128
 20
111.097860482241
 30
0.0
  0
ENDBLK
  5
467
330
465
100
AcDbEntity
  8
0
100
AcDbBlockEnd
  0
BLOCK
  5
474
330
473
100
AcDbEntity
  8
0
100
AcDbBlockBegin
  2
*D14
 70
     1
 10
0.0
 20
0.0
 30
0.0
  3
*D14
  1

  0
LINE
  5
476
330
473
100
AcDbEntity
  8
SK2
 62
     0
370
    -2
100
AcDbLine
 10
394.5442873157129
 20
109.622854372241
 30
0.0
 11
394.5442873157129
 21
198.347860482241
 31
0.0
  0
LINE
  5
477
330
473
100
AcDbEntity
  8
SK2
 62
     0
370
    -2
100
AcDbLine
 10
302.5442873157128
 20
110.722860482241
 30
0.0
 11
302.5442873157128
 21
198.347860482241
 31
0.0
  0
LINE
  5
478
330
473
100
AcDbEntity
  8
SK2
 62
     0
370
    -2
100
AcDbLine
 10
392.0442873157129
 20
197.097860482241
 30
0.0
 11
305.0442873157128
 21
197.097860482241
 31
0.0
  0
SOLID
  5
479
330
473
100
AcDbEntity
  8
SK2
 62
     0
100
AcDbTrace
 10
392.0442873157129
 20
196.6811938155744
 30
0.0
 11
392.0442873157129
 21
197.5145271489077
 31
0.0
 12
394.5442873157129
 22
197.097860482241
 32
0.0
 13
394.5442873157129
 23
197.097860482241
 33
0.0
  0
SOLID
  5
47A
330
473
100
AcDbEntity
  8
SK2
 62
     0
100
AcDbTrace
 10
305.0442873157128
 20
197.5145271489077
 30
0.0
 11
305.0442873157128
 21
196.6811938155744
 31
0.0
 12
302.5442873157128
 22
197.097860482241
 32
0.0
 13
302.5442873157128
 23
197.097860482241
 33
0.0
  0
MTEXT
  5
47B
330
473
100
AcDbEntity
  8
SK2
 62
     0
100
AcDbMText
 10
344.8785555005554
 20
198.972860482241
 30
0.0
 40
2.5
 41
0.0
 46
0.0
 71
     5
 72
     1
  1
92
 73
     1
 44
1.0
  0
POINT
  5
47C
330
473
100
AcDbEntity
  8
Defpoints
 62
     0
100
AcDbPoint
 10
394.5442873157129
 20
108.997854372241
 30
0.0
  0
POINT
  5
47D
330
473
100
AcDbEntity
  8
Defpoints
 62
     0
100
AcDbPoint
 10
302.5442873157128
 20
110.097860482241
 30
0.0
  0
POINT
  5
47E
330
473
100
AcDbEntity
  8
Defpoints
 62
     0
100
AcDbPoint
 10
302.5442873157128
 20
197.097860482241
 30
0.0
  0
ENDBLK
  5
475
330
473
100
AcDbEntity
  8
0
100
AcDbBlockEnd
  0
BLOCK
  5
480
330
47F
100
AcDbEntity
  8
0
100
AcDbBlockBegin
  2
*D15
 70
     1
 10
0.0
 20
0.0
 30
0.0
  3
*D15
  1

  0
LINE
  5
482
330
47F
100
AcDbEntity
  8
SK2
 62
     0
370
    -2
100
AcDbLine
 10
302.5442873157128
 20
110.722860482241
 30
0.0
 11
302.5442873157128
 21
183.347860482241
 31
0.0
  0
LINE
  5
483
330
47F
100
AcDbEntity
  8
SK2
 62
     0
370
    -2
100
AcDbLine
 10
389.5442873157129
 20
111.722860482241
 30
0.0
 11
389.5442873157129
 21
183.347860482241
 31
0.0
  0
LINE
  5
484
330
47F
100
AcDbEntity
  8
SK2
 62
     0
370
    -2
100
AcDbLine
 10
305.0442873157128
 20
182.097860482241
 30
0.0
 11
387.0442873157129
 21
182.097860482241
 31
0.0
  0
SOLID
  5
485
330
47F
100
AcDbEntity
  8
SK2
 62
     0
100
AcDbTrace
 10
305.0442873157128
 20
182.5145271489077
 30
0.0
 11
305.0442873157128
 21
181.6811938155744
 31
0.0
 12
302.5442873157128
 22
182.097860482241
 32
0.0
 13
302.5442873157128
 23
182.097860482241
 33
0.0
  0
SOLID
  5
486
330
47F
100
AcDbEntity
  8
SK2
 62
     0
100
AcDbTrace
 10
387.0442873157129
 20
181.6811938155744
 30
0.0
 11
387.0442873157129
 21
182.5145271489077
 31
0.0
 12
389.5442873157129
 22
182.097860482241
 32
0.0
 13
389.5442873157129
 23
182.097860482241
 33
0.0
  0
MTEXT
  5
487
330
47F
100
AcDbEntity
  8
SK2
 62
     0
100
AcDbMText
 10
347.479382975591
 20
183.972860482241
 30
0.0
 40
2.5
 41
0.0
 46
0.0
 71
     5
 72
     1
  1
87
 73
     1
 44
1.0
  0
POINT
  5
488
330
47F
100
AcDbEntity
  8
Defpoints
 62
     0
100
AcDbPoint
 10
302.5442873157128
 20
110.097860482241
 30
0.0
  0
POINT
  5
489
330
47F
100
AcDbEntity
  8
Defpoints
 62
     0
100
AcDbPoint
 10
389.5442873157129
 20
111.097860482241
 30
0.0
  0
POINT
  5
48A
330
47F
100
AcDbEntity
  8
Defpoints
 62
     0
100
AcDbPoint
 10
389.5442873157129
 20
182.097860482241
 30
0.0
  0
ENDBLK
  5
481
330
47F
100
AcDbEntity
  8
0
100
AcDbBlockEnd
  0
BLOCK
  5
48C
330
48B
100
AcDbEntity
  8
0
100
AcDbBlockBegin
  2
*D16
 70
     1
 10
0.0
 20
0.0
 30
0.0
  3
*D16
  1

  0
LINE
  5
48E
330
48B
100
AcDbEntity
  8
2
 62
     0
370
    -2
100
AcDbLine
 10
389.5442873157129
 20
111.722860482241
 30
0.0
 11
389.5442873157129
 21
168.347860482241
 31
0.0
  0
LINE
  5
48F
330
48B
100
AcDbEntity
  8
2
 62
     0
370
    -2
100
AcDbLine
 10
341.5442873157128
 20
107.722860482241
 30
0.0
 11
341.5442873157128
 21
168.347860482241
 31
0.0
  0
LINE
  5
490
330
48B
100
AcDbEntity
  8
2
 62
     0
370
    -2
100
AcDbLine
 10
387.0442873157129
 20
167.097860482241
 30
0.0
 11
344.0442873157128
 21
167.097860482241
 31
0.0
  0
SOLID
  5
491
330
48B
100
AcDbEntity
  8
2
 62
     0
100
AcDbTrace
 10
387.0442873157129
 20
166.6811938155744
 30
0.0
 11
387.0442873157129
 21
167.5145271489077
 31
0.0
 12
389.5442873157129
 22
167.097860482241
 32
0.0
 13
389.5442873157129
 23
167.097860482241
 33
0.0
  0
SOLID
  5
492
330
48B
100
AcDbEntity
  8
2
 62
     0
100
AcDbTrace
 10
344.0442873157128
 20
167.5145271489077
 30
0.0
 11
344.0442873157128
 21
166.6811938155744
 31
0.0
 12
341.5442873157128
 22
167.097860482241
 32
0.0
 13
341.5442873157128
 23
167.097860482241
 33
0.0
  0
MTEXT
  5
493
330
48B
100
AcDbEntity
  8
2
 62
     0
100
AcDbMText
 10
364.1091916558347
 20
168.972860482241
 30
0.0
 40
2.5
 41
0.0
 46
0.0
 71
     5
 72
     1
  1
48
 73
     1
 44
1.0
  0
POINT
  5
494
330
48B
100
AcDbEntity
  8
Defpoints
 62
     0
100
AcDbPoint
 10
389.5442873157129
 20
111.097860482241
 30
0.0
  0
POINT
  5
495
330
48B
100
AcDbEntity
  8
Defpoints
 62
     0
100
AcDbPoint
 10
341.5442873157128
 20
107.097860482241
 30
0.0
  0
POINT
  5
496
330
48B
100
AcDbEntity
  8
Defpoints
 62
     0
100
AcDbPoint
 10
341.5442873157128
 20
167.097860482241
 30
0.0
  0
ENDBLK
  5
48D
330
48B
100
AcDbEntity
  8
0
100
AcDbBlockEnd
  0
ENDSEC
  0
SECTION
  2
ENTITIES
  0
LINE
  5
29
330
1D
100
AcDbEntity
  8
1
  6
Continuous
370
    50
100
AcDbLine
 10
46.0
 20
0.0
 30
0.0
 11
46.0
 21
66.83979415900001
 31
0.0
  0
LINE
  5
2A
330
1D
100
AcDbEntity
  8
1
  6
Continuous
370
    50
100
AcDbLine
 10
46.0
 20
66.83979415900001
 30
0.0
 11
40.698670627
 21
76.021968095
 31
0.0
  0
ARC
  5
2B
330
1D
100
AcDbEntity
  8
1
  6
Continuous
370
    50
100
AcDbCircle
 10
39.399627686
 20
75.271976471
 30
0.0
 40
1.5
100
AcDbArc
 50
29.99963056999984
 51
99.94285895899988
  0
ARC
  5
2C
330
1D
100
AcDbEntity
  8
1
  6
Continuous
370
    50
100
AcDbCircle
 10
25.499984741
 20
154.563098908
 30
0.0
 40
79.000213236
100
AcDbArc
 50
259.054632838
 51
279.942858959
  0
LINE
  5
2D
330
1D
100
AcDbEntity
  8
1
  6
Continuous
370
    50
100
AcDbLine
 10
46.0
 20
63.032875715
 30
0.0
 11
40.499984741
 21
72.55922619900001
 31
0.0
  0
LINE
  5
2E
330
1D
100
AcDbEntity
  8
1
  6
Continuous
370
    50
100
AcDbLine
 10
40.499984741
 20
72.55922619900001
 30
0.0
 11
19.0
 21
69.309188843
 31
0.0
  0
LINE
  5
2F
330
1D
100
AcDbEntity
  8
4
100
AcDbLine
 10
20.664678699
 20
32.00000381500001
 30
0.0
 11
29.924041688
 21
32.00000381500001
 31
0.0
  0
LINE
  5
30
330
1D
100
AcDbEntity
  8
1
  6
Continuous
370
    50
100
AcDbLine
 10
40.499984741
 20
76.291395105
 30
0.0
 11
40.499984741
 21
72.55922619900001
 31
0.0
  0
LINE
  5
31
330
1D
100
AcDbEntity
  8
4
100
AcDbLine
 10
25.499985004
 20
81.303767253
 30
0.0
 11
25.499987366
 21
-5.865977783999995
 31
0.0
  0
LINE
  5
32
330
1D
100
AcDbEntity
  8
1
  6
Continuous
370
    50
100
AcDbLine
 10
19.0
 20
26.684839779
 30
0.0
 11
19.0
 21
69.22040391600001
 31
0.0
  0
LINE
  5
33
330
1D
100
AcDbEntity
  8
4
100
AcDbLine
 10
38.004803279
 20
13.50001144400001
 30
0.0
 11
12.995166204
 21
13.50001144400001
 31
0.0
  0
CIRCLE
  5
34
330
1D
100
AcDbEntity
  8
1
  6
Continuous
370
    50
100
AcDbCircle
 10
25.499984741
 20
46.00006485
 30
0.0
 40
5.25
  0
CIRCLE
  5
35
330
1D
100
AcDbEntity
  8
1
  6
Continuous
370
    50
100
AcDbCircle
 10
25.499984741
 20
32.00000381500001
 30
0.0
 40
3.100036621
  0
CIRCLE
  5
36
330
1D
100
AcDbEntity
  8
1
  6
Continuous
370
    50
100
AcDbCircle
 10
25.499984741
 20
32.00000381500001
 30
0.0
 40
2.400016784
  0
CIRCLE
  5
37
330
1D
100
AcDbEntity
  8
1
  6
Continuous
370
    50
100
AcDbCircle
 10
25.499984741
 20
32.00000381500001
 30
0.0
 40
2.0
  0
LINE
  5
38
330
1D
100
AcDbEntity
  8
3
  6
DASH
370
    35
100
AcDbLine
 10
10.499980104
 20
77.000003815
 30
0.0
 11
10.499980104
 21
4.630016327000007
 31
0.0
  0
LINE
  5
39
330
1D
100
AcDbEntity
  8
3
  6
DASH
370
    35
100
AcDbLine
 10
7.999934327
 20
4.630016327000007
 30
0.0
 11
7.999934327
 21
0.0
 31
0.0
  0
LINE
  5
3A
330
1D
100
AcDbEntity
  8
3
  6
DASH
370
    35
100
AcDbLine
 10
7.999934327
 20
4.630016327000007
 30
0.0
 11
42.999934327
 21
4.630016327000007
 31
0.0
  0
LINE
  5
3B
330
1D
100
AcDbEntity
  8
3
  6
DASH
370
    35
100
AcDbLine
 10
42.999934327
 20
0.0
 30
0.0
 11
42.999934327
 21
4.630016327000007
 31
0.0
  0
LINE
  5
3C
330
1D
100
AcDbEntity
  8
3
  6
DASH
370
    35
100
AcDbLine
 10
40.499987733
 20
4.630016327000007
 30
0.0
 11
40.499987733
 21
72.559221017
 31
0.0
  0
CIRCLE
  5
3D
330
1D
100
AcDbEntity
  8
1
  6
Continuous
370
    50
100
AcDbCircle
 10
25.499984741
 20
13.50001144400001
 30
0.0
 40
7.65
  0
CIRCLE
  5
3E
330
1D
100
AcDbEntity
  8
1
  6
Continuous
370
    50
100
AcDbCircle
 10
25.499984741
 20
13.50001144400001
 30
0.0
 40
4.973126501
  0
CIRCLE
  5
3F
330
1D
100
AcDbEntity
  8
1
  6
Continuous
370
    50
100
AcDbCircle
 10
25.499984741
 20
46.00006485
 30
0.0
 40
4.099999905
  0
LINE
  5
40
330
1D
100
AcDbEntity
  8
4
100
AcDbLine
 10
31.515375657
 20
46.00006485
 30
0.0
 11
19.450466074
 21
46.00006485
 31
0.0
  0
LINE
  5
41
330
1D
100
AcDbEntity
  8
1
  6
Continuous
370
    50
100
AcDbLine
 10
25.499984741
 20
48.88681619600001
 30
0.0
 11
22.999984741
 21
47.44344052300001
 31
0.0
  0
LINE
  5
42
330
1D
100
AcDbEntity
  8
1
  6
Continuous
370
    50
100
AcDbLine
 10
22.999984741
 20
47.44344052300001
 30
0.0
 11
22.999984741
 21
44.556689177
 31
0.0
  0
LINE
  5
43
330
1D
100
AcDbEntity
  8
1
  6
Continuous
370
    50
100
AcDbLine
 10
22.999984741
 20
44.556689177
 30
0.0
 11
25.499984741
 21
43.113313504
 31
0.0
  0
LINE
  5
44
330
1D
100
AcDbEntity
  8
1
  6
Continuous
370
    50
100
AcDbLine
 10
25.499984741
 20
43.113313504
 30
0.0
 11
27.999984741
 21
44.556689177
 31
0.0
  0
LINE
  5
45
330
1D
100
AcDbEntity
  8
1
  6
Continuous
370
    50
100
AcDbLine
 10
27.999984741
 20
44.556689177
 30
0.0
 11
27.999984741
 21
47.44344052300001
 31
0.0
  0
LINE
  5
46
330
1D
100
AcDbEntity
  8
1
  6
Continuous
370
    50
100
AcDbLine
 10
27.999984741
 20
47.44344052300001
 30
0.0
 11
25.499984741
 21
48.88681619600001
 31
0.0
  0
CIRCLE
  5
47
330
1D
100
AcDbEntity
  8
1
  6
Continuous
370
    50
100
AcDbCircle
 10
25.499984741
 20
13.50001144400001
 30
0.0
 40
4.5
  0
CIRCLE
  5
48
330
1D
100
AcDbEntity
  8
1
  6
Continuous
370
    50
100
AcDbCircle
 10
25.499984741
 20
7.500011444000009
 30
0.0
 40
0.800003052
  0
CIRCLE
  5
49
330
1D
100
AcDbEntity
  8
1
  6
Continuous
370
    50
100
AcDbCircle
 10
25.499984741
 20
19.500011444
 30
0.0
 40
0.800003052
  0
LINE
  5
4A
330
1D
100
AcDbEntity
  8
4
100
AcDbLine
 10
27.800393566
 20
7.500011444000009
 30
0.0
 11
23.199575917
 21
7.500011444000009
 31
0.0
  0
LINE
  5
4B
330
1D
100
AcDbEntity
  8
4
100
AcDbLine
 10
27.800393566
 20
19.500011444
 30
0.0
 11
23.199575917
 21
19.500011444
 31
0.0
  0
CIRCLE
  5
4C
330
1D
100
AcDbEntity
  8
1
  6
Continuous
370
    50
100
AcDbCircle
 10
25.499984741
 20
13.50001144400001
 30
0.0
 40
7.9
  0
LINE
  5
4D
330
1D
100
AcDbEntity
  8
1
  6
Continuous
370
    50
100
AcDbLine
 10
22.613233396
 20
13.50001144400001
 30
0.0
 11
24.056609068
 21
11.00001144400001
 31
0.0
  0
LINE
  5
4E
330
1D
100
AcDbEntity
  8
1
  6
Continuous
370
    50
100
AcDbLine
 10
24.056609068
 20
11.00001144400001
 30
0.0
 11
26.943360414
 21
11.00001144400001
 31
0.0
  0
LINE
  5
4F
330
1D
100
AcDbEntity
  8
1
  6
Continuous
370
    50
100
AcDbLine
 10
26.943360414
 20
11.00001144400001
 30
0.0
 11
28.386736087
 21
13.50001144400001
 31
0.0
  0
LINE
  5
50
330
1D
100
AcDbEntity
  8
1
  6
Continuous
370
    50
100
AcDbLine
 10
28.386736087
 20
13.50001144400001
 30
0.0
 11
26.943360414
 21
16.00001144400001
 31
0.0
  0
LINE
  5
51
330
1D
100
AcDbEntity
  8
1
  6
Continuous
370
    50
100
AcDbLine
 10
26.943360414
 20
16.00001144400001
 30
0.0
 11
24.056609068
 21
16.00001144400001
 31
0.0
  0
LINE
  5
52
330
1D
100
AcDbEntity
  8
1
  6
Continuous
370
    50
100
AcDbLine
 10
24.056609068
 20
16.00001144400001
 30
0.0
 11
22.613233396
 21
13.50001144400001
 31
0.0
  0
LINE
  5
54
330
1D
100
AcDbEntity
  8
1
100
AcDbLine
 10
38.499999897
 20
80.432049561
 30
0.0
 11
48.520736591
 21
82.198986817
 31
0.0
  0
CIRCLE
  5
55
330
1D
100
AcDbEntity
  8
1
100
AcDbCircle
 10
46.577270404
 20
77.645367432
 30
0.0
 40
2.120377731
  0
ARC
  5
56
330
1D
100
AcDbEntity
  8
1
100
AcDbCircle
 10
25.499984638
 20
127.299984741
 30
0.0
 40
50.653960659
100
AcDbArc
 50
256.0212385649999
 51
284.034497738
  0
LINE
  5
57
330
1D
100
AcDbEntity
  8
1
100
AcDbLine
 10
13.999984638
 20
79.699993897
 30
0.0
 11
18.499984638
 21
79.699993897
 31
0.0
  0
ARC
  5
58
330
1D
100
AcDbEntity
  8
1
100
AcDbCircle
 10
13.999984638
 20
76.699993897
 30
0.0
 40
3.000000159
100
AcDbArc
 50
90.0
 51
176.1067713269998
  0
ARC
  5
59
330
1D
100
AcDbEntity
  8
1
100
AcDbCircle
 10
25.499984638
 20
140.152584155
 30
0.0
 40
60.85653311
100
AcDbArc
 50
263.3949532110001
 51
270.0
  0
ARC
  5
5A
330
1D
100
AcDbEntity
  8
1
100
AcDbCircle
 10
25.499984638
 20
140.152584155
 30
0.0
 40
60.852599552
100
AcDbArc
 50
270.0
 51
276.605068027
  0
LINE
  5
5B
330
1D
100
AcDbEntity
  8
1
  6
Continuous
370
    50
100
AcDbLine
 10
39.999999897
 20
76.646586674
 30
0.0
 11
39.999999897
 21
76.699993897
 31
0.0
  0
ARC
  5
5C
330
1D
100
AcDbEntity
  8
1
100
AcDbCircle
 10
36.999984638
 20
76.699993897
 30
0.0
 40
3.000000159
100
AcDbArc
 50
0.0
 51
90.0
  0
LINE
  5
5D
330
1D
100
AcDbEntity
  8
1
100
AcDbLine
 10
32.499984638
 20
79.699993897
 30
0.0
 11
36.999984638
 21
79.699993897
 31
0.0
  0
LINE
  5
5E
330
1D
100
AcDbEntity
  8
1
100
AcDbLine
 10
47.475860492
 20
70.199993897
 30
0.0
 11
49.054366962
 21
71.69794921900001
 31
0.0
  0
LINE
  5
5F
330
1D
100
AcDbEntity
  8
1
100
AcDbLine
 10
44.059988224
 20
70.199993897
 30
0.0
 11
47.475860492
 21
70.199993897
 31
0.0
  0
LINE
  5
60
330
1D
100
AcDbEntity
  8
1
100
AcDbLine
 10
37.981918231
 20
79.53474121100001
 30
0.0
 11
38.499984638
 21
80.432080078
 31
0.0
  0
ARC
  5
61
330
1D
100
AcDbEntity
  8
1
  6
Continuous
370
    25
100
AcDbCircle
 10
49.096908466
 20
72.700299073
 30
0.0
 40
0.40000007
100
AcDbArc
 50
236.9998919959996
 51
357.0000028610016
  0
LINE
  5
63
330
1D
100
AcDbEntity
  8
1
  6
Continuous
370
    25
100
AcDbLine
 10
49.99944214251453
 20
82.27906565911607
 30
0.0
 11
49.496360675
 21
72.679333496
 31
0.0
  0
ARC
  5
64
330
1D
100
AcDbEntity
  8
1
  6
Continuous
370
    25
100
AcDbCircle
 10
49.599990741
 20
82.3
 30
0.0
 40
0.399999586
100
AcDbArc
 50
357.0000028610016
 51
117.0000493529992
  0
ARC
  5
67
330
1D
100
AcDbEntity
  8
1
  6
Continuous
370
    25
100
AcDbCircle
 10
41.034850971
 20
77.93583374
 30
0.0
 40
0.400001281
100
AcDbArc
 50
117.0000171660002
 51
236.9999885559999
  0
ARC
  5
68
330
1D
100
AcDbEntity
  8
1
100
AcDbCircle
 10
41.624038593
 20
77.904949951
 30
0.0
 40
1.60000028
100
AcDbArc
 50
87.00000353199988
 51
267.0000028609999
  0
LINE
  5
69
330
1D
100
AcDbEntity
  8
1
100
AcDbLine
 10
49.084480182
 20
72.272564698
 30
0.0
 11
49.054366962
 21
71.69794921900001
 31
0.0
  0
LINE
  5
6A
330
1D
100
AcDbEntity
  8
1
100
AcDbLine
 10
41.540305988
 20
76.307141114
 30
0.0
 11
42.919677631
 21
76.234875489
 31
0.0
  0
LINE
  5
6B
330
1D
100
AcDbEntity
  8
1
100
AcDbLine
 10
41.707786457
 20
79.502758789
 30
0.0
 11
43.087188617
 21
79.430493164
 31
0.0
  0
LINE
  5
6C
330
1D
100
AcDbEntity
  8
1
100
AcDbLine
 10
48.020759479
 20
81.944256592
 30
0.0
 11
47.94287862
 21
82.097088623
 31
0.0
  0
LINE
  5
6E
330
1D
100
AcDbEntity
  8
2
  6
Continuous
370
    25
100
AcDbLine
 10
49.999990327
 20
92.789003181
 30
0.0
 11
49.999990327
 21
82.3
 31
0.0
  0
LINE
  5
6F
330
1D
100
AcDbEntity
  8
2
  6
Continuous
370
    25
100
AcDbLine
 10
49.999990327
 20
90.789003181
 30
0.0
 11
46.499990327
 21
90.33900318100001
 31
0.0
  0
LINE
  5
70
330
1D
100
AcDbEntity
  8
2
  6
Continuous
370
    25
100
AcDbLine
 10
46.499990327
 20
90.33900318100001
 30
0.0
 11
46.499990327
 21
91.239003181
 31
0.0
  0
LINE
  5
71
330
1D
100
AcDbEntity
  8
2
  6
Continuous
370
    25
100
AcDbLine
 10
46.499990327
 20
91.239003181
 30
0.0
 11
49.999990327
 21
90.789003181
 31
0.0
  0
LINE
  5
72
330
1D
100
AcDbEntity
  8
2
  6
Continuous
370
    25
100
AcDbLine
 10
6.549984221
 20
90.789003181
 30
0.0
 11
46.499990327
 21
90.789003181
 31
0.0
  0
TEXT
  5
73
330
1D
100
AcDbEntity
  8
2
  6
Continuous
370
    25
100
AcDbText
 10
26.254830538
 20
92.289003181
 30
0.0
 40
3.5
  1
117
  7
BMG_Text
100
AcDbText
  0
LINE
  5
74
330
1D
100
AcDbEntity
  8
SK2
  6
Continuous
370
    25
100
AcDbLine
 10
61.826296703
 20
82.70000012
 30
0.0
 11
49.599990741
 21
82.699999586
 31
0.0
  0
LINE
  5
75
330
1D
100
AcDbEntity
  8
SK2
  6
Continuous
370
    25
100
AcDbLine
 10
59.826296703
 20
82.70000003300001
 30
0.0
 11
60.276296856
 21
79.20000005300001
 31
0.0
  0
LINE
  5
76
330
1D
100
AcDbEntity
  8
SK2
  6
Continuous
370
    25
100
AcDbLine
 10
60.276296856
 20
79.20000005300001
 30
0.0
 11
59.376296856
 21
79.20000001300001
 31
0.0
  0
LINE
  5
77
330
1D
100
AcDbEntity
  8
SK2
  6
Continuous
370
    25
100
AcDbLine
 10
59.376296856
 20
79.20000001300001
 30
0.0
 11
59.826296703
 21
82.70000003300001
 31
0.0
  0
LINE
  5
78
330
1D
100
AcDbEntity
  8
SK2
  6
Continuous
370
    25
100
AcDbLine
 10
59.82630003
 20
6.580013634000011
 30
0.0
 11
59.826296856
 21
79.20000003300001
 31
0.0
  0
CIRCLE
  5
79
330
1D
100
AcDbEntity
  8
SK2
  6
Continuous
370
    25
100
AcDbCircle
 10
57.07629869
 20
37.22531836300001
 30
0.0
 40
1.25
  0
LINE
  5
7A
330
1D
100
AcDbEntity
  8
SK2
  6
Continuous
370
    25
100
AcDbLine
 10
58.326298745
 20
35.975318417
 30
0.0
 11
55.826298636
 21
38.47531830800001
 31
0.0
  0
TEXT
  5
7B
330
1D
100
AcDbEntity
  8
SK2
  6
Continuous
370
    25
100
AcDbText
 10
58.326298592
 20
39.475318417
 30
0.0
 40
3.5
  1
150-1199
 50
90.00000250400001
  7
BMG_Text
100
AcDbText
  0
LINE
  5
7D
330
1D
100
AcDbEntity
  8
1
  6
Continuous
370
    50
100
AcDbLine
 10
10.508476007
 20
77.0
 30
0.0
 11
0.4
 21
77.0
 31
0.0
  0
LINE
  5
7E
330
1D
100
AcDbEntity
  8
1
  6
Continuous
370
    50
100
AcDbLine
 10
11.550806475
 20
-3.031286921999993
 30
0.0
 11
17.70388745
 21
-4.679999999999993
 31
0.0
  0
LINE
  5
7F
330
1D
100
AcDbEntity
  8
1
  6
Continuous
370
    50
100
AcDbLine
 10
33.29611255
 20
-4.679999999999993
 30
0.0
 11
41.505792993
 21
-2.480222755
 31
0.0
  0
LINE
  5
83
330
1D
100
AcDbEntity
  8
1
100
AcDbLine
 10
-14.0
 20
10.25
 30
0.0
 11
-14.0
 21
5.328683018000007
 31
0.0
  0
LINE
  5
85
330
1D
100
AcDbEntity
  8
1
100
AcDbLine
 10
-14.0
 20
27.75000000000001
 30
0.0
 11
-14.0
 21
13.75
 31
0.0
  0
LINE
  5
87
330
1D
100
AcDbEntity
  8
1
100
AcDbLine
 10
-14.0
 20
45.25000000000001
 30
0.0
 11
-14.0
 21
31.25000000000001
 31
0.0
  0
ARC
  5
88
330
1D
100
AcDbEntity
  8
1
100
AcDbCircle
 10
-8.0
 20
47.00000000000001
 30
0.0
 40
6.25
100
AcDbArc
 50
200.120764005
 51
196.260204708
  0
LINE
  5
89
330
1D
100
AcDbEntity
  8
1
100
AcDbLine
 10
-14.0
 20
74.67211053300001
 30
0.0
 11
-14.0
 21
48.75000000000001
 31
0.0
  0
LINE
  5
8A
330
1D
100
AcDbEntity
  8
1
  6
Continuous
370
    50
100
AcDbLine
 10
0.0
 20
0.0
 30
0.0
 11
46.0
 21
0.0
 31
0.0
  0
LINE
  5
8B
330
1D
100
AcDbEntity
  8
1
  6
Continuous
370
    50
100
AcDbLine
 10
0.0
 20
0.7724663660000033
 30
0.0
 11
0.0
 21
0.0
 31
0.0
  0
LINE
  5
8C
330
1D
100
AcDbEntity
  8
1
100
AcDbLine
 10
-3.019545322
 20
1.45944680800001
 30
0.0
 11
-2.6407084
 21
1.492429096999999
 31
0.0
  0
LINE
  5
8D
330
1D
100
AcDbEntity
  8
1
100
AcDbLine
 10
-2.6407084
 20
1.492429096999999
 30
0.0
 11
-2.25
 21
1.50353568300001
 31
0.0
  0
LINE
  5
8E
330
1D
100
AcDbEntity
  8
1
100
AcDbLine
 10
-2.25
 20
1.50353568300001
 30
0.0
 11
-1.8592916
 21
1.492429096999999
 31
0.0
  0
LINE
  5
8F
330
1D
100
AcDbEntity
  8
1
100
AcDbLine
 10
-1.8592916
 20
1.492429096999999
 30
0.0
 11
-1.480454677
 21
1.45944680800001
 31
0.0
  0
LINE
  5
90
330
1D
100
AcDbEntity
  8
1
100
AcDbLine
 10
-1.480454677
 20
1.45944680800001
 30
0.0
 11
-1.125
 21
1.405590966000005
 31
0.0
  0
LINE
  5
91
330
1D
100
AcDbEntity
  8
1
100
AcDbLine
 10
-1.125
 20
1.405590966000005
 30
0.0
 11
-0.803727878
 21
1.332497954000004
 31
0.0
  0
LINE
  5
92
330
1D
100
AcDbEntity
  8
1
  6
Continuous
370
    50
100
AcDbLine
 10
-0.803727878
 20
1.332497954000004
 30
0.0
 11
-0.526400003
 21
1.242388665000007
 31
0.0
  0
LINE
  5
93
330
1D
100
AcDbEntity
  8
1
  6
Continuous
370
    50
100
AcDbLine
 10
-0.526400003
 20
1.242388665000007
 30
0.0
 11
-0.301442841
 21
1.138001024000005
 31
0.0
  0
LINE
  5
94
330
1D
100
AcDbEntity
  8
1
  6
Continuous
370
    50
100
AcDbLine
 10
-0.301442841
 20
1.138001024000005
 30
0.0
 11
-0.135691603
 21
1.022506798999999
 31
0.0
  0
LINE
  5
95
330
1D
100
AcDbEntity
  8
1
  6
Continuous
370
    50
100
AcDbLine
 10
-0.135691603
 20
1.022506798999999
 30
0.0
 11
-0.034182556
 21
0.8994152209999982
 31
0.0
  0
LINE
  5
96
330
1D
100
AcDbEntity
  8
1
  6
Continuous
370
    50
100
AcDbLine
 10
-0.034182556
 20
0.8994152209999982
 30
0.0
 11
0.0
 21
0.7724663660000033
 31
0.0
  0
LINE
  5
97
330
1D
100
AcDbEntity
  8
1
100
AcDbLine
 10
-13.0
 20
0.2791472800000037
 30
0.0
 11
-3.019545322
 21
1.45944680800001
 31
0.0
  0
LINE
  5
98
330
1D
100
AcDbEntity
  8
1
100
AcDbLine
 10
-16.0
 20
0.841924702
 30
0.0
 11
-13.0
 21
0.2791472800000037
 31
0.0
  0
LINE
  5
99
330
1D
100
AcDbEntity
  8
1
100
AcDbLine
 10
-16.0
 20
72.305560621
 30
0.0
 11
-16.0
 21
0.841924702
 31
0.0
  0
LINE
  5
9A
330
1D
100
AcDbEntity
  8
1
100
AcDbLine
 10
-14.0
 20
5.328683018000007
 30
0.0
 11
-16.0
 21
4.678843626000003
 31
0.0
  0
LINE
  5
9B
330
1D
100
AcDbEntity
  8
1
  6
Continuous
370
    50
100
AcDbLine
 10
16.0
 20
3.639100597999999
 30
0.0
 11
10.8
 21
5.328683018000007
 31
0.0
  0
LINE
  5
9C
330
1D
100
AcDbEntity
  8
1
  6
Continuous
370
    50
100
AcDbLine
 10
38.406664199
 20
3.639100597999999
 30
0.0
 11
16.0
 21
3.639100597999999
 31
0.0
  0
LINE
  5
9D
330
1D
100
AcDbEntity
  8
1
  6
Continuous
370
    50
100
AcDbLine
 10
46.0
 20
2.978009823000008
 30
0.0
 11
38.406664199
 21
3.639100597999999
 31
0.0
  0
LINE
  5
9F
330
1D
100
AcDbEntity
  8
1
  6
Continuous
370
    50
100
AcDbLine
 10
35.336666102
 20
0.0
 30
0.0
 11
35.156819576
 21
0.3315254470000042
 31
0.0
  0
LINE
  5
A0
330
1D
100
AcDbEntity
  8
1
  6
Continuous
370
    50
100
AcDbLine
 10
35.156819576
 20
0.3315254470000042
 30
0.0
 11
34.9124663
 21
0.6558365329999987
 31
0.0
  0
LINE
  5
A1
330
1D
100
AcDbEntity
  8
1
  6
Continuous
370
    50
100
AcDbLine
 10
34.9124663
 20
0.6558365329999987
 30
0.0
 11
34.605238535
 21
0.970766888
 31
0.0
  0
LINE
  5
A2
330
1D
100
AcDbEntity
  8
1
  6
Continuous
370
    50
100
AcDbLine
 10
34.605238535
 20
0.970766888
 30
0.0
 11
34.237188535
 21
1.274212802999998
 31
0.0
  0
LINE
  5
A3
330
1D
100
AcDbEntity
  8
1
  6
Continuous
370
    50
100
AcDbLine
 10
34.237188535
 20
1.274212802999998
 30
0.0
 11
33.810774845
 21
1.564147285000004
 31
0.0
  0
LINE
  5
A4
330
1D
100
AcDbEntity
  8
1
  6
Continuous
370
    50
100
AcDbLine
 10
33.810774845
 20
1.564147285000004
 30
0.0
 11
33.328845871
 21
1.838633596000008
 31
0.0
  0
LINE
  5
A5
330
1D
100
AcDbEntity
  8
1
  6
Continuous
370
    50
100
AcDbLine
 10
33.328845871
 20
1.838633596000008
 30
0.0
 11
32.79462086
 21
2.095838190000009
 31
0.0
  0
LINE
  5
A6
330
1D
100
AcDbEntity
  8
1
  6
Continuous
370
    50
100
AcDbLine
 10
32.79462086
 20
2.095838190000009
 30
0.0
 11
32.211668389
 21
2.334042961000009
 31
0.0
  0
LINE
  5
A7
330
1D
100
AcDbEntity
  8
1
  6
Continuous
370
    50
100
AcDbLine
 10
32.211668389
 20
2.334042961000009
 30
0.0
 11
31.583882534
 21
2.551656722000004
 31
0.0
  0
LINE
  5
A8
330
1D
100
AcDbEntity
  8
1
  6
Continuous
370
    50
100
AcDbLine
 10
31.583882534
 20
2.551656722000004
 30
0.0
 11
30.91545685
 21
2.747225831000009
 31
0.0
  0
LINE
  5
A9
330
1D
100
AcDbEntity
  8
1
  6
Continuous
370
    50
100
AcDbLine
 10
30.91545685
 20
2.747225831000009
 30
0.0
 11
30.210856366
 21
2.919443903000001
 31
0.0
  0
LINE
  5
AA
330
1D
100
AcDbEntity
  8
1
  6
Continuous
370
    50
100
AcDbLine
 10
30.210856366
 20
2.919443903000001
 30
0.0
 11
29.474787755
 21
3.067160534999999
 31
0.0
  0
LINE
  5
AB
330
1D
100
AcDbEntity
  8
1
  6
Continuous
370
    50
100
AcDbLine
 10
29.474787755
 20
3.067160534999999
 30
0.0
 11
28.712167892
 21
3.189388992000005
 31
0.0
  0
LINE
  5
AC
330
1D
100
AcDbEntity
  8
1
  6
Continuous
370
    50
100
AcDbLine
 10
28.712167892
 20
3.189388992000005
 30
0.0
 11
27.928091016
 21
3.28531279900001
 31
0.0
  0
LINE
  5
AD
330
1D
100
AcDbEntity
  8
1
  6
Continuous
370
    50
100
AcDbLine
 10
27.928091016
 20
3.28531279900001
 30
0.0
 11
27.127794695
 21
3.354291192000005
 31
0.0
  0
LINE
  5
AE
330
1D
100
AcDbEntity
  8
1
  6
Continuous
370
    50
100
AcDbLine
 10
27.127794695
 20
3.354291192000005
 30
0.0
 11
26.31662484
 21
3.395863402000003
 31
0.0
  0
LINE
  5
AF
330
1D
100
AcDbEntity
  8
1
  6
Continuous
370
    50
100
AcDbLine
 10
26.31662484
 20
3.395863402000003
 30
0.0
 11
25.5
 21
3.409751729000007
 31
0.0
  0
LINE
  5
B0
330
1D
100
AcDbEntity
  8
1
  6
Continuous
370
    50
100
AcDbLine
 10
25.5
 20
3.409751729000007
 30
0.0
 11
24.68337516
 21
3.395863402000003
 31
0.0
  0
LINE
  5
B1
330
1D
100
AcDbEntity
  8
1
  6
Continuous
370
    50
100
AcDbLine
 10
24.68337516
 20
3.395863402000003
 30
0.0
 11
23.872205305
 21
3.354291192000005
 31
0.0
  0
LINE
  5
B2
330
1D
100
AcDbEntity
  8
1
  6
Continuous
370
    50
100
AcDbLine
 10
23.872205305
 20
3.354291192000005
 30
0.0
 11
23.071908984
 21
3.28531279900001
 31
0.0
  0
LINE
  5
B3
330
1D
100
AcDbEntity
  8
1
  6
Continuous
370
    50
100
AcDbLine
 10
23.071908984
 20
3.28531279900001
 30
0.0
 11
22.287832108
 21
3.189388992000005
 31
0.0
  0
LINE
  5
B4
330
1D
100
AcDbEntity
  8
1
  6
Continuous
370
    50
100
AcDbLine
 10
22.287832108
 20
3.189388992000005
 30
0.0
 11
21.525212246
 21
3.067160534999999
 31
0.0
  0
LINE
  5
B5
330
1D
100
AcDbEntity
  8
1
  6
Continuous
370
    50
100
AcDbLine
 10
21.525212246
 20
3.067160534999999
 30
0.0
 11
20.789143634
 21
2.919443903000001
 31
0.0
  0
LINE
  5
B6
330
1D
100
AcDbEntity
  8
1
  6
Continuous
370
    50
100
AcDbLine
 10
20.789143634
 20
2.919443903000001
 30
0.0
 11
20.08454315
 21
2.747225831000009
 31
0.0
  0
LINE
  5
B7
330
1D
100
AcDbEntity
  8
1
  6
Continuous
370
    50
100
AcDbLine
 10
20.08454315
 20
2.747225831000009
 30
0.0
 11
19.416117466
 21
2.551656722000004
 31
0.0
  0
LINE
  5
B8
330
1D
100
AcDbEntity
  8
1
  6
Continuous
370
    50
100
AcDbLine
 10
19.416117466
 20
2.551656722000004
 30
0.0
 11
18.788331611
 21
2.334042961000009
 31
0.0
  0
LINE
  5
B9
330
1D
100
AcDbEntity
  8
1
  6
Continuous
370
    50
100
AcDbLine
 10
18.788331611
 20
2.334042961000009
 30
0.0
 11
18.20537914
 21
2.095838190000009
 31
0.0
  0
LINE
  5
BA
330
1D
100
AcDbEntity
  8
1
  6
Continuous
370
    50
100
AcDbLine
 10
18.20537914
 20
2.095838190000009
 30
0.0
 11
17.671154129
 21
1.838633596000008
 31
0.0
  0
LINE
  5
BB
330
1D
100
AcDbEntity
  8
1
  6
Continuous
370
    50
100
AcDbLine
 10
17.671154129
 20
1.838633596000008
 30
0.0
 11
17.189225156
 21
1.564147285000004
 31
0.0
  0
LINE
  5
BC
330
1D
100
AcDbEntity
  8
1
  6
Continuous
370
    50
100
AcDbLine
 10
17.189225156
 20
1.564147285000004
 30
0.0
 11
16.762811465
 21
1.274212802999998
 31
0.0
  0
LINE
  5
BD
330
1D
100
AcDbEntity
  8
1
  6
Continuous
370
    50
100
AcDbLine
 10
16.762811465
 20
1.274212802999998
 30
0.0
 11
16.394761465
 21
0.970766888
 31
0.0
  0
LINE
  5
BE
330
1D
100
AcDbEntity
  8
1
  6
Continuous
370
    50
100
AcDbLine
 10
16.394761465
 20
0.970766888
 30
0.0
 11
16.0875337
 21
0.6558365329999987
 31
0.0
  0
LINE
  5
BF
330
1D
100
AcDbEntity
  8
1
  6
Continuous
370
    50
100
AcDbLine
 10
16.0875337
 20
0.6558365329999987
 30
0.0
 11
15.843180424
 21
0.3315254470000042
 31
0.0
  0
LINE
  5
C0
330
1D
100
AcDbEntity
  8
1
  6
Continuous
370
    50
100
AcDbLine
 10
15.843180424
 20
0.3315254470000042
 30
0.0
 11
15.663333898
 21
0.0
 31
0.0
  0
LINE
  5
C4
330
1D
100
AcDbEntity
  8
1
100
AcDbLine
 10
-3.019545322
 20
73.848243948
 30
0.0
 11
-7.994004303000001
 21
74.35230535000001
 31
0.0
  0
LINE
  5
C5
330
1D
100
AcDbEntity
  8
1
100
AcDbLine
 10
-7.994004303000001
 20
74.35230535000001
 30
0.0
 11
-13.0
 21
74.813154022
 31
0.0
  0
LINE
  5
C6
330
1D
100
AcDbEntity
  8
1
100
AcDbLine
 10
0.0
 20
74.432343997
 30
0.0
 11
-0.119988912
 21
74.23917894600001
 31
0.0
  0
LINE
  5
C7
330
1D
100
AcDbEntity
  8
1
100
AcDbLine
 10
-0.119988912
 20
74.23917894600001
 30
0.0
 11
-0.498351371
 21
74.049233724
 31
0.0
  0
LINE
  5
C8
330
1D
100
AcDbEntity
  8
1
100
AcDbLine
 10
-0.498351371
 20
74.049233724
 30
0.0
 11
-1.087379543
 21
73.902737431
 31
0.0
  0
LINE
  5
C9
330
1D
100
AcDbEntity
  8
1
100
AcDbLine
 10
-1.087379543
 20
73.902737431
 30
0.0
 11
-1.798805553
 21
73.82197586400001
 31
0.0
  0
LINE
  5
CA
330
1D
100
AcDbEntity
  8
1
100
AcDbLine
 10
-1.798805553
 20
73.82197586400001
 30
0.0
 11
-2.25
 21
73.808590392
 31
0.0
  0
LINE
  5
CB
330
1D
100
AcDbEntity
  8
1
100
AcDbLine
 10
-2.25
 20
73.808590392
 30
0.0
 11
-2.972927741
 21
73.843468254
 31
0.0
  0
LINE
  5
CC
330
1D
100
AcDbEntity
  8
1
100
AcDbLine
 10
-2.972927741
 20
73.843468254
 30
0.0
 11
-3.019545322
 21
73.848243948
 31
0.0
  0
LINE
  5
CD
330
1D
100
AcDbEntity
  8
1
  6
Continuous
370
    50
100
AcDbLine
 10
0.0
 20
75.74959807
 30
0.0
 11
0.0
 21
74.432343997
 31
0.0
  0
LINE
  5
CE
330
1D
100
AcDbEntity
  8
1
  6
Continuous
370
    50
100
AcDbLine
 10
0.4
 20
75.74959807
 30
0.0
 11
0.0
 21
75.74959807
 31
0.0
  0
LINE
  5
CF
330
1D
100
AcDbEntity
  8
1
  6
Continuous
370
    50
100
AcDbLine
 10
0.4
 20
77.0
 30
0.0
 11
0.4
 21
75.74959807
 31
0.0
  0
LINE
  5
D1
330
1D
100
AcDbEntity
  8
1
100
AcDbLine
 10
-13.0
 20
74.813154022
 30
0.0
 11
-14.0
 21
74.67211053300001
 31
0.0
  0
LINE
  5
D4
330
1D
100
AcDbEntity
  8
1
100
AcDbLine
 10
-14.0
 20
69.309185944
 30
0.0
 11
-16.0
 21
68.03570518000001
 31
0.0
  0
LINE
  5
D7
330
1D
100
AcDbEntity
  8
1
100
AcDbLine
 10
-16.0
 20
72.305560621
 30
0.0
 11
-14.0
 21
74.67211053300001
 31
0.0
  0
LINE
  5
D9
330
1D
100
AcDbEntity
  8
1
100
AcDbLine
 10
-14.0
 20
45.243141291
 30
0.0
 11
-13.924488343
 21
45.009287095
 31
0.0
  0
LINE
  5
DA
330
1D
100
AcDbEntity
  8
1
100
AcDbLine
 10
-13.924488343
 20
45.009287095
 30
0.0
 11
-13.875735931
 21
44.86968845800001
 31
0.0
  0
LINE
  5
DB
330
1D
100
AcDbEntity
  8
1
100
AcDbLine
 10
-8.0
 20
26.035898385
 30
0.0
 11
-5.0
 21
27.767949192
 31
0.0
  0
LINE
  5
DC
330
1D
100
AcDbEntity
  8
1
100
AcDbLine
 10
-5.0
 20
27.767949192
 30
0.0
 11
-5.0
 21
31.23205080700001
 31
0.0
  0
LINE
  5
DD
330
1D
100
AcDbEntity
  8
1
100
AcDbLine
 10
-5.0
 20
31.23205080700001
 30
0.0
 11
-8.0
 21
32.964101615
 31
0.0
  0
LINE
  5
DE
330
1D
100
AcDbEntity
  8
1
100
AcDbLine
 10
-8.0
 20
32.964101615
 30
0.0
 11
-11.0
 21
31.23205080700001
 31
0.0
  0
LINE
  5
DF
330
1D
100
AcDbEntity
  8
1
100
AcDbLine
 10
-11.0
 20
31.23205080700001
 30
0.0
 11
-11.0
 21
27.767949192
 31
0.0
  0
LINE
  5
E0
330
1D
100
AcDbEntity
  8
1
100
AcDbLine
 10
-11.0
 20
27.767949192
 30
0.0
 11
-8.0
 21
26.035898385
 31
0.0
  0
LINE
  5
E1
330
1D
100
AcDbEntity
  8
1
100
AcDbLine
 10
-8.0
 20
43.535898385
 30
0.0
 11
-5.0
 21
45.267949192
 31
0.0
  0
LINE
  5
E2
330
1D
100
AcDbEntity
  8
1
100
AcDbLine
 10
-5.0
 20
45.267949192
 30
0.0
 11
-5.0
 21
48.73205080700001
 31
0.0
  0
LINE
  5
E3
330
1D
100
AcDbEntity
  8
1
100
AcDbLine
 10
-5.0
 20
48.73205080700001
 30
0.0
 11
-8.0
 21
50.464101615
 31
0.0
  0
LINE
  5
E4
330
1D
100
AcDbEntity
  8
1
100
AcDbLine
 10
-8.0
 20
50.464101615
 30
0.0
 11
-11.0
 21
48.73205080700001
 31
0.0
  0
LINE
  5
E5
330
1D
100
AcDbEntity
  8
1
100
AcDbLine
 10
-11.0
 20
48.73205080700001
 30
0.0
 11
-11.0
 21
45.267949192
 31
0.0
  0
LINE
  5
E6
330
1D
100
AcDbEntity
  8
1
100
AcDbLine
 10
-11.0
 20
45.267949192
 30
0.0
 11
-8.0
 21
43.535898385
 31
0.0
  0
LINE
  5
E7
330
1D
100
AcDbEntity
  8
1
100
AcDbLine
 10
-8.0
 20
8.53589838500001
 30
0.0
 11
-5.0
 21
10.267949192
 31
0.0
  0
LINE
  5
E8
330
1D
100
AcDbEntity
  8
1
100
AcDbLine
 10
-5.0
 20
10.267949192
 30
0.0
 11
-5.0
 21
13.73205080700001
 31
0.0
  0
LINE
  5
E9
330
1D
100
AcDbEntity
  8
1
100
AcDbLine
 10
-5.0
 20
13.73205080700001
 30
0.0
 11
-8.0
 21
15.464101615
 31
0.0
  0
LINE
  5
EA
330
1D
100
AcDbEntity
  8
1
100
AcDbLine
 10
-8.0
 20
15.464101615
 30
0.0
 11
-11.0
 21
13.73205080700001
 31
0.0
  0
LINE
  5
EB
330
1D
100
AcDbEntity
  8
1
100
AcDbLine
 10
-11.0
 20
13.73205080700001
 30
0.0
 11
-11.0
 21
10.267949192
 31
0.0
  0
LINE
  5
EC
330
1D
100
AcDbEntity
  8
1
100
AcDbLine
 10
-11.0
 20
10.267949192
 30
0.0
 11
-8.0
 21
8.53589838500001
 31
0.0
  0
LINE
  5
ED
330
1D
100
AcDbEntity
  8
1
  6
Continuous
370
    50
100
AcDbLine
 10
11.550806475
 20
-3.031286921999993
 30
0.0
 11
11.550806475
 21
-3.031070827999997
 31
0.0
  0
LINE
  5
EE
330
1D
100
AcDbEntity
  8
1
  6
Continuous
370
    50
100
AcDbLine
 10
11.550806475
 20
-3.031070827999997
 30
0.0
 11
9.802122631000001
 21
-2.562536475000002
 31
0.0
  0
LINE
  5
EF
330
1D
100
AcDbEntity
  8
1
  6
Continuous
370
    50
100
AcDbLine
 10
9.802122631000001
 20
-2.562536475000002
 30
0.0
 11
9.494078522
 21
-2.47999999999999
 31
0.0
  0
LINE
  5
F0
330
1D
100
AcDbEntity
  8
1
  6
Continuous
370
    50
100
AcDbLine
 10
41.505921606
 20
-2.47999999999999
 30
0.0
 11
9.494078522
 21
-2.47999999999999
 31
0.0
  0
LINE
  5
F1
330
1D
100
AcDbEntity
  8
1
  6
Continuous
370
    50
100
AcDbLine
 10
33.29611255
 20
-4.679999999999993
 30
0.0
 11
17.70388745
 21
-4.679999999999993
 31
0.0
  0
LINE
  5
F2
330
1D
100
AcDbEntity
  8
1
  6
Continuous
370
    50
100
AcDbLine
 10
9.494078522
 20
-2.47999999999999
 30
0.0
 11
9.272513428000002
 21
-2.096254621
 31
0.0
  0
LINE
  5
F3
330
1D
100
AcDbEntity
  8
1
  6
Continuous
370
    50
100
AcDbLine
 10
9.272513428000002
 20
-2.096254621
 30
0.0
 11
8.062192175000002
 21
0.0
 31
0.0
  0
LINE
  5
F4
330
1D
100
AcDbEntity
  8
1
  6
Continuous
370
    50
100
AcDbLine
 10
42.93780782
 20
0.0
 30
0.0
 11
41.505792993
 21
-2.480222755
 31
0.0
  0
ARC
  5
F5
330
1D
100
AcDbEntity
  8
1
  6
Continuous
370
    50
100
AcDbCircle
 10
25.5
 20
13.5
 30
0.0
 40
14.7
100
AcDbArc
 50
116.242856749
 51
180.0
  0
LINE
  5
F6
330
1D
100
AcDbEntity
  8
1
  6
Continuous
370
    50
100
AcDbLine
 10
10.8
 20
13.5
 30
0.0
 11
10.8
 21
5.328683018000007
 31
0.0
  0
LINE
  5
F7
330
1D
100
AcDbEntity
  8
1
  6
Continuous
370
    50
100
AcDbLine
 10
38.406664199
 20
3.639100597999999
 30
0.0
 11
38.406664199
 21
23.00000000000001
 31
0.0
  0
LINE
  5
F8
330
1D
100
AcDbEntity
  8
1
  6
Continuous
370
    50
100
AcDbLine
 10
38.406664199
 20
23.00000000000001
 30
0.0
 11
25.5
 21
26.45833024900001
 31
0.0
  0
LINE
  5
F9
330
1D
100
AcDbEntity
  8
1
  6
Continuous
370
    50
100
AcDbLine
 10
19.0
 20
26.684839779
 30
0.0
 11
20.079882655
 21
26.85249247
 31
0.0
  0
LINE
  5
FA
330
1D
100
AcDbEntity
  8
1
  6
Continuous
370
    50
100
AcDbLine
 10
20.079882655
 20
26.85249247
 30
0.0
 11
21.170074416
 21
26.938178546
 31
0.0
  0
LINE
  5
FB
330
1D
100
AcDbEntity
  8
1
  6
Continuous
370
    50
100
AcDbLine
 10
21.170074416
 20
26.938178546
 30
0.0
 11
22.263882947
 21
26.941372006
 31
0.0
  0
LINE
  5
FC
330
1D
100
AcDbEntity
  8
1
  6
Continuous
370
    50
100
AcDbLine
 10
22.263882947
 20
26.941372006
 30
0.0
 11
23.354593715
 21
26.86205324700001
 31
0.0
  0
LINE
  5
FD
330
1D
100
AcDbEntity
  8
1
  6
Continuous
370
    50
100
AcDbLine
 10
23.354593715
 20
26.86205324700001
 30
0.0
 11
24.4355112
 21
26.700709182
 31
0.0
  0
LINE
  5
FE
330
1D
100
AcDbEntity
  8
1
  6
Continuous
370
    50
100
AcDbLine
 10
24.4355112
 20
26.700709182
 30
0.0
 11
25.5
 21
26.45833024900001
 31
0.0
  0
ARC
  5
FF
330
1D
100
AcDbEntity
  8
1
  6
Continuous
370
    50
100
AcDbCircle
 10
25.5
 20
13.5
 30
0.0
 40
9.5
100
AcDbArc
 50
90.0
 51
180.0
  0
LINE
  5
100
330
1D
100
AcDbEntity
  8
1
  6
Continuous
370
    50
100
AcDbLine
 10
16.0
 20
13.5
 30
0.0
 11
16.0
 21
3.639100597999999
 31
0.0
  0
LINE
  5
101
330
1D
100
AcDbEntity
  8
1
  6
Continuous
370
    50
100
AcDbLine
 10
38.406664199
 20
23.00000000000001
 30
0.0
 11
25.5
 21
23.00000000000001
 31
0.0
  0
LINE
  5
102
330
1D
100
AcDbEntity
  8
1
100
AcDbLine
 10
-14.0
 20
45.00000000000001
 30
0.0
 11
-16.0
 21
45.00000000000001
 31
0.0
  0
LINE
  5
103
330
1D
100
AcDbEntity
  8
1
100
AcDbLine
 10
-8.0
 20
62.5
 30
0.0
 11
-16.0
 21
62.5
 31
0.0
  0
LINE
  5
1A8
330
1D
100
AcDbEntity
  8
1
100
AcDbLine
 10
49.084480182
 20
72.272564698
 30
0.0
 11
48.8790521815034
 21
72.272564698
 31
0.0
  0
LINE
  5
1A9
330
1D
100
AcDbEntity
  8
1
100
AcDbLine
 10
48.8790521815034
 20
72.272564698
 30
0.0
 11
48.8790521815034
 21
72.36483119777893
 31
0.0
  0
LINE
  5
1AA
330
1D
100
AcDbEntity
  8
1
100
AcDbLine
 10
48.8790521815034
 20
72.36483119777893
 30
0.0
 11
42.919677631
 21
76.234875489
 31
0.0
  0
LINE
  5
1AB
330
1D
100
AcDbEntity
  8
1
100
AcDbLine
 10
43.087188617
 20
79.430493164
 30
0.0
 11
48.520736591
 21
82.198986817
 31
0.0
  0
LINE
  5
1AD
330
1D
100
AcDbEntity
  8
3
100
AcDbLine
 10
48.520736591
 20
82.198986817
 30
0.0
 11
49.599990741
 21
82.3
 31
0.0
  0
LINE
  5
1AE
330
1D
100
AcDbEntity
  8
3
100
AcDbLine
 10
49.599990741
 20
82.3
 30
0.0
 11
49.096908466
 21
72.700299073
 31
0.0
  0
LINE
  5
1AF
330
1D
100
AcDbEntity
  8
3
100
AcDbLine
 10
49.096908466
 20
72.700299073
 30
0.0
 11
48.8790521815034
 21
72.36483119777893
 31
0.0
  0
LINE
  5
1B1
330
1D
100
AcDbEntity
  8
1
100
AcDbLine
 10
49.41839442206128
 20
82.65640208437674
 30
0.0
 11
40.85325408276265
 21
78.29223743664771
 31
0.0
  0
LINE
  5
1B2
330
1D
100
AcDbEntity
  8
1
100
AcDbLine
 10
40.81699459230627
 20
77.60036448199848
 30
0.0
 11
48.8790521815034
 21
72.36483119777893
 31
0.0
  0
LINE
  5
1C8
330
1D
100
AcDbEntity
  8
NOCUT
100
AcDbLine
 10
0.0
 20
74.432343997
 30
0.0
 11
0.0
 21
75.74959807
 31
0.0
  0
LINE
  5
1C9
330
1D
100
AcDbEntity
  8
NOCUT
100
AcDbLine
 10
0.0
 20
75.74959807
 30
0.0
 11
0.4
 21
75.74959807
 31
0.0
  0
LINE
  5
1CA
330
1D
100
AcDbEntity
  8
NOCUT
100
AcDbLine
 10
0.4
 20
75.74959807
 30
0.0
 11
0.4
 21
77.0
 31
0.0
  0
LINE
  5
1CB
330
1D
100
AcDbEntity
  8
NOCUT
100
AcDbLine
 10
0.4
 20
77.0
 30
0.0
 11
10.508476007
 21
77.0
 31
0.0
  0
LINE
  5
1CC
330
1D
100
AcDbEntity
  8
NOCUT
100
AcDbLine
 10
10.508476007
 20
77.0
 30
0.0
 11
11.00690754922289
 21
76.903686053544
 31
0.0
  0
ARC
  5
1CD
330
1D
100
AcDbEntity
  8
NOCUT
100
AcDbCircle
 10
13.999984638
 20
76.699993897
 30
0.0
 40
3.000000158999999
100
AcDbArc
 50
90.0
 51
176.1067713269998
  0
LINE
  5
1CE
330
1D
100
AcDbEntity
  8
NOCUT
100
AcDbLine
 10
13.999984638
 20
79.69999405600001
 30
0.0
 11
18.50703478945717
 21
79.69999405600001
 31
0.0
  0
LINE
  5
1D2
330
1D
100
AcDbEntity
  8
NOCUT
100
AcDbLine
 10
37.981918231
 20
79.53474121100001
 30
0.0
 11
38.499999897
 21
80.432049561
 31
0.0
  0
LINE
  5
1D3
330
1D
100
AcDbEntity
  8
NOCUT
100
AcDbLine
 10
38.499999897
 20
80.432049561
 30
0.0
 11
48.520736591
 21
82.198986817
 31
0.0
  0
LINE
  5
1D8
330
1D
100
AcDbEntity
  8
NOCUT
100
AcDbLine
 10
48.8790521815034
 20
72.36483119777893
 30
0.0
 11
48.8790521815034
 21
72.272564698
 31
0.0
  0
LINE
  5
1D9
330
1D
100
AcDbEntity
  8
NOCUT
100
AcDbLine
 10
48.8790521815034
 20
72.272564698
 30
0.0
 11
49.084480182
 21
72.272564698
 31
0.0
  0
LINE
  5
1DA
330
1D
100
AcDbEntity
  8
NOCUT
100
AcDbLine
 10
49.084480182
 20
72.272564698
 30
0.0
 11
49.054366962
 21
71.69794921900001
 31
0.0
  0
LINE
  5
1DB
330
1D
100
AcDbEntity
  8
NOCUT
100
AcDbLine
 10
49.054366962
 20
71.69794921900001
 30
0.0
 11
47.475860492
 21
70.199993897
 31
0.0
  0
LINE
  5
1DC
330
1D
100
AcDbEntity
  8
NOCUT
100
AcDbLine
 10
47.475860492
 20
70.199993897
 30
0.0
 11
44.059988224
 21
70.199993897
 31
0.0
  0
LINE
  5
1DD
330
1D
100
AcDbEntity
  8
NOCUT
100
AcDbLine
 10
44.059988224
 20
70.199993897
 30
0.0
 11
46.0
 21
66.83979415900001
 31
0.0
  0
LINE
  5
1DE
330
1D
100
AcDbEntity
  8
NOCUT
100
AcDbLine
 10
46.0
 20
66.83979415900001
 30
0.0
 11
46.0
 21
0.0
 31
0.0
  0
LINE
  5
1DF
330
1D
100
AcDbEntity
  8
NOCUT
100
AcDbLine
 10
46.0
 20
0.0
 30
0.0
 11
42.93780782
 21
0.0
 31
0.0
  0
LINE
  5
1E0
330
1D
100
AcDbEntity
  8
NOCUT
100
AcDbLine
 10
42.93780782
 20
0.0
 30
0.0
 11
41.505792993
 21
-2.480222755
 31
0.0
  0
LINE
  5
1E1
330
1D
100
AcDbEntity
  8
NOCUT
100
AcDbLine
 10
41.505792993
 20
-2.480222755
 30
0.0
 11
33.29611255
 21
-4.679999999999993
 31
0.0
  0
LINE
  5
1E2
330
1D
100
AcDbEntity
  8
NOCUT
100
AcDbLine
 10
33.29611255
 20
-4.679999999999993
 30
0.0
 11
17.70388745
 21
-4.679999999999993
 31
0.0
  0
LINE
  5
1E3
330
1D
100
AcDbEntity
  8
NOCUT
100
AcDbLine
 10
17.70388745
 20
-4.679999999999993
 30
0.0
 11
9.494078522
 21
-2.47999999999999
 31
0.0
  0
LINE
  5
1E4
330
1D
100
AcDbEntity
  8
NOCUT
100
AcDbLine
 10
9.494078522
 20
-2.47999999999999
 30
0.0
 11
8.062192175000002
 21
0.0
 31
0.0
  0
LINE
  5
1E5
330
1D
100
AcDbEntity
  8
NOCUT
100
AcDbLine
 10
8.062192175000002
 20
0.0
 30
0.0
 11
0.0
 21
0.0
 31
0.0
  0
LINE
  5
1E6
330
1D
100
AcDbEntity
  8
NOCUT
100
AcDbLine
 10
0.0
 20
0.0
 30
0.0
 11
0.0
 21
0.7724663660000033
 31
0.0
  0
LWPOLYLINE
  5
1E9
330
1D
100
AcDbEntity
  8
INFTOTAL
100
AcDbPolyline
 90
        4
 70
     1
 43
0.0
 10
93.43835052800797
 20
124.8510883941511
 10
93.43835052800797
 20
-21.07012709609332
 10
-44.51092207322079
 20
-21.07012709609332
 10
-44.51092207322079
 20
124.8510883941511
  0
CIRCLE
  5
232
330
1D
100
AcDbEntity
  8
1
100
AcDbCircle
 10
-8.0
 20
12.0
 30
0.0
 40
6.25
  0
CIRCLE
  5
233
330
1D
100
AcDbEntity
  8
1
100
AcDbCircle
 10
-8.0
 20
29.50000000000001
 30
0.0
 40
6.25
  0
CIRCLE
  5
23E
330
1D
100
AcDbEntity
  8
1
100
AcDbCircle
 10
46.577270404
 20
77.645367432
 30
0.0
 40
2.120377731
  0
ARC
  5
23F
330
1D
100
AcDbEntity
  8
CUT
  6
Continuous
370
    25
100
AcDbCircle
 10
49.096908466
 20
72.700299073
 30
0.0
 40
0.40000007
100
AcDbArc
 50
236.9998919959996
 51
357.0000028610016
  0
LINE
  5
240
330
1D
100
AcDbEntity
  8
CUT
  6
Continuous
370
    25
100
AcDbLine
 10
49.99944214251453
 20
82.27906565911607
 30
0.0
 11
49.496360675
 21
72.679333496
 31
0.0
  0
ARC
  5
241
330
1D
100
AcDbEntity
  8
CUT
  6
Continuous
370
    25
100
AcDbCircle
 10
49.599990741
 20
82.30000000000001
 30
0.0
 40
0.399999586
100
AcDbArc
 50
357.0000028609996
 51
117.0000493530001
  0
ARC
  5
242
330
1D
100
AcDbEntity
  8
CUT
  6
Continuous
370
    25
100
AcDbCircle
 10
41.034850971
 20
77.93583374
 30
0.0
 40
0.400001281
100
AcDbArc
 50
117.0000171660002
 51
236.9999885559999
  0
LINE
  5
243
330
1D
100
AcDbEntity
  8
CUT
100
AcDbLine
 10
49.41839442206128
 20
82.65640208437674
 30
0.0
 11
40.85325408276265
 21
78.29223743664771
 31
0.0
  0
LINE
  5
244
330
1D
100
AcDbEntity
  8
CUT
100
AcDbLine
 10
40.81699459230627
 20
77.60036448199848
 30
0.0
 11
48.8790521815034
 21
72.36483119777893
 31
0.0
  0
HATCH
  5
4CE
330
1D
100
AcDbEntity
  8
7
100
AcDbHatch
 10
0.0
 20
0.0
 30
0.0
210
0.0
220
0.0
230
1.0
  2
ANSI37
 70
     0
 71
     0
 91
        2
 92
        7
 72
     1
 73
     1
 93
        7
 10
49.49636035085123
 20
72.67936470678549
 42
0.0
 10
49.99944216961988
 20
82.27906617633663
 42
0.5773500745529876
 10
49.41839445788834
 20
82.65640210263156
 42
0.0
 10
40.85325398511215
 20
78.29223738689221
 42
0.5773506011953152
 10
40.81699518586602
 20
77.60036409653834
 42
0.0
 10
48.87905315196951
 20
72.36483056755426
 42
0.5773211644108224
 10
49.496360675
 20
72.679333496
 42
0.0
 97
        0
 92
       22
 72
     1
 73
     1
 93
        2
 10
44.45689267299999
 20
77.645367432
 42
-0.999999999999998
 10
48.69764813499999
 20
77.645367432
 42
-0.999999999999998
 97
        0
 75
     0
 76
     1
 52
90.0
 41
5.0
 77
     0
 78
     2
 53
135.0
 43
-14.12968996917944
 44
79.55496302779645
 45
-0.4419417382415922
 46
-0.4419417382415922
 79
     0
 53
225.0
 43
-14.12968996917944
 44
79.55496302779645
 45
0.4419417382415922
 46
-0.4419417382415923
 79
     0
 47
0.0
 98
        2
 10
44.44881994289616
 20
78.14266283323438
 10
44.44881994289616
 20
78.14266283323438
1001
ACAD
1010
0.0
1020
0.0
1030
0.0
1001
PE_URL
1000

  0
LINE
  5
4EF
330
1D
100
AcDbEntity
  8
SK4
100
AcDbLine
 10
46.42538427845365
 20
74.74724456420988
 30
0.0
 11
46.72915652954649
 21
80.54349029979015
 31
0.0
  0
LINE
  5
4F0
330
1D
100
AcDbEntity
  8
SK4
100
AcDbLine
 10
49.47539327179015
 20
77.4934813064536
 30
0.0
 11
43.67914753620999
 21
77.79725355754643
 31
0.0
  0
LINE
  5
4F2
330
1D
100
AcDbEntity
  8
4
100
AcDbLine
 10
46.72915652954649
 20
80.54349029979015
 30
0.0
 11
46.42538427845365
 21
74.74724456420988
 31
0.0
  0
LINE
  5
4F3
330
1D
100
AcDbEntity
  8
4
100
AcDbLine
 10
49.47539327179015
 20
77.4934813064536
 30
0.0
 11
43.67914753620999
 21
77.79725355754643
 31
0.0
  0
LINE
  5
4FC
330
1D
100
AcDbEntity
  8
SK4
100
AcDbLine
 10
20.664678699
 20
32.00000381500001
 30
0.0
 11
29.924041688
 21
32.00000381500001
 31
0.0
  0
LINE
  5
4FD
330
1D
100
AcDbEntity
  8
SK4
100
AcDbLine
 10
25.499985004
 20
81.303767253
 30
0.0
 11
25.49998736599999
 21
-5.865977783999995
 31
0.0
  0
LINE
  5
4FE
330
1D
100
AcDbEntity
  8
SK4
100
AcDbLine
 10
38.00480327900001
 20
13.50001144400001
 30
0.0
 11
12.99516620399999
 21
13.50001144400001
 31
0.0
  0
LINE
  5
4FF
330
1D
100
AcDbEntity
  8
SK4
100
AcDbLine
 10
31.515375657
 20
46.00006485
 30
0.0
 11
19.450466074
 21
46.00006485
 31
0.0
  0
LINE
  5
500
330
1D
100
AcDbEntity
  8
SK4
100
AcDbLine
 10
27.800393566
 20
7.500011444000009
 30
0.0
 11
23.199575917
 21
7.500011444000009
 31
0.0
  0
LINE
  5
501
330
1D
100
AcDbEntity
  8
SK4
100
AcDbLine
 10
27.800393566
 20
19.500011444
 30
0.0
 11
23.199575917
 21
19.500011444
 31
0.0
  0
LINE
  5
61F
330
1D
100
AcDbEntity
  8
NOCUT
100
AcDbLine
 10
-3.019545321999999
 20
1.45944680800001
 30
0.0
 11
-2.640708399999994
 21
1.492429096999999
 31
0.0
  0
LINE
  5
620
330
1D
100
AcDbEntity
  8
NOCUT
100
AcDbLine
 10
-2.640708399999994
 20
1.492429096999999
 30
0.0
 11
-2.25
 21
1.50353568300001
 31
0.0
  0
LINE
  5
621
330
1D
100
AcDbEntity
  8
NOCUT
100
AcDbLine
 10
-2.25
 20
1.50353568300001
 30
0.0
 11
-1.859291600000006
 21
1.492429096999999
 31
0.0
  0
LINE
  5
622
330
1D
100
AcDbEntity
  8
NOCUT
100
AcDbLine
 10
-1.859291600000006
 20
1.492429096999999
 30
0.0
 11
-1.480454677000012
 21
1.45944680800001
 31
0.0
  0
LINE
  5
623
330
1D
100
AcDbEntity
  8
NOCUT
100
AcDbLine
 10
-1.480454677000012
 20
1.45944680800001
 30
0.0
 11
-1.125
 21
1.405590966000005
 31
0.0
  0
LINE
  5
624
330
1D
100
AcDbEntity
  8
NOCUT
100
AcDbLine
 10
-1.125
 20
1.405590966000005
 30
0.0
 11
-0.8037278780000179
 21
1.332497954000004
 31
0.0
  0
LINE
  5
625
330
1D
100
AcDbEntity
  8
NOCUT
  6
Continuous
370
    50
100
AcDbLine
 10
-0.8037278780000179
 20
1.332497954000004
 30
0.0
 11
-0.5264000030000489
 21
1.242388665000007
 31
0.0
  0
LINE
  5
626
330
1D
100
AcDbEntity
  8
NOCUT
  6
Continuous
370
    50
100
AcDbLine
 10
-0.5264000030000489
 20
1.242388665000007
 30
0.0
 11
-0.3014428410000392
 21
1.138001024000005
 31
0.0
  0
LINE
  5
627
330
1D
100
AcDbEntity
  8
NOCUT
  6
Continuous
370
    50
100
AcDbLine
 10
-0.3014428410000392
 20
1.138001024000005
 30
0.0
 11
-0.1356916030000548
 21
1.022506798999999
 31
0.0
  0
LINE
  5
628
330
1D
100
AcDbEntity
  8
NOCUT
  6
Continuous
370
    50
100
AcDbLine
 10
-0.1356916030000548
 20
1.022506798999999
 30
0.0
 11
-0.0341825560000188
 21
0.8994152209999982
 31
0.0
  0
LINE
  5
629
330
1D
100
AcDbEntity
  8
NOCUT
  6
Continuous
370
    50
100
AcDbLine
 10
-0.0341825560000188
 20
0.8994152209999982
 30
0.0
 11
0.0
 21
0.7724663660000033
 31
0.0
  0
LINE
  5
62A
330
1D
100
AcDbEntity
  8
NOCUT
100
AcDbLine
 10
-13.0
 20
0.2791472800000037
 30
0.0
 11
-3.019545321999999
 21
1.45944680800001
 31
0.0
  0
LINE
  5
62B
330
1D
100
AcDbEntity
  8
NOCUT
100
AcDbLine
 10
-16.0
 20
0.841924702
 30
0.0
 11
-13.0
 21
0.2791472800000037
 31
0.0
  0
LINE
  5
62C
330
1D
100
AcDbEntity
  8
NOCUT
100
AcDbLine
 10
-16.0
 20
72.30556062099998
 30
0.0
 11
-16.0
 21
0.841924702
 31
0.0
  0
LINE
  5
62D
330
1D
100
AcDbEntity
  8
NOCUT
100
AcDbLine
 10
-3.019545321999999
 20
73.848243948
 30
0.0
 11
-7.994004302999997
 21
74.35230535
 31
0.0
  0
LINE
  5
62E
330
1D
100
AcDbEntity
  8
NOCUT
100
AcDbLine
 10
-7.994004302999997
 20
74.35230535
 30
0.0
 11
-13.0
 21
74.81315402199999
 31
0.0
  0
LINE
  5
62F
330
1D
100
AcDbEntity
  8
NOCUT
100
AcDbLine
 10
0.0
 20
74.432343997
 30
0.0
 11
-0.1199889120000535
 21
74.23917894600001
 31
0.0
  0
LINE
  5
630
330
1D
100
AcDbEntity
  8
NOCUT
100
AcDbLine
 10
-0.1199889120000535
 20
74.23917894600001
 30
0.0
 11
-0.4983513710000125
 21
74.049233724
 31
0.0
  0
LINE
  5
631
330
1D
100
AcDbEntity
  8
NOCUT
100
AcDbLine
 10
-0.4983513710000125
 20
74.049233724
 30
0.0
 11
-1.087379542999997
 21
73.90273743099999
 31
0.0
  0
LINE
  5
632
330
1D
100
AcDbEntity
  8
NOCUT
100
AcDbLine
 10
-1.087379542999997
 20
73.90273743099999
 30
0.0
 11
-1.798805552999966
 21
73.82197586400002
 31
0.0
  0
LINE
  5
633
330
1D
100
AcDbEntity
  8
NOCUT
100
AcDbLine
 10
-1.798805552999966
 20
73.82197586400002
 30
0.0
 11
-2.25
 21
73.80859039199999
 31
0.0
  0
LINE
  5
634
330
1D
100
AcDbEntity
  8
NOCUT
100
AcDbLine
 10
-2.25
 20
73.80859039199999
 30
0.0
 11
-2.972927741000035
 21
73.84346825400002
 31
0.0
  0
LINE
  5
635
330
1D
100
AcDbEntity
  8
NOCUT
100
AcDbLine
 10
-13.0
 20
74.81315402199999
 30
0.0
 11
-14.0
 21
74.67211053300002
 31
0.0
  0
LINE
  5
636
330
1D
100
AcDbEntity
  8
NOCUT
100
AcDbLine
 10
-16.0
 20
72.30556062099998
 30
0.0
 11
-14.0
 21
74.67211053300002
 31
0.0
  0
LINE
  5
650
330
1D
100
AcDbEntity
  8
SK4
100
AcDbLine
 10
-15.67849684073303
 20
47.0
 30
0.0
 11
-0.3215031592669675
 21
47.0
 31
0.0
  0
LINE
  5
651
330
1D
100
AcDbEntity
  8
SK4
100
AcDbLine
 10
-8.0
 20
4.321503159266285
 30
0.0
 11
-8.0
 21
54.67849684073281
 31
0.0
  0
LINE
  5
653
330
1D
100
AcDbEntity
  8
SK4
100
AcDbLine
 10
-15.67849684073303
 20
29.50000000000001
 30
0.0
 11
-0.3215031592669675
 21
29.50000000000001
 31
0.0
  0
LINE
  5
655
330
1D
100
AcDbEntity
  8
SK4
100
AcDbLine
 10
-15.67849684073303
 20
12.0
 30
0.0
 11
-0.3215031592669675
 21
12.0
 31
0.0
  0
LINE
  5
659
330
1D
100
AcDbEntity
  8
4
100
AcDbLine
 10
-8.000000000000004
 20
4.321503159266285
 30
0.0
 11
-8.000000000000004
 21
54.67849684073281
 31
0.0
  0
LINE
  5
65A
330
1D
100
AcDbEntity
  8
4
100
AcDbLine
 10
-15.67849684073303
 20
47.0
 30
0.0
 11
-0.321503159266971
 21
47.0
 31
0.0
  0
LINE
  5
65B
330
1D
100
AcDbEntity
  8
4
100
AcDbLine
 10
-15.67849684073303
 20
29.50000000000001
 30
0.0
 11
-0.321503159266971
 21
29.50000000000001
 31
0.0
  0
LINE
  5
65C
330
1D
100
AcDbEntity
  8
4
100
AcDbLine
 10
-15.67849684073303
 20
12.0
 30
0.0
 11
-0.321503159266971
 21
12.0
 31
0.0
  0
ARC
  5
65D
330
1D
100
AcDbEntity
  8
NOCUT
100
AcDbCircle
 10
25.499984638
 20
140.152584314
 30
0.0
 40
60.85653311
100
AcDbArc
 50
263.3949532110001
 51
270.0
  0
ARC
  5
65E
330
1D
100
AcDbEntity
  8
NOCUT
100
AcDbCircle
 10
25.499984638
 20
140.152584314
 30
0.0
 40
60.852599552
100
AcDbArc
 50
270.0
 51
276.605068027
  0
LINE
  5
65F
330
1D
100
AcDbEntity
  8
NOCUT
100
AcDbLine
 10
32.499984638
 20
79.699994056
 30
0.0
 11
36.999984638
 21
79.699994056
 31
0.0
  0
ARC
  5
661
330
1D
100
AcDbEntity
  8
NOCUT
100
AcDbCircle
 10
36.999984638
 20
76.699993897
 30
0.0
 40
2.999997652547777
100
AcDbArc
 50
70.89432732582111
 51
90.0
  0
LINE
  5
678
330
1D
100
AcDbEntity
  8
NOCUT
100
AcDbLine
 10
48.520736591
 20
82.198986817
 30
0.0
 11
49.599990741
 21
82.3
 31
0.0
  0
LINE
  5
679
330
1D
100
AcDbEntity
  8
NOCUT
100
AcDbLine
 10
49.599990741
 20
82.3
 30
0.0
 11
49.096908466
 21
72.700299073
 31
0.0
  0
LINE
  5
67A
330
1D
100
AcDbEntity
  8
NOCUT
100
AcDbLine
 10
49.096908466
 20
72.700299073
 30
0.0
 11
48.8790521815034
 21
72.36483119777893
 31
0.0
  0
ENDSEC
  0
SECTION
  2
OBJECTS
  0
DICTIONARY
  5
C
330
0
100
AcDbDictionary
281
     1
  3
ACAD_COLOR
350
269
  3
ACAD_DETAILVIEWSTYLE
350
1C5
  3
ACAD_GROUP
350
D
  3
ACAD_LAYOUT
350
1A
  3
ACAD_MATERIAL
350
142
  3
ACAD_MLEADERSTYLE
350
150
  3
ACAD_MLINESTYLE
350
17
  3
ACAD_PLOTSETTINGS
350
19
  3
ACAD_PLOTSTYLENAME
350
E
  3
ACAD_SCALELIST
350
10B
  3
ACAD_SECTIONVIEWSTYLE
350
1C6
  3
ACAD_TABLESTYLE
350
199
  3
ACAD_VISUALSTYLE
350
131
  3
ACDB_RECOMPOSE_DATA
350
67F
  3
AcDbVariableDictionary
350
14E
  3
APPDATA
350
19C
  0
SUN
  5
21C
330
104
100
AcDbSun
 90
        1
290
     0
 63
     7
421
 16777215
 40
1.0
291
     1
 91
  2455826
 92
 54000000
292
     0
 70
     2
 71
   256
280
     1
  0
DICTIONARY
  5
19D
330
2
100
AcDbDictionary
280
     1
281
     1
  3
ACAD_LAYERSTATES
360
19E
  0
DICTIONARY
  5
4BF
330
1D
100
AcDbDictionary
280
     1
281
     1
  3
ACAD_SORTENTS
360
4C0
  0
DICTIONARY
  5
269
102
{ACAD_REACTORS
330
C
102
}
330
C
100
AcDbDictionary
281
     1
  0
DICTIONARY
  5
1C5
102
{ACAD_REACTORS
330
C
102
}
330
C
100
AcDbDictionary
281
     1
  0
DICTIONARY
  5
D
102
{ACAD_REACTORS
330
C
102
}
330
C
100
AcDbDictionary
281
     1
  0
DICTIONARY
  5
1A
102
{ACAD_REACTORS
330
C
102
}
330
C
100
AcDbDictionary
281
     1
  3
Layout1
350
1C
  3
Model
350
1E
  0
DICTIONARY
  5
142
102
{ACAD_REACTORS
330
C
102
}
330
C
100
AcDbDictionary
281
     1
  3
ByBlock
350
144
  3
ByLayer
350
143
  3
Global
350
145
  0
DICTIONARY
  5
150
102
{ACAD_REACTORS
330
C
102
}
330
C
100
AcDbDictionary
281
     1
  3
Standard
350
19B
  0
DICTIONARY
  5
17
102
{ACAD_REACTORS
330
C
102
}
330
C
100
AcDbDictionary
281
     1
  3
Standard
350
18
  0
DICTIONARY
  5
19
102
{ACAD_REACTORS
330
C
102
}
330
C
100
AcDbDictionary
281
     1
  0
ACDBDICTIONARYWDFLT
  5
E
102
{ACAD_REACTORS
330
C
102
}
330
C
100
AcDbDictionary
281
     1
  3
Normal
350
F
100
AcDbDictionaryWithDefault
340
F
  0
DICTIONARY
  5
10B
102
{ACAD_REACTORS
330
C
102
}
330
C
100
AcDbDictionary
281
     1
  3
A0
350
10C
  3
A1
350
10D
  3
A2
350
10E
  3
A3
350
10F
  3
A4
350
110
  3
A5
350
111
  3
A6
350
112
  3
A7
350
113
  3
A8
350
114
  3
A9
350
115
  3
B0
350
116
  3
B1
350
117
  3
B2
350
118
  3
B3
350
119
  3
B4
350
11A
  3
B5
350
11B
  3
B6
350
11C
  3
B7
350
11D
  3
B8
350
11E
  3
B9
350
11F
  3
C0
350
120
  3
C1
350
121
  3
C2
350
122
  3
C3
350
123
  3
C4
350
124
  3
C5
350
125
  3
C6
350
126
  3
C7
350
127
  3
C8
350
128
  3
C9
350
129
  3
D0
350
12A
  3
D1
350
12B
  3
D2
350
12C
  0
DICTIONARY
  5
1C6
102
{ACAD_REACTORS
330
C
102
}
330
C
100
AcDbDictionary
281
     1
  0
DICTIONARY
  5
199
102
{ACAD_REACTORS
330
C
102
}
330
C
100
AcDbDictionary
281
     1
  3
Standard
350
19A
  0
DICTIONARY
  5
131
102
{ACAD_REACTORS
330
C
102
}
330
C
100
AcDbDictionary
281
     1
  3
2dWireframe
350
136
  3
3D Hidden
350
138
  3
3dWireframe
350
137
  3
Basic
350
139
  3
Brighten
350
13D
  3
ColorChange
350
141
  3
Conceptual
350
13B
  3
Dim
350
13C
  3
EdgeColorOff
350
193
  3
Facepattern
350
140
  3
Flat
350
132
  3
FlatWithEdges
350
133
  3
Gouraud
350
134
  3
GouraudWithEdges
350
135
  3
Hidden
350
190
  3
JitterOff
350
191
  3
Linepattern
350
13F
  3
OverhangOff
350
192
  3
Realistic
350
13A
  3
Shaded
350
198
  3
Shaded with edges
350
197
  3
Shades of Gray
350
194
  3
Sketchy
350
195
  3
Thicken
350
13E
  3
Wireframe
350
18F
  3
X-Ray
350
196
  0
XRECORD
  5
67F
102
{ACAD_REACTORS
330
C
102
}
330
C
100
AcDbXrecord
280
     1
 90
        1
330
19A
  0
DICTIONARY
  5
14E
102
{ACAD_REACTORS
330
C
102
}
330
C
100
AcDbDictionary
281
     1
  3
CANNOSCALE
350
1C2
  3
CMLEADERSTYLE
350
1C4
  3
CTABLESTYLE
350
1C3
  3
DIMASSOC
350
152
  3
HIDETEXT
350
153
  3
MSLTSCALE
350
151
  0
DICTIONARY
  5
19C
102
{ACAD_REACTORS
330
C
102
}
330
C
100
AcDbDictionary
281
     1
  0
DICTIONARY
  5
19E
102
{ACAD_REACTORS
330
19D
102
}
330
19D
100
AcDbDictionary
281
     1
  0
SORTENTSTABLE
  5
4C0
102
{ACAD_REACTORS
330
4BF
102
}
330
4BF
100
AcDbSortentsTable
330
1D
331
29
  5
2A
331
2A
  5
2B
331
2B
  5
2D
331
2C
  5
2E
331
2D
  5
2F
331
2E
  5
30
331
2F
  5
31
331
30
  5
32
331
31
  5
33
331
32
  5
34
331
33
  5
35
331
34
  5
36
331
35
  5
37
331
36
  5
38
331
37
  5
39
331
38
  5
3A
331
39
  5
3B
331
3A
  5
3C
331
3B
  5
3D
331
3C
  5
3E
331
3D
  5
3F
331
3E
  5
40
331
3F
  5
41
331
40
  5
42
331
41
  5
43
331
42
  5
44
331
43
  5
45
331
44
  5
46
331
45
  5
47
331
46
  5
48
331
47
  5
49
331
48
  5
4A
331
49
  5
4B
331
4A
  5
4C
331
4B
  5
4D
331
4C
  5
4E
331
4D
  5
4F
331
4E
  5
50
331
4F
  5
51
331
50
  5
52
331
51
  5
53
331
52
  5
54
331
0
  5
55
331
54
  5
56
331
55
  5
5D
331
56
  5
5E
331
57
  5
5F
331
58
  5
60
331
59
  5
61
331
5A
  5
62
331
5B
  5
63
331
5C
  5
64
331
5D
  5
67
331
5E
  5
68
331
5F
  5
69
331
60
  5
6A
331
61
  5
6B
331
0
  5
6C
331
63
  5
6D
331
64
  5
6E
331
67
  5
6F
331
68
  5
70
331
69
  5
71
331
6A
  5
72
331
6B
  5
73
331
6C
  5
74
331
0
  5
75
331
6E
  5
76
331
6F
  5
77
331
70
  5
78
331
71
  5
79
331
72
  5
7A
331
73
  5
7B
331
74
  5
7D
331
75
  5
7E
331
76
  5
7F
331
77
  5
80
331
78
  5
83
331
79
  5
84
331
7A
  5
85
331
7B
  5
86
331
7D
  5
87
331
7E
  5
88
331
7F
  5
89
331
0
  5
8A
331
83
  5
8B
331
0
  5
8C
331
85
  5
8D
331
0
  5
8E
331
87
  5
8F
331
88
  5
90
331
89
  5
91
331
8A
  5
92
331
8B
  5
93
331
8C
  5
94
331
8D
  5
95
331
8E
  5
96
331
8F
  5
97
331
90
  5
98
331
91
  5
99
331
92
  5
9A
331
93
  5
9B
331
94
  5
9C
331
95
  5
9D
331
96
  5
9E
331
97
  5
9F
331
98
  5
A0
331
99
  5
A1
331
9A
  5
A2
331
9B
  5
A3
331
9C
  5
A4
331
9D
  5
A5
331
0
  5
A6
331
9F
  5
A7
331
A0
  5
A8
331
A1
  5
A9
331
A2
  5
AA
331
A3
  5
AB
331
A4
  5
AC
331
A5
  5
AD
331
A6
  5
AE
331
A7
  5
AF
331
A8
  5
B0
331
A9
  5
B1
331
AA
  5
B2
331
AB
  5
B3
331
AC
  5
B4
331
AD
  5
B5
331
AE
  5
B6
331
AF
  5
B7
331
B0
  5
B8
331
B1
  5
B9
331
B2
  5
BA
331
B3
  5
BB
331
B4
  5
BC
331
B5
  5
BD
331
B6
  5
BE
331
B7
  5
BF
331
B8
  5
C0
331
B9
  5
C1
331
BA
  5
C2
331
BB
  5
C3
331
BC
  5
C4
331
BD
  5
C5
331
BE
  5
C6
331
BF
  5
C7
331
C0
  5
C8
331
0
  5
C9
331
0
  5
CA
331
0
  5
CB
331
C4
  5
CC
331
C5
  5
CD
331
C6
  5
CE
331
C7
  5
CF
331
C8
  5
D0
331
C9
  5
D1
331
CA
  5
D2
331
CB
  5
D3
331
CC
  5
D4
331
CD
  5
D5
331
CE
  5
D6
331
CF
  5
D7
331
0
  5
D8
331
D1
  5
D9
331
0
  5
DA
331
0
  5
DB
331
D4
  5
DC
331
0
  5
DD
331
0
  5
DE
331
D7
  5
DF
331
0
  5
E0
331
D9
  5
E1
331
DA
  5
E2
331
DB
  5
E3
331
DC
  5
E4
331
DD
  5
E5
331
DE
  5
E6
331
DF
  5
E7
331
E0
  5
E8
331
E1
  5
E9
331
E2
  5
EA
331
E3
  5
EB
331
E4
  5
EC
331
E5
  5
ED
331
E6
  5
EE
331
E7
  5
EF
331
E8
  5
F0
331
E9
  5
F1
331
EA
  5
F2
331
EB
  5
F3
331
EC
  5
F4
331
ED
  5
F5
331
EE
  5
F6
331
EF
  5
F7
331
F0
  5
F8
331
F1
  5
F9
331
F2
  5
FA
331
F3
  5
FB
331
F4
  5
FC
331
F5
  5
FD
331
F6
  5
FE
331
F7
  5
FF
331
F8
  5
100
331
F9
  5
101
331
FA
  5
102
331
FB
  5
103
331
FC
  5
1A8
331
FD
  5
1A9
331
FE
  5
1AA
331
FF
  5
1AB
331
100
  5
1AD
331
101
  5
1AE
331
102
  5
1AF
331
103
  5
1B1
331
1A8
  5
1B2
331
1A9
  5
1B3
331
1AA
  5
1C8
331
1AB
  5
1C9
331
1AD
  5
1CA
331
1AE
  5
1CB
331
1AF
  5
1CC
331
1B1
  5
1CD
331
1B2
  5
1CE
331
0
  5
1CF
331
1C8
  5
1D0
331
1C9
  5
1D1
331
1CA
  5
1D2
331
1CB
  5
1D3
331
1CC
  5
1D4
331
1CD
  5
1D5
331
1CE
  5
1D6
331
0
  5
1D7
331
0
  5
1D8
331
0
  5
1D9
331
1D2
  5
1DA
331
1D3
  5
1DB
331
0
  5
1DC
331
0
  5
1DD
331
0
  5
1DE
331
0
  5
1DF
331
1D8
  5
1E0
331
1D9
  5
1E1
331
1DA
  5
1E2
331
1DB
  5
1E3
331
1DC
  5
1E4
331
1DD
  5
1E5
331
1DE
  5
1E6
331
1DF
  5
1E7
331
1E0
  5
1E9
331
1E1
  5
232
331
1E2
  5
233
331
1E3
  5
23E
331
1E4
  5
23F
331
1E5
  5
240
331
1E6
  5
241
331
0
  5
242
331
1E9
  5
243
331
232
  5
244
331
233
  5
384
331
23E
  5
38C
331
23F
  5
38D
331
240
  5
38E
331
241
  5
38F
331
242
  5
390
331
243
  5
391
331
244
  5
392
331
0
  5
393
331
0
  5
394
331
0
  5
395
331
0
  5
396
331
0
  5
397
331
0
  5
398
331
0
  5
399
331
0
  5
39A
331
0
  5
39B
331
0
  5
39C
331
0
  5
39D
331
0
  5
39E
331
0
  5
39F
331
0
  5
3A0
331
0
  5
3A1
331
0
  5
3A2
331
0
  5
3A3
331
0
  5
3A4
331
0
  5
3A5
331
0
  5
3A6
331
0
  5
3A7
331
0
  5
3A8
331
0
  5
3A9
331
0
  5
3AA
331
0
  5
3AB
331
0
  5
3AC
331
0
  5
3AD
331
0
  5
3AE
331
0
  5
3AF
331
0
  5
3B0
331
0
  5
3B1
331
0
  5
3B2
331
0
  5
3B3
331
0
  5
3B4
331
0
  5
3B5
331
0
  5
3B6
331
0
  5
3B7
331
0
  5
3B8
331
0
  5
3B9
331
0
  5
3BA
331
0
  5
3BB
331
0
  5
3BC
331
0
  5
3BD
331
0
  5
3BE
331
0
  5
3BF
331
0
  5
3C0
331
0
  5
3C1
331
0
  5
3C2
331
0
  5
3C3
331
0
  5
3C4
331
0
  5
3C5
331
0
  5
3C6
331
0
  5
3C7
331
0
  5
3C8
331
0
  5
3C9
331
0
  5
3CA
331
0
  5
3CB
331
0
  5
3CC
331
0
  5
3CD
331
0
  5
3CE
331
0
  5
3CF
331
0
  5
3D0
331
0
  5
3D1
331
0
  5
3D2
331
0
  5
3D3
331
0
  5
3D4
331
0
  5
3D5
331
0
  5
3D6
331
0
  5
3D7
331
0
  5
3D8
331
0
  5
3D9
331
0
  5
3DA
331
0
  5
3DB
331
0
  5
3DC
331
0
  5
3DD
331
0
  5
3DE
331
0
  5
3DF
331
0
  5
3E0
331
0
  5
3E1
331
0
  5
3E2
331
0
  5
3E3
331
0
  5
3E4
331
0
  5
3E5
331
0
  5
3E6
331
0
  5
3E7
331
0
  5
3E8
331
0
  5
3E9
331
0
  5
3EA
331
0
  5
3EB
331
0
  5
3EC
331
0
  5
3ED
331
0
  5
3EE
331
0
  5
3EF
331
0
  5
3F0
331
0
  5
3F1
331
0
  5
3F2
331
0
  5
3F3
331
0
  5
3F4
331
0
  5
3F5
331
0
  5
3F6
331
0
  5
3F7
331
0
  5
3F8
331
0
  5
3F9
331
0
  5
3FA
331
0
  5
3FB
331
0
  5
3FC
331
0
  5
3FD
331
0
  5
3FE
331
0
  5
3FF
331
0
  5
400
331
0
  5
401
331
0
  5
402
331
0
  5
403
331
0
  5
404
331
0
  5
405
331
0
  5
406
331
0
  5
407
331
0
  5
408
331
0
  5
409
331
0
  5
40A
331
0
  5
40B
331
0
  5
40C
331
0
  5
40D
331
0
  5
40E
331
0
  5
40F
331
0
  5
410
331
0
  5
411
331
0
  5
412
331
0
  5
413
331
0
  5
414
331
0
  5
415
331
0
  5
416
331
0
  5
417
331
0
  5
418
331
0
  5
419
331
0
  5
41A
331
0
  5
41B
331
0
  5
41C
331
0
  5
41D
331
0
  5
41E
331
0
  5
41F
331
0
  5
422
331
0
  5
425
331
0
  5
428
331
0
  5
42B
331
0
  5
42E
331
0
  5
4BE
331
0
  5
4C1
331
0
  5
4C2
331
0
  5
4C3
331
0
  5
4C4
331
0
  5
4C5
331
0
  5
4C6
331
0
  5
4C7
331
0
  5
4C8
331
0
  5
4C9
331
0
  5
4CA
331
0
  5
4CB
331
0
  5
4CC
331
0
  5
4CD
331
0
  5
4CE
331
0
  5
2C
331
0
  5
29
331
0
  5
57
331
0
  5
58
331
0
  5
59
331
0
  5
5A
331
0
  5
5B
331
0
  5
5C
331
0
  5
385
331
0
  5
386
331
0
  5
387
331
0
  5
388
331
0
  5
389
331
0
  5
38A
331
4CE
  5
38B
  0
LAYOUT
  5
1C
102
{ACAD_REACTORS
330
1A
102
}
330
1A
100
AcDbPlotSettings
  1

  2
none_device
  4

  6

 40
0.0
 41
0.0
 42
0.0
 43
0.0
 44
0.0
 45
0.0
 46
0.0
 47
0.0
 48
0.0
 49
0.0
140
0.0
141
0.0
142
1.0
143
1.0
 70
   688
 72
     0
 73
     0
 74
     5
  7

 75
    16
 76
     0
 77
     2
 78
   300
147
1.0
148
0.0
149
0.0
100
AcDbLayout
  1
Layout1
 70
     1
 71
     1
 10
0.0
 20
0.0
 11
12.0
 21
9.0
 12
0.0
 22
0.0
 32
0.0
 14
1.000000000000000E+20
 24
1.000000000000000E+20
 34
1.000000000000000E+20
 15
-1.000000000000000E+20
 25
-1.000000000000000E+20
 35
-1.000000000000000E+20
146
0.0
 13
0.0
 23
0.0
 33
0.0
 16
1.0
 26
0.0
 36
0.0
 17
0.0
 27
1.0
 37
0.0
 76
     0
330
1B
  0
LAYOUT
  5
1E
102
{ACAD_REACTORS
330
1A
102
}
330
1A
100
AcDbPlotSettings
  1

  2
none_device
  4

  6

 40
0.0
 41
0.0
 42
0.0
 43
0.0
 44
0.0
 45
0.0
 46
0.0
 47
0.0
 48
0.0
 49
0.0
140
0.0
141
0.0
142
1.0
143
1.0
 70
  1712
 72
     0
 73
     0
 74
     0
  7

 75
     0
 76
     0
 77
     2
 78
   300
147
1.0
148
0.0
149
0.0
100
AcDbLayout
  1
Model
 70
     1
 71
     0
 10
0.0
 20
0.0
 11
12.0
 21
9.0
 12
0.0
 22
0.0
 32
0.0
 14
-44.5109220732208
 24
-21.07012709609332
 34
0.0
 15
93.43835052800796
 25
124.8510883941512
 35
0.0
146
0.0
 13
0.0
 23
0.0
 33
0.0
 16
1.0
 26
0.0
 36
0.0
 17
0.0
 27
1.0
 37
0.0
 76
     0
330
1D
331
104
  0
MATERIAL
  5
144
102
{ACAD_REACTORS
330
142
102
}
330
142
100
AcDbMaterial
  1
ByBlock
 72
     1
 94
      127
  0
MATERIAL
  5
143
102
{ACAD_REACTORS
330
142
102
}
330
142
100
AcDbMaterial
  1
ByLayer
 72
     1
 94
      127
  0
MATERIAL
  5
145
102
{ACAD_REACTORS
330
142
102
}
330
142
100
AcDbMaterial
  1
Global
 72
     1
 94
      127
  0
MLEADERSTYLE
  5
19B
102
{ACAD_REACTORS
330
150
102
}
330
150
100
AcDbMLeaderStyle
179
     2
170
     2
171
     1
172
     0
 90
        2
 40
0.0
 41
0.0
173
     1
 91
-1056964608
340
14
 92
       -2
290
     1
 42
0.09
291
     1
 43
0.36
  3
Standard
341
0
 44
0.18
300

342
11
174
     1
178
     1
175
     1
176
     0
 93
-1056964608
 45
0.18
292
     0
297
     0
 46
0.18
343
0
 94
-1056964608
 47
1.0
 49
1.0
140
1.0
293
     1
141
0.0
294
     1
177
     0
142
1.0
295
     0
296
     0
143
0.125
271
     0
272
     9
273
     9
298
     0
  0
MLINESTYLE
  5
18
102
{ACAD_REACTORS
330
17
102
}
330
17
100
AcDbMlineStyle
  2
Standard
 70
     0
  3

 62
   256
 51
90.0
 52
90.0
 71
     2
 49
0.5
 62
   256
  6
BYLAYER
 49
-0.5
 62
   256
  6
BYLAYER
  0
ACDBPLACEHOLDER
  5
F
102
{ACAD_REACTORS
330
E
102
}
330
E
  0
SCALE
  5
10C
102
{ACAD_REACTORS
330
10B
102
}
330
10B
100
AcDbScale
 70
     0
300
1:1
140
1.0
141
1.0
290
     1
  0
SCALE
  5
10D
102
{ACAD_REACTORS
330
10B
102
}
330
10B
100
AcDbScale
 70
     0
300
1:2
140
1.0
141
2.0
290
     0
  0
SCALE
  5
10E
102
{ACAD_REACTORS
330
10B
102
}
330
10B
100
AcDbScale
 70
     0
300
1:4
140
1.0
141
4.0
290
     0
  0
SCALE
  5
10F
102
{ACAD_REACTORS
330
10B
102
}
330
10B
100
AcDbScale
 70
     0
300
1:5
140
1.0
141
5.0
290
     0
  0
SCALE
  5
110
102
{ACAD_REACTORS
330
10B
102
}
330
10B
100
AcDbScale
 70
     0
300
1:8
140
1.0
141
8.0
290
     0
  0
SCALE
  5
111
102
{ACAD_REACTORS
330
10B
102
}
330
10B
100
AcDbScale
 70
     0
300
1:10
140
1.0
141
10.0
290
     0
  0
SCALE
  5
112
102
{ACAD_REACTORS
330
10B
102
}
330
10B
100
AcDbScale
 70
     0
300
1:16
140
1.0
141
16.0
290
     0
  0
SCALE
  5
113
102
{ACAD_REACTORS
330
10B
102
}
330
10B
100
AcDbScale
 70
     0
300
1:20
140
1.0
141
20.0
290
     0
  0
SCALE
  5
114
102
{ACAD_REACTORS
330
10B
102
}
330
10B
100
AcDbScale
 70
     0
300
1:30
140
1.0
141
30.0
290
     0
  0
SCALE
  5
115
102
{ACAD_REACTORS
330
10B
102
}
330
10B
100
AcDbScale
 70
     0
300
1:40
140
1.0
141
40.0
290
     0
  0
SCALE
  5
116
102
{ACAD_REACTORS
330
10B
102
}
330
10B
100
AcDbScale
 70
     0
300
1:50
140
1.0
141
50.0
290
     0
  0
SCALE
  5
117
102
{ACAD_REACTORS
330
10B
102
}
330
10B
100
AcDbScale
 70
     0
300
1:100
140
1.0
141
100.0
290
     0
  0
SCALE
  5
118
102
{ACAD_REACTORS
330
10B
102
}
330
10B
100
AcDbScale
 70
     0
300
2:1
140
2.0
141
1.0
290
     0
  0
SCALE
  5
119
102
{ACAD_REACTORS
330
10B
102
}
330
10B
100
AcDbScale
 70
     0
300
4:1
140
4.0
141
1.0
290
     0
  0
SCALE
  5
11A
102
{ACAD_REACTORS
330
10B
102
}
330
10B
100
AcDbScale
 70
     0
300
8:1
140
8.0
141
1.0
290
     0
  0
SCALE
  5
11B
102
{ACAD_REACTORS
330
10B
102
}
330
10B
100
AcDbScale
 70
     0
300
10:1
140
10.0
141
1.0
290
     0
  0
SCALE
  5
11C
102
{ACAD_REACTORS
330
10B
102
}
330
10B
100
AcDbScale
 70
     0
300
100:1
140
100.0
141
1.0
290
     0
  0
SCALE
  5
11D
102
{ACAD_REACTORS
330
10B
102
}
330
10B
100
AcDbScale
 70
     0
300
1/128" = 1'-0"
140
0.0078125
141
12.0
290
     0
  0
SCALE
  5
11E
102
{ACAD_REACTORS
330
10B
102
}
330
10B
100
AcDbScale
 70
     0
300
1/64" = 1'-0"
140
0.015625
141
12.0
290
     0
  0
SCALE
  5
11F
102
{ACAD_REACTORS
330
10B
102
}
330
10B
100
AcDbScale
 70
     0
300
1/32" = 1'-0"
140
0.03125
141
12.0
290
     0
  0
SCALE
  5
120
102
{ACAD_REACTORS
330
10B
102
}
330
10B
100
AcDbScale
 70
     0
300
1/16" = 1'-0"
140
0.0625
141
12.0
290
     0
  0
SCALE
  5
121
102
{ACAD_REACTORS
330
10B
102
}
330
10B
100
AcDbScale
 70
     0
300
3/32" = 1'-0"
140
0.09375
141
12.0
290
     0
  0
SCALE
  5
122
102
{ACAD_REACTORS
330
10B
102
}
330
10B
100
AcDbScale
 70
     0
300
1/8" = 1'-0"
140
0.125
141
12.0
290
     0
  0
SCALE
  5
123
102
{ACAD_REACTORS
330
10B
102
}
330
10B
100
AcDbScale
 70
     0
300
3/16" = 1'-0"
140
0.1875
141
12.0
290
     0
  0
SCALE
  5
124
102
{ACAD_REACTORS
330
10B
102
}
330
10B
100
AcDbScale
 70
     0
300
1/4" = 1'-0"
140
0.25
141
12.0
290
     0
  0
SCALE
  5
125
102
{ACAD_REACTORS
330
10B
102
}
330
10B
100
AcDbScale
 70
     0
300
3/8" = 1'-0"
140
0.375
141
12.0
290
     0
  0
SCALE
  5
126
102
{ACAD_REACTORS
330
10B
102
}
330
10B
100
AcDbScale
 70
     0
300
1/2" = 1'-0"
140
0.5
141
12.0
290
     0
  0
SCALE
  5
127
102
{ACAD_REACTORS
330
10B
102
}
330
10B
100
AcDbScale
 70
     0
300
3/4" = 1'-0"
140
0.75
141
12.0
290
     0
  0
SCALE
  5
128
102
{ACAD_REACTORS
330
10B
102
}
330
10B
100
AcDbScale
 70
     0
300
1" = 1'-0"
140
1.0
141
12.0
290
     0
  0
SCALE
  5
129
102
{ACAD_REACTORS
330
10B
102
}
330
10B
100
AcDbScale
 70
     0
300
1-1/2" = 1'-0"
140
1.5
141
12.0
290
     0
  0
SCALE
  5
12A
102
{ACAD_REACTORS
330
10B
102
}
330
10B
100
AcDbScale
 70
     0
300
3" = 1'-0"
140
3.0
141
12.0
290
     0
  0
SCALE
  5
12B
102
{ACAD_REACTORS
330
10B
102
}
330
10B
100
AcDbScale
 70
     0
300
6" = 1'-0"
140
6.0
141
12.0
290
     0
  0
SCALE
  5
12C
102
{ACAD_REACTORS
330
10B
102
}
330
10B
100
AcDbScale
 70
     0
300
1'-0" = 1'-0"
140
12.0
141
12.0
290
     0
  0
TABLESTYLE
  5
19A
102
{ACAD_REACTORS
330
199
102
}
102
{ACAD_XDICTIONARY
360
67D
102
}
330
199
100
AcDbTableStyle
  3
Standard
 70
     0
 71
     0
 40
0.06
 41
0.06
280
     0
281
     0
  7
Standard
140
0.18
170
     2
 62
     0
 63
   257
283
     0
 90
        4
 91
        0
  1

274
    -2
284
     1
 64
     0
275
    -2
285
     1
 65
     0
276
    -2
286
     1
 66
     0
277
    -2
287
     1
 67
     0
278
    -2
288
     1
 68
     0
279
    -2
289
     1
 69
     0
  7
Standard
140
0.25
170
     5
 62
     0
 63
   257
283
     0
 90
        4
 91
        0
  1

274
    -2
284
     1
 64
     0
275
    -2
285
     1
 65
     0
276
    -2
286
     1
 66
     0
277
    -2
287
     1
 67
     0
278
    -2
288
     1
 68
     0
279
    -2
289
     1
 69
     0
  7
Standard
140
0.18
170
     5
 62
     0
 63
   257
283
     0
 90
        4
 91
        0
  1

274
    -2
284
     1
 64
     0
275
    -2
285
     1
 65
     0
276
    -2
286
     1
 66
     0
277
    -2
287
     1
 67
     0
278
    -2
288
     1
 68
     0
279
    -2
289
     1
 69
     0
  0
VISUALSTYLE
  5
136
102
{ACAD_REACTORS
330
131
102
}
330
131
100
AcDbVisualStyle
  2
2dWireframe
 70
     4
177
     3
291
     0
 70
    58
 90
        0
176
     1
 90
        2
176
     1
 90
        0
176
     1
 90
        0
176
     1
 40
-0.6
176
     1
 40
-30.0
176
     1
 62
     7
176
     1
 90
        1
176
     1
 90
        4
176
     1
 62
     7
176
     1
 62
   257
176
     1
 90
        1
176
     1
 90
        1
176
     1
 40
1.0
176
     1
 90
        0
176
     1
 62
   257
176
     1
 40
1.0
176
     1
 90
        1
176
     1
 90
        6
176
     1
 90
        2
176
     1
 62
     7
176
     1
 90
        5
176
     1
 90
        0
176
     1
 90
        0
176
     1
290
     0
176
     1
 90
        1
176
     1
 40
0.0
176
     1
 90
        0
176
     1
290
     1
176
     1
290
     1
176
     1
290
     0
176
     1
290
     0
176
     1
290
     0
176
     1
290
     0
176
     1
290
     0
176
     1
290
     0
176
     1
290
     0
176
     1
 90
       50
176
     1
 40
0.0
176
     1
 40
1.0
176
     1
 90
        0
176
     1
 62
    18
420
        0
176
     1
 90
       50
176
     1
 90
        3
176
     1
 62
     5
420
      255
176
     1
290
     0
176
     1
 90
       50
176
     1
 90
       50
176
     1
 90
       50
176
     1
290
     0
176
     1
 90
       50
176
     1
 62
   256
176
     0
 40
1.0
176
     0
 90
        2
176
     1
  1
strokes_ogs.tif
176
     1
290
     0
176
     1
 40
1.0
176
     1
 40
1.0
176
     1
  0
VISUALSTYLE
  5
138
102
{ACAD_REACTORS
330
131
102
}
330
131
100
AcDbVisualStyle
  2
3D Hidden
 70
     6
177
     3
291
     0
 70
    58
 90
        1
176
     1
 90
        2
176
     1
 90
        2
176
     1
 90
        0
176
     1
 40
-0.6
176
     1
 40
-30.0
176
     1
 62
     7
176
     1
 90
        2
176
     1
 90
        2
176
     1
 62
     7
176
     1
 62
   257
176
     1
 90
        2
176
     1
 90
        1
176
     1
 40
40.0
176
     1
 90
        0
176
     1
 62
   257
176
     1
 40
1.0
176
     1
 90
        1
176
     1
 90
        6
176
     1
 90
        2
176
     1
 62
     7
176
     1
 90
        3
176
     1
 90
        0
176
     1
 90
        0
176
     1
290
     0
176
     1
 90
        1
176
     1
 40
0.0
176
     1
 90
        0
176
     1
290
     0
176
     1
290
     1
176
     1
290
     1
176
     1
290
     0
176
     1
290
     0
176
     1
290
     0
176
     1
290
     0
176
     1
290
     0
176
     1
290
     0
176
     1
 90
       50
176
     1
 40
0.0
176
     1
 40
1.0
176
     1
 90
        0
176
     1
 62
    18
420
        0
176
     1
 90
       50
176
     1
 90
        3
176
     1
 62
     5
420
      255
176
     1
290
     0
176
     1
 90
       50
176
     1
 90
       50
176
     1
 90
       50
176
     1
290
     0
176
     1
 90
       50
176
     1
 62
   256
176
     0
 40
1.0
176
     0
 90
        2
176
     1
  1
strokes_ogs.tif
176
     1
290
     0
176
     1
 40
1.0
176
     1
 40
1.0
176
     1
  0
VISUALSTYLE
  5
137
102
{ACAD_REACTORS
330
131
102
}
330
131
100
AcDbVisualStyle
  2
3dWireframe
 70
     5
177
     3
291
     0
 70
    58
 90
        0
176
     1
 90
        2
176
     1
 90
        0
176
     1
 90
        0
176
     1
 40
-0.6
176
     1
 40
-30.0
176
     1
 62
     7
176
     1
 90
        1
176
     1
 90
        4
176
     1
 62
     7
176
     1
 62
   257
176
     1
 90
        1
176
     1
 90
        1
176
     1
 40
1.0
176
     1
 90
        0
176
     1
 62
   257
176
     1
 40
1.0
176
     1
 90
        1
176
     1
 90
        6
176
     1
 90
        2
176
     1
 62
     7
176
     1
 90
        5
176
     1
 90
        0
176
     1
 90
        0
176
     1
290
     0
176
     1
 90
        1
176
     1
 40
0.0
176
     1
 90
        0
176
     1
290
     0
176
     1
290
     1
176
     1
290
     1
176
     1
290
     0
176
     1
290
     0
176
     1
290
     0
176
     1
290
     0
176
     1
290
     0
176
     1
290
     0
176
     1
 90
       50
176
     1
 40
0.0
176
     1
 40
1.0
176
     1
 90
        0
176
     1
 62
    18
420
        0
176
     1
 90
       50
176
     1
 90
        3
176
     1
 62
     5
420
      255
176
     1
290
     0
176
     1
 90
       50
176
     1
 90
       50
176
     1
 90
       50
176
     1
290
     0
176
     1
 90
       50
176
     1
 62
   256
176
     0
 40
1.0
176
     0
 90
        2
176
     1
  1
strokes_ogs.tif
176
     1
290
     0
176
     1
 40
1.0
176
     1
 40
1.0
176
     1
  0
VISUALSTYLE
  5
139
102
{ACAD_REACTORS
330
131
102
}
330
131
100
AcDbVisualStyle
  2
Basic
 70
     7
177
     3
291
     1
 70
    58
 90
        1
176
     1
 90
        0
176
     1
 90
        1
176
     1
 90
        0
176
     1
 40
-0.6
176
     1
 40
-30.0
176
     1
 62
     7
176
     1
 90
        0
176
     1
 90
        4
176
     1
 62
     7
176
     1
 62
   257
176
     1
 90
        1
176
     1
 90
        1
176
     1
 40
1.0
176
     1
 90
        8
176
     1
 62
     7
176
     1
 40
1.0
176
     1
 90
        1
176
     1
 90
        6
176
     1
 90
        2
176
     1
 62
     7
176
     1
 90
        5
176
     1
 90
        0
176
     1
 90
        0
176
     1
290
     0
176
     1
 90
        1
176
     1
 40
0.0
176
     1
 90
        0
176
     1
290
     0
176
     1
290
     1
176
     1
290
     1
176
     1
290
     0
176
     1
290
     0
176
     1
290
     0
176
     1
290
     0
176
     1
290
     0
176
     1
290
     0
176
     1
 90
       50
176
     1
 40
0.0
176
     1
 40
1.0
176
     1
 90
        0
176
     1
 62
    18
420
        0
176
     1
 90
       50
176
     1
 90
        3
176
     1
 62
     5
420
      255
176
     1
290
     0
176
     1
 90
       50
176
     1
 90
       50
176
     1
 90
       50
176
     1
290
     0
176
     1
 90
       50
176
     1
 62
   256
176
     0
 40
1.0
176
     0
 90
        2
176
     1
  1
strokes_ogs.tif
176
     1
290
     0
176
     1
 40
1.0
176
     1
 40
1.0
176
     1
  0
VISUALSTYLE
  5
13D
102
{ACAD_REACTORS
330
131
102
}
330
131
100
AcDbVisualStyle
  2
Brighten
 70
    12
177
     3
291
     1
 70
    58
 90
        2
176
     1
 90
        2
176
     1
 90
        0
176
     1
 90
        0
176
     1
 40
-0.6
176
     1
 40
-30.0
176
     1
 62
     7
176
     1
 90
        1
176
     1
 90
        4
176
     1
 62
     7
176
     1
 62
   257
176
     1
 90
        1
176
     1
 90
        1
176
     1
 40
1.0
176
     1
 90
        8
176
     1
 62
     7
176
     1
 40
1.0
176
     1
 90
        1
176
     1
 90
        6
176
     1
 90
        2
176
     1
 62
     7
176
     1
 90
        5
176
     1
 90
        0
176
     1
 90
        0
176
     1
290
     0
176
     1
 90
        1
176
     1
 40
50.0
176
     1
 90
        0
176
     1
290
     0
176
     1
290
     1
176
     1
290
     1
176
     1
290
     0
176
     1
290
     0
176
     1
290
     0
176
     1
290
     0
176
     1
290
     0
176
     1
290
     0
176
     1
 90
       50
176
     1
 40
0.0
176
     1
 40
1.0
176
     1
 90
        0
176
     1
 62
    18
420
        0
176
     1
 90
       50
176
     1
 90
        3
176
     1
 62
     5
420
      255
176
     1
290
     0
176
     1
 90
       50
176
     1
 90
       50
176
     1
 90
       50
176
     1
290
     0
176
     1
 90
       50
176
     1
 62
   256
176
     0
 40
1.0
176
     0
 90
        2
176
     1
  1
strokes_ogs.tif
176
     1
290
     0
176
     1
 40
1.0
176
     1
 40
1.0
176
     1
  0
VISUALSTYLE
  5
141
102
{ACAD_REACTORS
330
131
102
}
330
131
100
AcDbVisualStyle
  2
ColorChange
 70
    16
177
     3
291
     1
 70
    58
 90
        2
176
     1
 90
        2
176
     1
 90
        3
176
     1
 90
        0
176
     1
 40
-0.6
176
     1
 40
-30.0
176
     1
 62
     8
176
     1
 90
        1
176
     1
 90
        4
176
     1
 62
     7
176
     1
 62
   257
176
     1
 90
        1
176
     1
 90
        1
176
     1
 40
1.0
176
     1
 90
        8
176
     1
 62
     8
176
     1
 40
1.0
176
     1
 90
        1
176
     1
 90
        6
176
     1
 90
        2
176
     1
 62
     7
176
     1
 90
        5
176
     1
 90
        0
176
     1
 90
        0
176
     1
290
     0
176
     1
 90
        1
176
     1
 40
0.0
176
     1
 90
        0
176
     1
290
     0
176
     1
290
     1
176
     1
290
     1
176
     1
290
     0
176
     1
290
     0
176
     1
290
     0
176
     1
290
     0
176
     1
290
     0
176
     1
290
     0
176
     1
 90
       50
176
     1
 40
0.0
176
     1
 40
1.0
176
     1
 90
        0
176
     1
 62
    18
420
        0
176
     1
 90
       50
176
     1
 90
        3
176
     1
 62
     5
420
      255
176
     1
290
     0
176
     1
 90
       50
176
     1
 90
       50
176
     1
 90
       50
176
     1
290
     0
176
     1
 90
       50
176
     1
 62
   256
176
     0
 40
1.0
176
     0
 90
        2
176
     1
  1
strokes_ogs.tif
176
     1
290
     0
176
     1
 40
1.0
176
     1
 40
1.0
176
     1
  0
VISUALSTYLE
  5
13B
102
{ACAD_REACTORS
330
131
102
}
330
131
100
AcDbVisualStyle
  2
Conceptual
 70
     9
177
     3
291
     0
 70
    58
 90
        3
176
     1
 90
        2
176
     1
 90
        0
176
     1
 90
        0
176
     1
 40
-0.6
176
     1
 40
-30.0
176
     1
 62
     7
176
     1
 90
        2
176
     1
 90
        2
176
     1
 62
     7
176
     1
 62
   257
176
     1
 90
        1
176
     1
 90
        1
176
     1
 40
40.0
176
     1
 90
        8
176
     1
 62
     7
176
     1
 40
1.0
176
     1
 90
        1
176
     1
 90
        6
176
     1
 90
        2
176
     1
 62
     7
176
     1
 90
        3
176
     1
 90
        0
176
     1
 90
        0
176
     1
290
     0
176
     1
 90
        1
176
     1
 40
0.0
176
     1
 90
        0
176
     1
290
     0
176
     1
290
     1
176
     1
290
     1
176
     1
290
     0
176
     1
290
     0
176
     1
290
     0
176
     1
290
     0
176
     1
290
     0
176
     1
290
     0
176
     1
 90
       50
176
     1
 40
0.0
176
     1
 40
1.0
176
     1
 90
        0
176
     1
 62
    18
420
        0
176
     1
 90
       50
176
     1
 90
        3
176
     1
 62
     5
420
      255
176
     1
290
     0
176
     1
 90
       50
176
     1
 90
       50
176
     1
 90
       50
176
     1
290
     0
176
     1
 90
       50
176
     1
 62
   256
176
     0
 40
1.0
176
     0
 90
        2
176
     1
  1
strokes_ogs.tif
176
     1
290
     0
176
     1
 40
1.0
176
     1
 40
1.0
176
     1
  0
VISUALSTYLE
  5
13C
102
{ACAD_REACTORS
330
131
102
}
330
131
100
AcDbVisualStyle
  2
Dim
 70
    11
177
     3
291
     1
 70
    58
 90
        2
176
     1
 90
        2
176
     1
 90
        0
176
     1
 90
        0
176
     1
 40
-0.6
176
     1
 40
-30.0
176
     1
 62
     7
176
     1
 90
        1
176
     1
 90
        4
176
     1
 62
     7
176
     1
 62
   257
176
     1
 90
        1
176
     1
 90
        1
176
     1
 40
1.0
176
     1
 90
        8
176
     1
 62
     7
176
     1
 40
1.0
176
     1
 90
        1
176
     1
 90
        6
176
     1
 90
        2
176
     1
 62
     7
176
     1
 90
        5
176
     1
 90
        0
176
     1
 90
        0
176
     1
290
     0
176
     1
 90
        1
176
     1
 40
-50.0
176
     1
 90
        0
176
     1
290
     0
176
     1
290
     1
176
     1
290
     1
176
     1
290
     0
176
     1
290
     0
176
     1
290
     0
176
     1
290
     0
176
     1
290
     0
176
     1
290
     0
176
     1
 90
       50
176
     1
 40
0.0
176
     1
 40
1.0
176
     1
 90
        0
176
     1
 62
    18
420
        0
176
     1
 90
       50
176
     1
 90
        3
176
     1
 62
     5
420
      255
176
     1
290
     0
176
     1
 90
       50
176
     1
 90
       50
176
     1
 90
       50
176
     1
290
     0
176
     1
 90
       50
176
     1
 62
   256
176
     0
 40
1.0
176
     0
 90
        2
176
     1
  1
strokes_ogs.tif
176
     1
290
     0
176
     1
 40
1.0
176
     1
 40
1.0
176
     1
  0
VISUALSTYLE
  5
193
102
{ACAD_REACTORS
330
131
102
}
330
131
100
AcDbVisualStyle
  2
EdgeColorOff
 70
    22
177
     3
291
     1
 70
    58
 90
        2
176
     0
 90
        2
176
     0
 90
        0
176
     0
 90
        0
176
     0
 40
0.6
176
     0
 40
30.0
176
     0
 62
     7
420
 16777215
176
     0
 90
        1
176
     0
 90
        4
176
     0
 62
     7
176
     0
 62
   257
176
     0
 90
        1
176
     0
 90
        1
176
     0
 40
1.0
176
     0
 90
        8
176
     2
 62
     7
176
     0
 40
1.0
176
     0
 90
        1
176
     0
 90
        6
176
     0
 90
        2
176
     0
 62
     7
176
     0
 90
        5
176
     0
 90
        0
176
     0
 90
        0
176
     0
290
     0
176
     0
 90
        1
176
     0
 40
0.0
176
     0
 90
        0
176
     0
290
     0
176
     0
290
     1
176
     0
290
     1
176
     0
290
     0
176
     0
290
     0
176
     0
290
     0
176
     0
290
     0
176
     0
290
     0
176
     0
290
     0
176
     0
 90
       50
176
     0
 40
0.0
176
     0
 40
1.0
176
     0
 90
        0
176
     0
 62
    18
420
        0
176
     0
 90
       50
176
     0
 90
        3
176
     0
 62
     5
420
      255
176
     0
290
     0
176
     0
 90
       50
176
     0
 90
       50
176
     0
 90
       50
176
     0
290
     0
176
     0
 90
       50
176
     0
 62
   256
176
     0
 40
1.0
176
     0
 90
        2
176
     0
  1
strokes_ogs.tif
176
     0
290
     0
176
     0
 40
1.0
176
     0
 40
1.0
176
     0
  0
VISUALSTYLE
  5
140
102
{ACAD_REACTORS
330
131
102
}
330
131
100
AcDbVisualStyle
  2
Facepattern
 70
    15
177
     3
291
     1
 70
    58
 90
        2
176
     1
 90
        2
176
     1
 90
        0
176
     1
 90
        0
176
     1
 40
-0.6
176
     1
 40
-30.0
176
     1
 62
     7
176
     1
 90
        1
176
     1
 90
        4
176
     1
 62
     7
176
     1
 62
   257
176
     1
 90
        1
176
     1
 90
        1
176
     1
 40
1.0
176
     1
 90
        8
176
     1
 62
     7
176
     1
 40
1.0
176
     1
 90
        1
176
     1
 90
        6
176
     1
 90
        2
176
     1
 62
     7
176
     1
 90
        5
176
     1
 90
        0
176
     1
 90
        0
176
     1
290
     0
176
     1
 90
        1
176
     1
 40
0.0
176
     1
 90
        0
176
     1
290
     0
176
     1
290
     1
176
     1
290
     1
176
     1
290
     0
176
     1
290
     0
176
     1
290
     0
176
     1
290
     0
176
     1
290
     0
176
     1
290
     0
176
     1
 90
       50
176
     1
 40
0.0
176
     1
 40
1.0
176
     1
 90
        0
176
     1
 62
    18
420
        0
176
     1
 90
       50
176
     1
 90
        3
176
     1
 62
     5
420
      255
176
     1
290
     0
176
     1
 90
       50
176
     1
 90
       50
176
     1
 90
       50
176
     1
290
     0
176
     1
 90
       50
176
     1
 62
   256
176
     0
 40
1.0
176
     0
 90
        2
176
     1
  1
strokes_ogs.tif
176
     1
290
     0
176
     1
 40
1.0
176
     1
 40
1.0
176
     1
  0
VISUALSTYLE
  5
132
102
{ACAD_REACTORS
330
131
102
}
330
131
100
AcDbVisualStyle
  2
Flat
 70
     0
177
     3
291
     1
 70
    58
 90
        2
176
     1
 90
        1
176
     1
 90
        1
176
     1
 90
        2
176
     1
 40
-0.6
176
     1
 40
30.0
176
     1
 62
     7
176
     1
 90
        0
176
     1
 90
        4
176
     1
 62
     7
176
     1
 62
   257
176
     1
 90
        1
176
     1
 90
        1
176
     1
 40
1.0
176
     1
 90
        8
176
     1
 62
     7
176
     1
 40
1.0
176
     1
 90
        1
176
     1
 90
        6
176
     1
 90
        2
176
     1
 62
     7
176
     1
 90
        5
176
     1
 90
        0
176
     1
 90
        0
176
     1
290
     0
176
     1
 90
       13
176
     1
 40
0.0
176
     1
 90
        0
176
     1
290
     0
176
     1
290
     1
176
     1
290
     1
176
     1
290
     0
176
     1
290
     0
176
     1
290
     0
176
     1
290
     0
176
     1
290
     0
176
     1
290
     0
176
     1
 90
       50
176
     1
 40
0.0
176
     1
 40
1.0
176
     1
 90
        0
176
     1
 62
    18
420
        0
176
     1
 90
       50
176
     1
 90
        3
176
     1
 62
     5
420
      255
176
     1
290
     0
176
     1
 90
       50
176
     1
 90
       50
176
     1
 90
       50
176
     1
290
     0
176
     1
 90
       50
176
     1
 62
   256
176
     0
 40
1.0
176
     0
 90
        2
176
     1
  1
strokes_ogs.tif
176
     1
290
     0
176
     1
 40
1.0
176
     1
 40
1.0
176
     1
  0
VISUALSTYLE
  5
133
102
{ACAD_REACTORS
330
131
102
}
330
131
100
AcDbVisualStyle
  2
FlatWithEdges
 70
     1
177
     3
291
     1
 70
    58
 90
        2
176
     1
 90
        1
176
     1
 90
        1
176
     1
 90
        2
176
     1
 40
-0.6
176
     1
 40
30.0
176
     1
 62
     7
176
     1
 90
        1
176
     1
 90
        4
176
     1
 62
     7
176
     1
 62
   257
176
     1
 90
        1
176
     1
 90
        1
176
     1
 40
1.0
176
     1
 90
        0
176
     1
 62
   257
176
     1
 40
1.0
176
     1
 90
        1
176
     1
 90
        6
176
     1
 90
        2
176
     1
 62
     7
176
     1
 90
        5
176
     1
 90
        0
176
     1
 90
        0
176
     1
290
     0
176
     1
 90
       13
176
     1
 40
0.0
176
     1
 90
        0
176
     1
290
     0
176
     1
290
     1
176
     1
290
     1
176
     1
290
     0
176
     1
290
     0
176
     1
290
     0
176
     1
290
     0
176
     1
290
     0
176
     1
290
     0
176
     1
 90
       50
176
     1
 40
0.0
176
     1
 40
1.0
176
     1
 90
        0
176
     1
 62
    18
420
        0
176
     1
 90
       50
176
     1
 90
        3
176
     1
 62
     5
420
      255
176
     1
290
     0
176
     1
 90
       50
176
     1
 90
       50
176
     1
 90
       50
176
     1
290
     0
176
     1
 90
       50
176
     1
 62
   256
176
     0
 40
1.0
176
     0
 90
        2
176
     1
  1
strokes_ogs.tif
176
     1
290
     0
176
     1
 40
1.0
176
     1
 40
1.0
176
     1
  0
VISUALSTYLE
  5
134
102
{ACAD_REACTORS
330
131
102
}
330
131
100
AcDbVisualStyle
  2
Gouraud
 70
     2
177
     3
291
     1
 70
    58
 90
        2
176
     1
 90
        2
176
     1
 90
        1
176
     1
 90
        2
176
     1
 40
-0.6
176
     1
 40
30.0
176
     1
 62
     7
176
     1
 90
        0
176
     1
 90
        4
176
     1
 62
     7
176
     1
 62
   257
176
     1
 90
        1
176
     1
 90
        1
176
     1
 40
1.0
176
     1
 90
        0
176
     1
 62
     7
176
     1
 40
1.0
176
     1
 90
        1
176
     1
 90
        6
176
     1
 90
        2
176
     1
 62
     7
176
     1
 90
        5
176
     1
 90
        0
176
     1
 90
        0
176
     1
290
     0
176
     1
 90
       13
176
     1
 40
0.0
176
     1
 90
        0
176
     1
290
     0
176
     1
290
     1
176
     1
290
     1
176
     1
290
     0
176
     1
290
     0
176
     1
290
     0
176
     1
290
     0
176
     1
290
     0
176
     1
290
     0
176
     1
 90
       50
176
     1
 40
0.0
176
     1
 40
1.0
176
     1
 90
        0
176
     1
 62
    18
420
        0
176
     1
 90
       50
176
     1
 90
        3
176
     1
 62
     5
420
      255
176
     1
290
     0
176
     1
 90
       50
176
     1
 90
       50
176
     1
 90
       50
176
     1
290
     0
176
     1
 90
       50
176
     1
 62
   256
176
     0
 40
1.0
176
     0
 90
        2
176
     1
  1
strokes_ogs.tif
176
     1
290
     0
176
     1
 40
1.0
176
     1
 40
1.0
176
     1
  0
VISUALSTYLE
  5
135
102
{ACAD_REACTORS
330
131
102
}
330
131
100
AcDbVisualStyle
  2
GouraudWithEdges
 70
     3
177
     3
291
     1
 70
    58
 90
        2
176
     1
 90
        2
176
     1
 90
        1
176
     1
 90
        2
176
     1
 40
-0.6
176
     1
 40
30.0
176
     1
 62
     7
176
     1
 90
        1
176
     1
 90
        4
176
     1
 62
     7
176
     1
 62
   257
176
     1
 90
        1
176
     1
 90
        1
176
     1
 40
1.0
176
     1
 90
        0
176
     1
 62
   257
176
     1
 40
1.0
176
     1
 90
        1
176
     1
 90
        6
176
     1
 90
        2
176
     1
 62
     7
176
     1
 90
        5
176
     1
 90
        0
176
     1
 90
        0
176
     1
290
     0
176
     1
 90
       13
176
     1
 40
0.0
176
     1
 90
        0
176
     1
290
     0
176
     1
290
     1
176
     1
290
     1
176
     1
290
     0
176
     1
290
     0
176
     1
290
     0
176
     1
290
     0
176
     1
290
     0
176
     1
290
     0
176
     1
 90
       50
176
     1
 40
0.0
176
     1
 40
1.0
176
     1
 90
        0
176
     1
 62
    18
420
        0
176
     1
 90
       50
176
     1
 90
        3
176
     1
 62
     5
420
      255
176
     1
290
     0
176
     1
 90
       50
176
     1
 90
       50
176
     1
 90
       50
176
     1
290
     0
176
     1
 90
       50
176
     1
 62
   256
176
     0
 40
1.0
176
     0
 90
        2
176
     1
  1
strokes_ogs.tif
176
     1
290
     0
176
     1
 40
1.0
176
     1
 40
1.0
176
     1
  0
VISUALSTYLE
  5
190
102
{ACAD_REACTORS
330
131
102
}
330
131
100
AcDbVisualStyle
  2
Hidden
 70
     6
177
     3
291
     0
 70
    58
 90
        1
176
     1
 90
        2
176
     1
 90
        2
176
     1
 90
        0
176
     1
 40
0.6
176
     1
 40
30.0
176
     1
 62
     7
420
 16777215
176
     1
 90
        2
176
     1
 90
        2
176
     1
 62
     7
176
     1
 62
   257
176
     1
 90
        2
176
     1
 90
        1
176
     1
 40
40.0
176
     1
 90
        0
176
     1
 62
   257
176
     1
 40
1.0
176
     1
 90
        1
176
     1
 90
        6
176
     1
 90
        2
176
     1
 62
     7
176
     1
 90
        3
176
     1
 90
        0
176
     1
 90
        0
176
     1
290
     0
176
     1
 90
        1
176
     1
 40
0.0
176
     1
 90
        0
176
     1
290
     0
176
     1
290
     1
176
     1
290
     1
176
     1
290
     0
176
     1
290
     0
176
     1
290
     0
176
     1
290
     0
176
     1
290
     0
176
     1
290
     0
176
     1
 90
       50
176
     1
 40
0.0
176
     1
 40
1.0
176
     1
 90
        0
176
     1
 62
    18
420
        0
176
     1
 90
       50
176
     1
 90
        3
176
     1
 62
     5
420
      255
176
     1
290
     0
176
     1
 90
       50
176
     1
 90
       50
176
     1
 90
       50
176
     1
290
     0
176
     1
 90
       50
176
     1
 62
   256
176
     0
 40
1.0
176
     0
 90
        2
176
     1
  1
strokes_ogs.tif
176
     1
290
     0
176
     1
 40
1.0
176
     1
 40
1.0
176
     1
  0
VISUALSTYLE
  5
191
102
{ACAD_REACTORS
330
131
102
}
330
131
100
AcDbVisualStyle
  2
JitterOff
 70
    20
177
     3
291
     1
 70
    58
 90
        2
176
     0
 90
        2
176
     0
 90
        0
176
     0
 90
        0
176
     0
 40
0.6
176
     0
 40
30.0
176
     0
 62
     7
420
 16777215
176
     0
 90
        1
176
     0
 90
        4
176
     0
 62
     7
176
     0
 62
   257
176
     0
 90
        1
176
     0
 90
        1
176
     0
 40
1.0
176
     0
 90
       10
176
     2
 62
     7
176
     0
 40
1.0
176
     0
 90
        1
176
     0
 90
        6
176
     0
 90
        2
176
     0
 62
     7
176
     0
 90
        5
176
     0
 90
        0
176
     0
 90
        0
176
     0
290
     0
176
     0
 90
        1
176
     0
 40
0.0
176
     0
 90
        0
176
     0
290
     0
176
     0
290
     1
176
     0
290
     1
176
     0
290
     0
176
     0
290
     0
176
     0
290
     0
176
     0
290
     0
176
     0
290
     0
176
     0
290
     0
176
     0
 90
       50
176
     0
 40
0.0
176
     0
 40
1.0
176
     0
 90
        0
176
     0
 62
    18
420
        0
176
     0
 90
       50
176
     0
 90
        3
176
     0
 62
     5
420
      255
176
     0
290
     0
176
     0
 90
       50
176
     0
 90
       50
176
     0
 90
       50
176
     0
290
     0
176
     0
 90
       50
176
     0
 62
   256
176
     0
 40
1.0
176
     0
 90
        2
176
     0
  1
strokes_ogs.tif
176
     0
290
     0
176
     0
 40
1.0
176
     0
 40
1.0
176
     0
  0
VISUALSTYLE
  5
13F
102
{ACAD_REACTORS
330
131
102
}
330
131
100
AcDbVisualStyle
  2
Linepattern
 70
    14
177
     3
291
     1
 70
    58
 90
        2
176
     1
 90
        2
176
     1
 90
        0
176
     1
 90
        0
176
     1
 40
-0.6
176
     1
 40
-30.0
176
     1
 62
     7
176
     1
 90
        1
176
     1
 90
        4
176
     1
 62
     7
176
     1
 62
   257
176
     1
 90
        7
176
     1
 90
        7
176
     1
 40
1.0
176
     1
 90
        8
176
     1
 62
     7
176
     1
 40
1.0
176
     1
 90
        1
176
     1
 90
        6
176
     1
 90
        2
176
     1
 62
     7
176
     1
 90
        5
176
     1
 90
        0
176
     1
 90
        0
176
     1
290
     0
176
     1
 90
        1
176
     1
 40
0.0
176
     1
 90
        0
176
     1
290
     0
176
     1
290
     1
176
     1
290
     1
176
     1
290
     0
176
     1
290
     0
176
     1
290
     0
176
     1
290
     0
176
     1
290
     0
176
     1
290
     0
176
     1
 90
       50
176
     1
 40
0.0
176
     1
 40
1.0
176
     1
 90
        0
176
     1
 62
    18
420
        0
176
     1
 90
       50
176
     1
 90
        3
176
     1
 62
     5
420
      255
176
     1
290
     0
176
     1
 90
       50
176
     1
 90
       50
176
     1
 90
       50
176
     1
290
     0
176
     1
 90
       50
176
     1
 62
   256
176
     0
 40
1.0
176
     0
 90
        2
176
     1
  1
strokes_ogs.tif
176
     1
290
     0
176
     1
 40
1.0
176
     1
 40
1.0
176
     1
  0
VISUALSTYLE
  5
192
102
{ACAD_REACTORS
330
131
102
}
330
131
100
AcDbVisualStyle
  2
OverhangOff
 70
    21
177
     3
291
     1
 70
    58
 90
        2
176
     0
 90
        2
176
     0
 90
        0
176
     0
 90
        0
176
     0
 40
0.6
176
     0
 40
30.0
176
     0
 62
     7
420
 16777215
176
     0
 90
        1
176
     0
 90
        4
176
     0
 62
     7
176
     0
 62
   257
176
     0
 90
        1
176
     0
 90
        1
176
     0
 40
1.0
176
     0
 90
        9
176
     2
 62
     7
176
     0
 40
1.0
176
     0
 90
        1
176
     0
 90
        6
176
     0
 90
        2
176
     0
 62
     7
176
     0
 90
        5
176
     0
 90
        0
176
     0
 90
        0
176
     0
290
     0
176
     0
 90
        1
176
     0
 40
0.0
176
     0
 90
        0
176
     0
290
     0
176
     0
290
     1
176
     0
290
     1
176
     0
290
     0
176
     0
290
     0
176
     0
290
     0
176
     0
290
     0
176
     0
290
     0
176
     0
290
     0
176
     0
 90
       50
176
     0
 40
0.0
176
     0
 40
1.0
176
     0
 90
        0
176
     0
 62
    18
420
        0
176
     0
 90
       50
176
     0
 90
        3
176
     0
 62
     5
420
      255
176
     0
290
     0
176
     0
 90
       50
176
     0
 90
       50
176
     0
 90
       50
176
     0
290
     0
176
     0
 90
       50
176
     0
 62
   256
176
     0
 40
1.0
176
     0
 90
        2
176
     0
  1
strokes_ogs.tif
176
     0
290
     0
176
     0
 40
1.0
176
     0
 40
1.0
176
     0
  0
VISUALSTYLE
  5
13A
102
{ACAD_REACTORS
330
131
102
}
330
131
100
AcDbVisualStyle
  2
Realistic
 70
     8
177
     3
291
     0
 70
    58
 90
        2
176
     1
 90
        2
176
     1
 90
        0
176
     1
 90
        0
176
     1
 40
-0.6
176
     1
 40
-30.0
176
     1
 62
     7
176
     1
 90
        1
176
     1
 90
        0
176
     1
 62
     7
176
     1
 62
   257
176
     1
 90
        1
176
     1
 90
        1
176
     1
 40
1.0
176
     1
 90
        8
176
     1
 62
     8
176
     1
 40
1.0
176
     1
 90
        1
176
     1
 90
        6
176
     1
 90
        2
176
     1
 62
     7
176
     1
 90
        5
176
     1
 90
        0
176
     1
 90
        0
176
     1
290
     0
176
     1
 90
       13
176
     1
 40
0.0
176
     1
 90
        0
176
     1
290
     0
176
     1
290
     1
176
     1
290
     1
176
     1
290
     0
176
     1
290
     0
176
     1
290
     0
176
     1
290
     0
176
     1
290
     0
176
     1
290
     0
176
     1
 90
       50
176
     1
 40
0.0
176
     1
 40
1.0
176
     1
 90
        0
176
     1
 62
    18
420
        0
176
     1
 90
       50
176
     1
 90
        3
176
     1
 62
     5
420
      255
176
     1
290
     0
176
     1
 90
       50
176
     1
 90
       50
176
     1
 90
       50
176
     1
290
     0
176
     1
 90
       50
176
     1
 62
   256
176
     0
 40
1.0
176
     0
 90
        2
176
     1
  1
strokes_ogs.tif
176
     1
290
     0
176
     1
 40
1.0
176
     1
 40
1.0
176
     1
  0
VISUALSTYLE
  5
198
102
{ACAD_REACTORS
330
131
102
}
330
131
100
AcDbVisualStyle
  2
Shaded
 70
    27
177
     3
291
     0
 70
    58
 90
        2
176
     1
 90
        2
176
     1
 90
        1
176
     1
 90
        2
176
     1
 40
0.6
176
     1
 40
30.0
176
     1
 62
     7
420
 16777215
176
     1
 90
        0
176
     1
 90
        4
176
     1
 62
     7
176
     1
 62
   257
176
     1
 90
        1
176
     1
 90
        1
176
     1
 40
1.0
176
     1
 90
        8
176
     1
 62
   257
176
     1
 40
1.0
176
     1
 90
        1
176
     1
 90
        6
176
     1
 90
        2
176
     1
 62
     8
420
  7895160
176
     1
 90
        3
176
     1
 90
        0
176
     1
 90
        0
176
     1
290
     0
176
     1
 90
        5
176
     1
 40
0.0
176
     1
 90
        0
176
     1
290
     0
176
     1
290
     1
176
     1
290
     1
176
     1
290
     0
176
     1
290
     0
176
     1
290
     0
176
     1
290
     0
176
     1
290
     0
176
     1
290
     0
176
     1
 90
       50
176
     1
 40
0.0
176
     1
 40
1.0
176
     1
 90
        0
176
     1
 62
    18
420
        0
176
     1
 90
       50
176
     1
 90
        3
176
     1
 62
     5
420
      255
176
     1
290
     0
176
     1
 90
       50
176
     1
 90
       50
176
     1
 90
       50
176
     1
290
     0
176
     1
 90
       50
176
     1
 62
   256
176
     0
 40
1.0
176
     0
 90
        2
176
     1
  1
strokes_ogs.tif
176
     1
290
     0
176
     1
 40
1.0
176
     1
 40
1.0
176
     1
  0
VISUALSTYLE
  5
197
102
{ACAD_REACTORS
330
131
102
}
330
131
100
AcDbVisualStyle
  2
Shaded with edges
 70
    26
177
     3
291
     0
 70
    58
 90
        2
176
     1
 90
        2
176
     1
 90
        1
176
     1
 90
        2
176
     1
 40
0.6
176
     1
 40
30.0
176
     1
 62
     7
420
 16777215
176
     1
 90
        1
176
     1
 90
       10
176
     1
 62
     7
176
     1
 62
   257
176
     1
 90
        2
176
     1
 90
        1
176
     1
 40
1.0
176
     1
 90
        8
176
     1
 62
   257
176
     1
 40
1.0
176
     1
 90
        1
176
     1
 90
        6
176
     1
 90
        2
176
     1
 62
     7
176
     1
 90
        3
176
     1
 90
        0
176
     1
 90
        0
176
     1
290
     0
176
     1
 90
        5
176
     1
 40
0.0
176
     1
 90
        0
176
     1
290
     0
176
     1
290
     1
176
     1
290
     1
176
     1
290
     0
176
     1
290
     0
176
     1
290
     0
176
     1
290
     0
176
     1
290
     0
176
     1
290
     0
176
     1
 90
       50
176
     1
 40
0.0
176
     1
 40
1.0
176
     1
 90
        0
176
     1
 62
    18
420
        0
176
     1
 90
       50
176
     1
 90
        3
176
     1
 62
     5
420
      255
176
     1
290
     0
176
     1
 90
       50
176
     1
 90
       50
176
     1
 90
       50
176
     1
290
     0
176
     1
 90
       50
176
     1
 62
   256
176
     0
 40
1.0
176
     0
 90
        2
176
     1
  1
strokes_ogs.tif
176
     1
290
     0
176
     1
 40
1.0
176
     1
 40
1.0
176
     1
  0
VISUALSTYLE
  5
194
102
{ACAD_REACTORS
330
131
102
}
330
131
100
AcDbVisualStyle
  2
Shades of Gray
 70
    23
177
     3
291
     0
 70
    58
 90
        2
176
     1
 90
        2
176
     1
 90
        3
176
     1
 90
        0
176
     1
 40
0.6
176
     1
 40
30.0
176
     1
 62
     7
420
 16777215
176
     1
 90
        2
176
     1
 90
        2
176
     1
 62
     7
176
     1
 62
     7
176
     1
 90
        1
176
     1
 90
        1
176
     1
 40
40.0
176
     1
 90
        8
176
     1
 62
     7
176
     1
 40
1.0
176
     1
 90
        1
176
     1
 90
        6
176
     1
 90
        2
176
     1
 62
     7
176
     1
 90
        3
176
     1
 90
        0
176
     1
 90
        0
176
     1
290
     0
176
     1
 90
        1
176
     1
 40
0.0
176
     1
 90
        0
176
     1
290
     0
176
     1
290
     1
176
     1
290
     1
176
     1
290
     0
176
     1
290
     0
176
     1
290
     0
176
     1
290
     0
176
     1
290
     0
176
     1
290
     0
176
     1
 90
       50
176
     1
 40
0.0
176
     1
 40
1.0
176
     1
 90
        0
176
     1
 62
    18
420
        0
176
     1
 90
       50
176
     1
 90
        3
176
     1
 62
     5
420
      255
176
     1
290
     0
176
     1
 90
       50
176
     1
 90
       50
176
     1
 90
       50
176
     1
290
     0
176
     1
 90
       50
176
     1
 62
   256
176
     0
 40
1.0
176
     0
 90
        2
176
     1
  1
strokes_ogs.tif
176
     1
290
     0
176
     1
 40
1.0
176
     1
 40
1.0
176
     1
  0
VISUALSTYLE
  5
195
102
{ACAD_REACTORS
330
131
102
}
330
131
100
AcDbVisualStyle
  2
Sketchy
 70
    24
177
     3
291
     0
 70
    58
 90
        1
176
     1
 90
        2
176
     1
 90
        2
176
     1
 90
        0
176
     1
 40
0.6
176
     1
 40
30.0
176
     1
 62
     7
420
 16777215
176
     1
 90
        2
176
     1
 90
        2
176
     1
 62
     7
176
     1
 62
     7
176
     1
 90
        1
176
     1
 90
        1
176
     1
 40
40.0
176
     1
 90
       11
176
     1
 62
     7
176
     1
 40
1.0
176
     1
 90
        1
176
     1
 90
        6
176
     1
 90
        2
176
     1
 62
     7
176
     1
 90
        6
176
     1
 90
        0
176
     1
 90
        0
176
     1
290
     0
176
     1
 90
        1
176
     1
 40
0.0
176
     1
 90
        0
176
     1
290
     0
176
     1
290
     1
176
     1
290
     1
176
     1
290
     0
176
     1
290
     0
176
     1
290
     0
176
     1
290
     0
176
     1
290
     0
176
     1
290
     0
176
     1
 90
       50
176
     1
 40
0.0
176
     1
 40
1.0
176
     1
 90
        0
176
     1
 62
    18
420
        0
176
     1
 90
       50
176
     1
 90
        3
176
     1
 62
     5
420
      255
176
     1
290
     0
176
     1
 90
       50
176
     1
 90
       50
176
     1
 90
       50
176
     1
290
     0
176
     1
 90
       50
176
     1
 62
   256
176
     0
 40
1.0
176
     0
 90
        2
176
     1
  1
strokes_ogs.tif
176
     1
290
     0
176
     1
 40
1.0
176
     1
 40
1.0
176
     1
  0
VISUALSTYLE
  5
13E
102
{ACAD_REACTORS
330
131
102
}
330
131
100
AcDbVisualStyle
  2
Thicken
 70
    13
177
     3
291
     1
 70
    58
 90
        2
176
     1
 90
        2
176
     1
 90
        0
176
     1
 90
        0
176
     1
 40
-0.6
176
     1
 40
-30.0
176
     1
 62
     7
176
     1
 90
        1
176
     1
 90
        4
176
     1
 62
     7
176
     1
 62
   257
176
     1
 90
        1
176
     1
 90
        1
176
     1
 40
1.0
176
     1
 90
       12
176
     1
 62
     7
176
     1
 40
1.0
176
     1
 90
        1
176
     1
 90
        6
176
     1
 90
        2
176
     1
 62
     7
176
     1
 90
        5
176
     1
 90
        0
176
     1
 90
        0
176
     1
290
     0
176
     1
 90
        1
176
     1
 40
0.0
176
     1
 90
        0
176
     1
290
     0
176
     1
290
     1
176
     1
290
     1
176
     1
290
     0
176
     1
290
     0
176
     1
290
     0
176
     1
290
     0
176
     1
290
     0
176
     1
290
     0
176
     1
 90
       50
176
     1
 40
0.0
176
     1
 40
1.0
176
     1
 90
        0
176
     1
 62
    18
420
        0
176
     1
 90
       50
176
     1
 90
        3
176
     1
 62
     5
420
      255
176
     1
290
     0
176
     1
 90
       50
176
     1
 90
       50
176
     1
 90
       50
176
     1
290
     0
176
     1
 90
       50
176
     1
 62
   256
176
     0
 40
1.0
176
     0
 90
        2
176
     1
  1
strokes_ogs.tif
176
     1
290
     0
176
     1
 40
1.0
176
     1
 40
1.0
176
     1
  0
VISUALSTYLE
  5
18F
102
{ACAD_REACTORS
330
131
102
}
330
131
100
AcDbVisualStyle
  2
Wireframe
 70
     5
177
     3
291
     0
 70
    58
 90
        0
176
     1
 90
        2
176
     1
 90
        0
176
     1
 90
        0
176
     1
 40
0.6
176
     1
 40
30.0
176
     1
 62
     7
420
 16777215
176
     1
 90
        1
176
     1
 90
        4
176
     1
 62
     7
176
     1
 62
   257
176
     1
 90
        1
176
     1
 90
        1
176
     1
 40
1.0
176
     1
 90
        0
176
     1
 62
   257
176
     1
 40
1.0
176
     1
 90
        1
176
     1
 90
        6
176
     1
 90
        2
176
     1
 62
     7
176
     1
 90
        3
176
     1
 90
        0
176
     1
 90
        0
176
     1
290
     0
176
     1
 90
        1
176
     1
 40
0.0
176
     1
 90
        0
176
     1
290
     0
176
     1
290
     1
176
     1
290
     1
176
     1
290
     0
176
     1
290
     0
176
     1
290
     0
176
     1
290
     0
176
     1
290
     0
176
     1
290
     0
176
     1
 90
       50
176
     1
 40
0.0
176
     1
 40
1.0
176
     1
 90
        0
176
     1
 62
    18
420
        0
176
     1
 90
       50
176
     1
 90
        3
176
     1
 62
     5
420
      255
176
     1
290
     0
176
     1
 90
       50
176
     1
 90
       50
176
     1
 90
       50
176
     1
290
     0
176
     1
 90
       50
176
     1
 62
   256
176
     0
 40
1.0
176
     0
 90
        2
176
     1
  1
strokes_ogs.tif
176
     1
290
     0
176
     1
 40
1.0
176
     1
 40
1.0
176
     1
  0
VISUALSTYLE
  5
196
102
{ACAD_REACTORS
330
131
102
}
330
131
100
AcDbVisualStyle
  2
X-Ray
 70
    25
177
     3
291
     0
 70
    58
 90
        2
176
     1
 90
        2
176
     1
 90
        1
176
     1
 90
        1
176
     1
 40
0.5
176
     1
 40
30.0
176
     1
 62
     7
420
 16777215
176
     1
 90
        1
176
     1
 90
        0
176
     1
 62
     7
176
     1
 62
   257
176
     1
 90
        1
176
     1
 90
        1
176
     1
 40
1.0
176
     1
 90
        8
176
     1
 62
     7
176
     1
 40
1.0
176
     1
 90
        1
176
     1
 90
        6
176
     1
 90
        2
176
     1
 62
     7
176
     1
 90
        3
176
     1
 90
        0
176
     1
 90
        0
176
     1
290
     0
176
     1
 90
       13
176
     1
 40
0.0
176
     1
 90
        0
176
     1
290
     0
176
     1
290
     1
176
     1
290
     1
176
     1
290
     0
176
     1
290
     0
176
     1
290
     0
176
     1
290
     0
176
     1
290
     0
176
     1
290
     0
176
     1
 90
       50
176
     1
 40
0.0
176
     1
 40
1.0
176
     1
 90
        0
176
     1
 62
    18
420
        0
176
     1
 90
       50
176
     1
 90
        3
176
     1
 62
     5
420
      255
176
     1
290
     0
176
     1
 90
       50
176
     1
 90
       50
176
     1
 90
       50
176
     1
290
     0
176
     1
 90
       50
176
     1
 62
   256
176
     0
 40
1.0
176
     0
 90
        2
176
     1
  1
strokes_ogs.tif
176
     1
290
     0
176
     1
 40
1.0
176
     1
 40
1.0
176
     1
  0
DICTIONARYVAR
  5
1C2
102
{ACAD_REACTORS
330
14E
102
}
330
14E
100
DictionaryVariables
280
     0
  1
1:1
  0
DICTIONARYVAR
  5
1C4
102
{ACAD_REACTORS
330
14E
102
}
330
14E
100
DictionaryVariables
280
     0
  1
Standard
  0
DICTIONARYVAR
  5
1C3
102
{ACAD_REACTORS
330
14E
102
}
330
14E
100
DictionaryVariables
280
     0
  1
Standard
  0
DICTIONARYVAR
  5
152
102
{ACAD_REACTORS
330
14E
102
}
330
14E
100
DictionaryVariables
280
     0
  1
2
  0
DICTIONARYVAR
  5
153
102
{ACAD_REACTORS
330
14E
102
}
330
14E
100
DictionaryVariables
280
     0
  1
1
  0
DICTIONARYVAR
  5
151
102
{ACAD_REACTORS
330
14E
102
}
330
14E
100
DictionaryVariables
280
     0
  1
0
  0
DICTIONARY
  5
67D
330
19A
100
AcDbDictionary
280
     1
281
     1
  3
ACAD_ROUNDTRIP_2008_TABLESTYLE_CELLSTYLEMAP
360
67E
  0
CELLSTYLEMAP
  5
67E
102
{ACAD_REACTORS
330
67D
102
}
330
67D
100
AcDbCellStyleMap
 90
        3
300
CELLSTYLE
  1
TABLEFORMAT_BEGIN
 90
        5
170
     1
 91
        0
 92
    32768
 62
   257
 93
        1
300
CONTENTFORMAT
  1
CONTENTFORMAT_BEGIN
 90
        0
 91
        0
 92
        4
 93
        0
300

 40
0.0
140
1.0
 94
        5
 62
     0
340
11
144
0.25
309
CONTENTFORMAT_END
171
     1
301
MARGIN
  1
CELLMARGIN_BEGIN
 40
0.06
 40
0.06
 40
0.06
 40
0.06
 40
0.06
 40
0.06
309
CELLMARGIN_END
 94
        6
 95
        1
302
GRIDFORMAT
  1
GRIDFORMAT_BEGIN
 90
        0
 91
        1
 62
     0
 92
       -2
340
14
 93
        0
 40
0.045
309
GRIDFORMAT_END
 95
        2
302
GRIDFORMAT
  1
GRIDFORMAT_BEGIN
 90
        0
 91
        1
 62
     0
 92
       -2
340
14
 93
        0
 40
0.045
309
GRIDFORMAT_END
 95
        4
302
GRIDFORMAT
  1
GRIDFORMAT_BEGIN
 90
        0
 91
        1
 62
     0
 92
       -2
340
14
 93
        0
 40
0.045
309
GRIDFORMAT_END
 95
        8
302
GRIDFORMAT
  1
GRIDFORMAT_BEGIN
 90
        0
 91
        1
 62
     0
 92
       -2
340
14
 93
        0
 40
0.045
309
GRIDFORMAT_END
 95
       16
302
GRIDFORMAT
  1
GRIDFORMAT_BEGIN
 90
        0
 91
        1
 62
     0
 92
       -2
340
14
 93
        0
 40
0.045
309
GRIDFORMAT_END
 95
       32
302
GRIDFORMAT
  1
GRIDFORMAT_BEGIN
 90
        0
 91
        1
 62
     0
 92
       -2
340
14
 93
        0
 40
0.045
309
GRIDFORMAT_END
309
TABLEFORMAT_END
  1
CELLSTYLE_BEGIN
 90
        1
 91
        1
300
_TITLE
309
CELLSTYLE_END
300
CELLSTYLE
  1
TABLEFORMAT_BEGIN
 90
        5
170
     1
 91
        0
 92
        0
 62
   257
 93
        1
300
CONTENTFORMAT
  1
CONTENTFORMAT_BEGIN
 90
        0
 91
        0
 92
        4
 93
        0
300

 40
0.0
140
1.0
 94
        5
 62
     0
340
11
144
0.18
309
CONTENTFORMAT_END
171
     1
301
MARGIN
  1
CELLMARGIN_BEGIN
 40
0.06
 40
0.06
 40
0.06
 40
0.06
 40
0.06
 40
0.06
309
CELLMARGIN_END
 94
        6
 95
        1
302
GRIDFORMAT
  1
GRIDFORMAT_BEGIN
 90
        0
 91
        1
 62
     0
 92
       -2
340
14
 93
        0
 40
0.045
309
GRIDFORMAT_END
 95
        2
302
GRIDFORMAT
  1
GRIDFORMAT_BEGIN
 90
        0
 91
        1
 62
     0
 92
       -2
340
14
 93
        0
 40
0.045
309
GRIDFORMAT_END
 95
        4
302
GRIDFORMAT
  1
GRIDFORMAT_BEGIN
 90
        0
 91
        1
 62
     0
 92
       -2
340
14
 93
        0
 40
0.045
309
GRIDFORMAT_END
 95
        8
302
GRIDFORMAT
  1
GRIDFORMAT_BEGIN
 90
        0
 91
        1
 62
     0
 92
       -2
340
14
 93
        0
 40
0.045
309
GRIDFORMAT_END
 95
       16
302
GRIDFORMAT
  1
GRIDFORMAT_BEGIN
 90
        0
 91
        1
 62
     0
 92
       -2
340
14
 93
        0
 40
0.045
309
GRIDFORMAT_END
 95
       32
302
GRIDFORMAT
  1
GRIDFORMAT_BEGIN
 90
        0
 91
        1
 62
     0
 92
       -2
340
14
 93
        0
 40
0.045
309
GRIDFORMAT_END
309
TABLEFORMAT_END
  1
CELLSTYLE_BEGIN
 90
        2
 91
        1
300
_HEADER
309
CELLSTYLE_END
300
CELLSTYLE
  1
TABLEFORMAT_BEGIN
 90
        5
170
     1
 91
        0
 92
        0
 62
   257
 93
        1
300
CONTENTFORMAT
  1
CONTENTFORMAT_BEGIN
 90
        0
 91
        0
 92
        4
 93
        0
300

 40
0.0
140
1.0
 94
        2
 62
     0
340
11
144
0.18
309
CONTENTFORMAT_END
171
     1
301
MARGIN
  1
CELLMARGIN_BEGIN
 40
0.06
 40
0.06
 40
0.06
 40
0.06
 40
0.06
 40
0.06
309
CELLMARGIN_END
 94
        6
 95
        1
302
GRIDFORMAT
  1
GRIDFORMAT_BEGIN
 90
        0
 91
        1
 62
     0
 92
       -2
340
14
 93
        0
 40
0.045
309
GRIDFORMAT_END
 95
        2
302
GRIDFORMAT
  1
GRIDFORMAT_BEGIN
 90
        0
 91
        1
 62
     0
 92
       -2
340
14
 93
        0
 40
0.045
309
GRIDFORMAT_END
 95
        4
302
GRIDFORMAT
  1
GRIDFORMAT_BEGIN
 90
        0
 91
        1
 62
     0
 92
       -2
340
14
 93
        0
 40
0.045
309
GRIDFORMAT_END
 95
        8
302
GRIDFORMAT
  1
GRIDFORMAT_BEGIN
 90
        0
 91
        1
 62
     0
 92
       -2
340
14
 93
        0
 40
0.045
309
GRIDFORMAT_END
 95
       16
302
GRIDFORMAT
  1
GRIDFORMAT_BEGIN
 90
        0
 91
        1
 62
     0
 92
       -2
340
14
 93
        0
 40
0.045
309
GRIDFORMAT_END
 95
       32
302
GRIDFORMAT
  1
GRIDFORMAT_BEGIN
 90
        0
 91
        1
 62
     0
 92
       -2
340
14
 93
        0
 40
0.045
309
GRIDFORMAT_END
309
TABLEFORMAT_END
  1
CELLSTYLE_BEGIN
 90
        3
 91
        2
300
_DATA
309
CELLSTYLE_END
  0
ENDSEC
  0
EOF
