  0
SECTION
  2
HEADER
  9
$ACADVER
  1
AC1027
  9
$ACADMAINTVER
 70
   105
  9
$DWGCODEPAGE
  3
ANSI_1252
  9
$REQUIREDVERSIONS
160
                 0
  9
$LASTSAVEDBY
  1
matthias.ochs
  9
$INSBASE
 10
0.0
 20
0.0
 30
0.0
  9
$EXTMIN
 10
-73.70487717784384
 20
-72.78104916379698
 30
0.0
  9
$EXTMAX
 10
94.13669874339094
 20
70.87374944127728
 30
0.0
  9
$LIMMIN
 10
-94.469408713
 20
-61.250000365
  9
$LIMMAX
 10
109.469410371
 20
66.250000091
  9
$ORTHOMODE
 70
     1
  9
$REGENMODE
 70
     1
  9
$FILLMODE
 70
     1
  9
$QTEXTMODE
 70
     0
  9
$MIRRTEXT
 70
     1
  9
$LTSCALE
 40
1.0
  9
$ATTMODE
 70
     1
  9
$TEXTSIZE
 40
0.2
  9
$TRACEWID
 40
0.05
  9
$TEXTSTYLE
  7
Standard
  9
$CLAYER
  8
3
  9
$CELTYPE
  6
ByLayer
  9
$CECOLOR
 62
   256
  9
$CELTSCALE
 40
1.0
  9
$DISPSILH
 70
     0
  9
$DIMSCALE
 40
1.0
  9
$DIMASZ
 40
0.18
  9
$DIMEXO
 40
0.0625
  9
$DIMDLI
 40
0.38
  9
$DIMRND
 40
0.0
  9
$DIMDLE
 40
0.0
  9
$DIMEXE
 40
0.18
  9
$DIMTP
 40
0.0
  9
$DIMTM
 40
0.0
  9
$DIMTXT
 40
0.18
  9
$DIMCEN
 40
0.09
  9
$DIMTSZ
 40
0.0
  9
$DIMTOL
 70
     0
  9
$DIMLIM
 70
     0
  9
$DIMTIH
 70
     1
  9
$DIMTOH
 70
     1
  9
$DIMSE1
 70
     0
  9
$DIMSE2
 70
     0
  9
$DIMTAD
 70
     0
  9
$DIMZIN
 70
     0
  9
$DIMBLK
  1

  9
$DIMASO
 70
     1
  9
$DIMSHO
 70
     1
  9
$DIMPOST
  1

  9
$DIMAPOST
  1

  9
$DIMALT
 70
     0
  9
$DIMALTD
 70
     2
  9
$DIMALTF
 40
25.4
  9
$DIMLFAC
 40
1.0
  9
$DIMTOFL
 70
     0
  9
$DIMTVP
 40
0.0
  9
$DIMTIX
 70
     0
  9
$DIMSOXD
 70
     0
  9
$DIMSAH
 70
     0
  9
$DIMBLK1
  1

  9
$DIMBLK2
  1

  9
$DIMSTYLE
  2
Standard
  9
$DIMCLRD
 70
     0
  9
$DIMCLRE
 70
     0
  9
$DIMCLRT
 70
     0
  9
$DIMTFAC
 40
1.0
  9
$DIMGAP
 40
0.09
  9
$DIMJUST
 70
     0
  9
$DIMSD1
 70
     0
  9
$DIMSD2
 70
     0
  9
$DIMTOLJ
 70
     1
  9
$DIMTZIN
 70
     0
  9
$DIMALTZ
 70
     0
  9
$DIMALTTZ
 70
     0
  9
$DIMUPT
 70
     0
  9
$DIMDEC
 70
     4
  9
$DIMTDEC
 70
     4
  9
$DIMALTU
 70
     2
  9
$DIMALTTD
 70
     2
  9
$DIMTXSTY
  7
Standard
  9
$DIMAUNIT
 70
     0
  9
$DIMADEC
 70
     0
  9
$DIMALTRND
 40
0.0
  9
$DIMAZIN
 70
     0
  9
$DIMDSEP
 70
    46
  9
$DIMATFIT
 70
     3
  9
$DIMFRAC
 70
     0
  9
$DIMLDRBLK
  1

  9
$DIMLUNIT
 70
     2
  9
$DIMLWD
 70
    -2
  9
$DIMLWE
 70
    -2
  9
$DIMTMOVE
 70
     2
  9
$DIMFXL
 40
1.0
  9
$DIMFXLON
 70
     0
  9
$DIMJOGANG
 40
0.7853981633974483
  9
$DIMTFILL
 70
     0
  9
$DIMTFILLCLR
 70
     0
  9
$DIMARCSYM
 70
     0
  9
$DIMLTYPE
  6

  9
$DIMLTEX1
  6

  9
$DIMLTEX2
  6

  9
$DIMTXTDIRECTION
 70
     0
  9
$LUNITS
 70
     2
  9
$LUPREC
 70
     4
  9
$SKETCHINC
 40
0.1
  9
$FILLETRAD
 40
0.5
  9
$AUNITS
 70
     2
  9
$AUPREC
 70
     0
  9
$MENU
  1
.
  9
$ELEVATION
 40
0.0
  9
$PELEVATION
 40
0.0
  9
$THICKNESS
 40
0.0
  9
$LIMCHECK
 70
     0
  9
$CHAMFERA
 40
0.5
  9
$CHAMFERB
 40
0.5
  9
$CHAMFERC
 40
1.0
  9
$CHAMFERD
 40
0.0
  9
$SKPOLY
 70
     0
  9
$TDCREATE
 40
2458327.54438853
  9
$TDUCREATE
 40
2458327.461055197
  9
$TDUPDATE
 40
2458640.635434861
  9
$TDUUPDATE
 40
2458640.552101528
  9
$TDINDWG
 40
0.0204442708
  9
$TDUSRTIMER
 40
0.0048572569
  9
$USRTIMER
 70
     1
  9
$ANGBASE
 50
0.0
  9
$ANGDIR
 70
     0
  9
$PDMODE
 70
     0
  9
$PDSIZE
 40
0.0
  9
$PLINEWID
 40
0.0
  9
$SPLFRAME
 70
     0
  9
$SPLINETYPE
 70
     6
  9
$SPLINESEGS
 70
     8
  9
$HANDSEED
  5
39C
  9
$SURFTAB1
 70
     6
  9
$SURFTAB2
 70
     6
  9
$SURFTYPE
 70
     6
  9
$SURFU
 70
     6
  9
$SURFV
 70
     6
  9
$UCSBASE
  2

  9
$UCSNAME
  2

  9
$UCSORG
 10
0.0
 20
0.0
 30
0.0
  9
$UCSXDIR
 10
1.0
 20
0.0
 30
0.0
  9
$UCSYDIR
 10
0.0
 20
1.0
 30
0.0
  9
$UCSORTHOREF
  2

  9
$UCSORTHOVIEW
 70
     0
  9
$UCSORGTOP
 10
0.0
 20
0.0
 30
0.0
  9
$UCSORGBOTTOM
 10
0.0
 20
0.0
 30
0.0
  9
$UCSORGLEFT
 10
0.0
 20
0.0
 30
0.0
  9
$UCSORGRIGHT
 10
0.0
 20
0.0
 30
0.0
  9
$UCSORGFRONT
 10
0.0
 20
0.0
 30
0.0
  9
$UCSORGBACK
 10
0.0
 20
0.0
 30
0.0
  9
$PUCSBASE
  2

  9
$PUCSNAME
  2

  9
$PUCSORG
 10
0.0
 20
0.0
 30
0.0
  9
$PUCSXDIR
 10
1.0
 20
0.0
 30
0.0
  9
$PUCSYDIR
 10
0.0
 20
1.0
 30
0.0
  9
$PUCSORTHOREF
  2

  9
$PUCSORTHOVIEW
 70
     0
  9
$PUCSORGTOP
 10
0.0
 20
0.0
 30
0.0
  9
$PUCSORGBOTTOM
 10
0.0
 20
0.0
 30
0.0
  9
$PUCSORGLEFT
 10
0.0
 20
0.0
 30
0.0
  9
$PUCSORGRIGHT
 10
0.0
 20
0.0
 30
0.0
  9
$PUCSORGFRONT
 10
0.0
 20
0.0
 30
0.0
  9
$PUCSORGBACK
 10
0.0
 20
0.0
 30
0.0
  9
$USERI1
 70
     0
  9
$USERI2
 70
     0
  9
$USERI3
 70
     0
  9
$USERI4
 70
     0
  9
$USERI5
 70
     0
  9
$USERR1
 40
0.0
  9
$USERR2
 40
0.0
  9
$USERR3
 40
0.0
  9
$USERR4
 40
0.0
  9
$USERR5
 40
0.0
  9
$WORLDVIEW
 70
     1
  9
$SHADEDGE
 70
     3
  9
$SHADEDIF
 70
    70
  9
$TILEMODE
 70
     1
  9
$MAXACTVP
 70
    64
  9
$PINSBASE
 10
0.0
 20
0.0
 30
0.0
  9
$PLIMCHECK
 70
     0
  9
$PEXTMIN
 10
1.000000000000000E+20
 20
1.000000000000000E+20
 30
1.000000000000000E+20
  9
$PEXTMAX
 10
-1.000000000000000E+20
 20
-1.000000000000000E+20
 30
-1.000000000000000E+20
  9
$PLIMMIN
 10
0.0
 20
0.0
  9
$PLIMMAX
 10
0.0
 20
0.0
  9
$UNITMODE
 70
     0
  9
$VISRETAIN
 70
     1
  9
$PLINEGEN
 70
     0
  9
$PSLTSCALE
 70
     1
  9
$TREEDEPTH
 70
  3020
  9
$CMLSTYLE
  2
Standard
  9
$CMLJUST
 70
     0
  9
$CMLSCALE
 40
1.0
  9
$PROXYGRAPHICS
 70
     1
  9
$MEASUREMENT
 70
     0
  9
$CELWEIGHT
370
    -1
  9
$ENDCAPS
280
     0
  9
$JOINSTYLE
280
     0
  9
$LWDISPLAY
290
     0
  9
$INSUNITS
 70
     0
  9
$HYPERLINKBASE
  1

  9
$STYLESHEET
  1

  9
$XEDIT
290
     1
  9
$CEPSNTYPE
380
     0
  9
$PSTYLEMODE
290
     1
  9
$FINGERPRINTGUID
  2
{2B6D00EE-9E7E-40BD-92AA-687DC44A8EA6}
  9
$VERSIONGUID
  2
{FAEB1C32-E019-11D5-929B-00C0DF256EC4}
  9
$EXTNAMES
290
     1
  9
$PSVPSCALE
 40
0.0
  9
$OLESTARTUP
290
     0
  9
$SORTENTS
280
   127
  9
$INDEXCTL
280
     0
  9
$HIDETEXT
280
     1
  9
$XCLIPFRAME
280
     2
  9
$HALOGAP
280
     0
  9
$OBSCOLOR
 70
   257
  9
$OBSLTYPE
280
     0
  9
$INTERSECTIONDISPLAY
280
     0
  9
$INTERSECTIONCOLOR
 70
   257
  9
$DIMASSOC
280
     2
  9
$PROJECTNAME
  1

  9
$CAMERADISPLAY
290
     0
  9
$LENSLENGTH
 40
50.0
  9
$CAMERAHEIGHT
 40
0.0
  9
$STEPSPERSEC
 40
2.0
  9
$STEPSIZE
 40
6.0
  9
$3DDWFPREC
 40
2.0
  9
$PSOLWIDTH
 40
0.25
  9
$PSOLHEIGHT
 40
4.0
  9
$LOFTANG1
 40
1.570796326794897
  9
$LOFTANG2
 40
1.570796326794897
  9
$LOFTMAG1
 40
0.0
  9
$LOFTMAG2
 40
0.0
  9
$LOFTPARAM
 70
     7
  9
$LOFTNORMALS
280
     1
  9
$LATITUDE
 40
37.795
  9
$LONGITUDE
 40
-122.394
  9
$NORTHDIRECTION
 40
0.0
  9
$TIMEZONE
 70
 -8000
  9
$LIGHTGLYPHDISPLAY
280
     1
  9
$TILEMODELIGHTSYNCH
280
     1
  9
$SOLIDHIST
280
     0
  9
$SHOWHIST
280
     1
  9
$DWFFRAME
280
     2
  9
$DGNFRAME
280
     2
  9
$REALWORLDSCALE
290
     1
  9
$INTERFERECOLOR
 62
   256
  9
$CSHADOW
280
     0
  9
$SHADOWPLANELOCATION
 40
0.0
  0
ENDSEC
  0
SECTION
  2
CLASSES
  0
CLASS
  1
ACDBDICTIONARYWDFLT
  2
AcDbDictionaryWithDefault
  3
ObjectDBX Classes
 90
        0
 91
        6
280
     0
281
     0
  0
CLASS
  1
SCALE
  2
AcDbScale
  3
ObjectDBX Classes
 90
     1153
 91
        6
280
     0
281
     0
  0
CLASS
  1
VISUALSTYLE
  2
AcDbVisualStyle
  3
ObjectDBX Classes
 90
     4095
 91
        6
280
     0
281
     0
  0
CLASS
  1
MATERIAL
  2
AcDbMaterial
  3
ObjectDBX Classes
 90
     1153
 91
        6
280
     0
281
     0
  0
CLASS
  1
DICTIONARYVAR
  2
AcDbDictionaryVar
  3
ObjectDBX Classes
 90
        0
 91
        6
280
     0
281
     0
  0
CLASS
  1
ACDBPLACEHOLDER
  2
AcDbPlaceHolder
  3
ObjectDBX Classes
 90
        0
 91
        1
280
     0
281
     0
  0
CLASS
  1
LAYOUT
  2
AcDbLayout
  3
ObjectDBX Classes
 90
        0
 91
        1
280
     0
281
     0
  0
CLASS
  1
TABLESTYLE
  2
AcDbTableStyle
  3
ObjectDBX Classes
 90
     4095
 91
        5
280
     0
281
     0
  0
CLASS
  1
MLEADERSTYLE
  2
AcDbMLeaderStyle
  3
ACDB_MLEADERSTYLE_CLASS
 90
     4095
 91
        5
280
     0
281
     0
  0
CLASS
  1
SUN
  2
AcDbSun
  3
SCENEOE
 90
     1153
 91
        6
280
     0
281
     0
  0
CLASS
  1
CELLSTYLEMAP
  2
AcDbCellStyleMap
  3
ObjectDBX Classes
 90
     1152
 91
        4
280
     0
281
     0
  0
CLASS
  1
SORTENTSTABLE
  2
AcDbSortentsTable
  3
ObjectDBX Classes
 90
        0
 91
        5
280
     0
281
     0
  0
ENDSEC
  0
SECTION
  2
TABLES
  0
TABLE
  2
VPORT
  5
8
330
0
100
AcDbSymbolTable
 70
     1
  0
VPORT
  5
FE
330
8
100
AcDbSymbolTableRecord
100
AcDbViewportTableRecord
  2
*Active
 70
     0
 10
0.0
 20
0.0
 11
1.0
 21
1.0
 12
-10.64135874400306
 22
-33.92732213119928
 13
0.0
 23
0.0
 14
0.5
 24
0.5
 15
0.5
 25
0.5
 16
0.0
 26
0.0
 36
1.0
 17
0.0
 27
0.0
 37
0.0
 40
393.0351313876074
 41
1.708624708624709
 42
50.0
 43
0.0
 44
0.0
 50
0.0
 51
0.0
 71
    16
 72
   100
 73
     1
 74
     3
 75
     0
 76
     0
 77
     0
 78
     0
281
     0
 65
     1
110
0.0
120
0.0
130
0.0
111
1.0
121
0.0
131
0.0
112
0.0
122
1.0
132
0.0
 79
     0
146
0.0
348
130
 60
     3
 61
     5
292
     1
282
     1
141
0.0
142
0.0
 63
   256
361
1E6
  0
ENDTAB
  0
TABLE
  2
LTYPE
  5
5
330
0
100
AcDbSymbolTable
 70
     8
  0
LTYPE
  5
14
330
5
100
AcDbSymbolTableRecord
100
AcDbLinetypeTableRecord
  2
ByBlock
 70
     0
  3

 72
    65
 73
     0
 40
0.0
  0
LTYPE
  5
15
330
5
100
AcDbSymbolTableRecord
100
AcDbLinetypeTableRecord
  2
ByLayer
 70
     0
  3

 72
    65
 73
     0
 40
0.0
  0
LTYPE
  5
16
330
5
100
AcDbSymbolTableRecord
100
AcDbLinetypeTableRecord
  2
Continuous
 70
     0
  3
Solid line
 72
    65
 73
     0
 40
0.0
  0
LTYPE
  5
20
330
5
100
AcDbSymbolTableRecord
100
AcDbLinetypeTableRecord
  2
PUNKT
 70
     0
  3
..............
 72
    65
 73
     2
 40
1.5
 49
0.7
 74
     0
 49
-0.8
 74
     0
  0
LTYPE
  5
21
330
5
100
AcDbSymbolTableRecord
100
AcDbLinetypeTableRecord
  2
GESTRICHELT
 70
     0
  3
-- -- -- -- --
 72
    65
 73
     7
 40
2.8
 49
0.9
 74
     0
 49
0.0
 74
     0
 49
0.9
 74
     0
 49
0.0
 74
     0
 49
0.2
 74
     0
 49
0.0
 74
     0
 49
-0.8
 74
     0
  0
LTYPE
  5
22
330
5
100
AcDbSymbolTableRecord
100
AcDbLinetypeTableRecord
  2
STRICHPUNKT
 70
     0
  3
--.--.--.--.--
 72
    65
 73
     4
 40
8.8
 49
5.5
 74
     0
 49
-1.3
 74
     0
 49
0.7
 74
     0
 49
-1.3
 74
     0
  0
LTYPE
  5
25
330
5
100
AcDbSymbolTableRecord
100
AcDbLinetypeTableRecord
  2
PHANTOM
 70
     0
  3
--..--..--..--
 72
    65
 73
     6
 40
14.2
 49
7.0
 74
     0
 49
-1.8
 74
     0
 49
0.9
 74
     0
 49
-1.8
 74
     0
 49
0.9
 74
     0
 49
-1.8
 74
     0
  0
LTYPE
  5
178
330
5
100
AcDbSymbolTableRecord
100
AcDbLinetypeTableRecord
  2
DASH
 70
     0
  3
DASH _ _ _ _ _
 72
    65
 73
     2
 40
0.75
 49
0.4
 74
     0
 49
-0.35
 74
     0
  0
LTYPE
  5
179
330
5
100
AcDbSymbolTableRecord
100
AcDbLinetypeTableRecord
  2
LONGDASH_DASH
 70
     0
  3
LONGDASH_DASH __ . __ . __
 72
    65
 73
     4
 40
0.85
 49
0.4
 74
     0
 49
-0.2
 74
     0
 49
0.05
 74
     0
 49
-0.2
 74
     0
  0
LTYPE
  5
17A
330
5
100
AcDbSymbolTableRecord
100
AcDbLinetypeTableRecord
  2
LONGDASH_DASH_DASH
 70
     0
  3
LONGDASH_DASH_DASH __ . . __ . . __
 72
    65
 73
     6
 40
1.1
 49
0.4
 74
     0
 49
-0.2
 74
     0
 49
0.05
 74
     0
 49
-0.2
 74
     0
 49
0.05
 74
     0
 49
-0.2
 74
     0
  0
ENDTAB
  0
TABLE
  2
LAYER
  5
2
102
{ACAD_XDICTIONARY
360
197
102
}
330
0
100
AcDbSymbolTable
 70
    18
  0
LAYER
  5
141
330
2
100
AcDbSymbolTableRecord
100
AcDbLayerTableRecord
  2
200
 70
     0
 62
     2
  6
Continuous
370
    50
390
F
347
13F
348
0
  0
LAYER
  5
17B
330
2
100
AcDbSymbolTableRecord
100
AcDbLayerTableRecord
  2
0
 70
     0
 62
     1
  6
Continuous
370
    -3
390
F
347
13F
348
0
  0
LAYER
  5
17C
330
2
100
AcDbSymbolTableRecord
100
AcDbLayerTableRecord
  2
1
 70
     0
 62
     4
  6
Continuous
370
    50
390
F
347
13F
348
0
  0
LAYER
  5
17D
330
2
100
AcDbSymbolTableRecord
100
AcDbLayerTableRecord
  2
2
 70
     0
 62
     7
  6
Continuous
370
    25
390
F
347
13F
348
0
  0
LAYER
  5
17E
330
2
100
AcDbSymbolTableRecord
100
AcDbLayerTableRecord
  2
3
 70
     0
 62
     1
  6
DASH
370
    35
390
F
347
13F
348
0
  0
LAYER
  5
17F
330
2
100
AcDbSymbolTableRecord
100
AcDbLayerTableRecord
  2
4
 70
     0
 62
     2
  6
LONGDASH_DASH
370
    25
390
F
347
13F
348
0
  0
LAYER
  5
180
330
2
100
AcDbSymbolTableRecord
100
AcDbLayerTableRecord
  2
6
 70
     0
 62
     5
  6
Continuous
370
    -3
390
F
347
13F
348
0
  0
LAYER
  5
181
330
2
100
AcDbSymbolTableRecord
100
AcDbLayerTableRecord
  2
CUT
 70
     0
 62
     1
  6
Continuous
370
    25
390
F
347
13F
348
0
  0
LAYER
  5
182
330
2
100
AcDbSymbolTableRecord
100
AcDbLayerTableRecord
  2
NOCUT
 70
     0
 62
     7
  6
Continuous
370
    25
390
F
347
13F
348
0
  0
LAYER
  5
183
330
2
100
AcDbSymbolTableRecord
100
AcDbLayerTableRecord
  2
SK1
 70
     0
 62
     4
  6
Continuous
370
    50
390
F
347
13F
348
0
  0
LAYER
  5
184
330
2
100
AcDbSymbolTableRecord
100
AcDbLayerTableRecord
  2
SK2
 70
     0
 62
     7
  6
Continuous
370
    25
390
F
347
13F
348
0
  0
LAYER
  5
185
330
2
100
AcDbSymbolTableRecord
100
AcDbLayerTableRecord
  2
SK3
 70
     0
 62
     1
  6
DASH
370
    35
390
F
347
13F
348
0
  0
LAYER
  5
186
330
2
100
AcDbSymbolTableRecord
100
AcDbLayerTableRecord
  2
SK4
 70
     0
 62
     2
  6
LONGDASH_DASH
370
    25
390
F
347
13F
348
0
  0
LAYER
  5
187
330
2
100
AcDbSymbolTableRecord
100
AcDbLayerTableRecord
  2
SK6
 70
     0
 62
     5
  6
Continuous
370
    -3
390
F
347
13F
348
0
  0
LAYER
  5
188
330
2
100
AcDbSymbolTableRecord
100
AcDbLayerTableRecord
  2
INFTOTAL
 70
     0
 62
     9
  6
Continuous
370
    18
390
F
347
13F
348
0
  0
LAYER
  5
2B8
330
2
100
AcDbSymbolTableRecord
100
AcDbLayerTableRecord
  2
Defpoints
 70
     0
 62
     7
  6
Continuous
290
     0
370
    -3
390
F
347
13F
348
0
  0
LAYER
  5
2D6
330
2
100
AcDbSymbolTableRecord
100
AcDbLayerTableRecord
  2
11
 70
     0
 62
     4
  6
Continuous
370
    50
390
F
347
13F
348
0
1001
AcAecLayerStandard
1000

1000

  0
LAYER
  5
362
330
2
100
AcDbSymbolTableRecord
100
AcDbLayerTableRecord
  2
7
 70
     0
 62
     5
  6
Continuous
370
    18
390
F
347
13F
348
0
1001
AcAecLayerStandard
1000

1000

  0
ENDTAB
  0
TABLE
  2
STYLE
  5
3
330
0
100
AcDbSymbolTable
 70
     3
  0
STYLE
  5
11
330
3
100
AcDbSymbolTableRecord
100
AcDbTextStyleTableRecord
  2
Standard
 70
     0
 40
0.0
 41
1.0
 50
0.0
 71
     0
 42
0.2
  3
txt
  4

  0
STYLE
  5
140
330
3
100
AcDbSymbolTableRecord
100
AcDbTextStyleTableRecord
  2
BMG_Text
 70
     0
 40
3.5
 41
1.0
 50
0.0
 71
     0
 42
0.2
  3
monos.ttf
  4

1001
ACAD
1000
Monospac821 BT
1071
       49
  0
STYLE
  5
369
330
3
100
AcDbSymbolTableRecord
100
AcDbTextStyleTableRecord
  2
SLDTEXTSTYLE0
 70
     0
 40
0.0
 41
0.605
 50
0.0
 71
     0
 42
0.2
  3
TXT
  4

  0
ENDTAB
  0
TABLE
  2
VIEW
  5
6
330
0
100
AcDbSymbolTable
 70
     0
  0
ENDTAB
  0
TABLE
  2
UCS
  5
7
330
0
100
AcDbSymbolTable
 70
     0
  0
ENDTAB
  0
TABLE
  2
APPID
  5
9
330
0
100
AcDbSymbolTable
 70
     3
  0
APPID
  5
12
330
9
100
AcDbSymbolTableRecord
100
AcDbRegAppTableRecord
  2
ACAD
 70
     0
  0
APPID
  5
2D7
330
9
100
AcDbSymbolTableRecord
100
AcDbRegAppTableRecord
  2
AcAecLayerStandard
 70
     0
  0
APPID
  5
36C
330
9
100
AcDbSymbolTableRecord
100
AcDbRegAppTableRecord
  2
PE_URL
 70
     0
  0
ENDTAB
  0
TABLE
  2
DIMSTYLE
  5
A
330
0
100
AcDbSymbolTable
 70
     6
100
AcDbDimStyleTable
  0
DIMSTYLE
105
28
330
A
100
AcDbSymbolTableRecord
100
AcDbDimStyleTableRecord
  2
Standard
 70
     0
178
     0
340
11
  0
DIMSTYLE
105
365
330
A
100
AcDbSymbolTableRecord
100
AcDbDimStyleTableRecord
  2
ISO-25
 70
     0
 41
2.5
 42
0.625
 43
3.75
 44
1.25
 73
     0
 74
     0
 77
     1
 78
     8
140
2.5
141
2.5
143
0.03937007874016
147
0.625
171
     3
172
     1
178
     0
271
     2
272
     2
274
     3
278
    44
283
     0
284
     8
340
11
  0
DIMSTYLE
105
367
330
A
100
AcDbSymbolTableRecord
100
AcDbDimStyleTableRecord
  2
Matthias
 70
     0
 41
3.0
 44
2.0
 73
     0
 77
     1
140
3.0
147
2.0
178
     0
340
11
  0
DIMSTYLE
105
368
330
A
100
AcDbSymbolTableRecord
100
AcDbDimStyleTableRecord
  2
SLDDIMSTYLE0
 70
     0
 41
3.5
 44
0.0
 45
0.000000001
 73
     0
 74
     0
 77
     1
 78
    12
 79
     3
140
3.5
147
0.875
172
     1
173
     1
178
     0
271
     2
272
     1
276
     2
284
    12
289
     0
340
369
  0
DIMSTYLE
105
36A
330
A
100
AcDbSymbolTableRecord
100
AcDbDimStyleTableRecord
  2
SLDDIMSTYLE1
 70
     0
 41
3.5
 44
0.0
 45
0.000000001
 73
     0
 74
     0
 77
     1
 78
    12
 79
     3
140
3.5
147
0.875
172
     1
173
     1
178
     0
271
     0
272
     2
276
     2
284
    12
289
     0
340
369
  0
DIMSTYLE
105
36B
330
A
100
AcDbSymbolTableRecord
100
AcDbDimStyleTableRecord
  2
SLDDIMSTYLE2
 70
     0
 41
3.5
 44
0.0
 45
0.000000001
 47
1.0
 48
1.0
 71
     1
 73
     0
 74
     0
 77
     1
 78
    12
 79
     3
140
3.5
147
0.875
173
     1
178
     0
271
     2
272
     0
276
     2
284
     8
340
369
  0
ENDTAB
  0
TABLE
  2
BLOCK_RECORD
  5
1
330
0
100
AcDbSymbolTable
 70
     1
  0
BLOCK_RECORD
  5
1D
102
{ACAD_XDICTIONARY
360
37B
102
}
330
1
100
AcDbSymbolTableRecord
100
AcDbBlockTableRecord
  2
*Model_Space
340
1E
 70
     0
280
     1
281
     0
  0
BLOCK_RECORD
  5
1B
330
1
100
AcDbSymbolTableRecord
100
AcDbBlockTableRecord
  2
*Paper_Space
340
1C
 70
     0
280
     1
281
     0
  0
ENDTAB
  0
ENDSEC
  0
SECTION
  2
BLOCKS
  0
BLOCK
  5
129
330
1D
100
AcDbEntity
  8
0
100
AcDbBlockBegin
  2
*Model_Space
 70
     0
 10
0.0
 20
0.0
 30
0.0
  3
*Model_Space
  1

  0
ENDBLK
  5
12A
330
1D
100
AcDbEntity
  8
0
100
AcDbBlockEnd
  0
BLOCK
  5
127
330
1B
100
AcDbEntity
 67
     1
  8
0
100
AcDbBlockBegin
  2
*Paper_Space
 70
     0
 10
0.0
 20
0.0
 30
0.0
  3
*Paper_Space
  1

  0
ENDBLK
  5
128
330
1B
100
AcDbEntity
 67
     1
  8
0
100
AcDbBlockEnd
  0
ENDSEC
  0
SECTION
  2
ENTITIES
  0
ARC
  5
29
330
1D
100
AcDbEntity
  8
3
100
AcDbCircle
 10
29.342203904
 20
-49.999893188
 30
0.0
 40
15.0
100
AcDbArc
 50
90.0
 51
160.529212104
  0
LINE
  5
2A
330
1D
100
AcDbEntity
  8
3
100
AcDbLine
 10
29.342203904
 20
-34.999893188
 30
0.0
 11
40.000030518
 21
-34.999893188
 31
0.0
  0
LINE
  5
2B
330
1D
100
AcDbEntity
  8
4
100
AcDbLine
 10
66.642579939
 20
0.0
 30
0.0
 11
0.0
 21
0.0
 31
0.0
  0
LINE
  5
2C
330
1D
100
AcDbEntity
  8
SK1
100
AcDbLine
 10
-35.0
 20
18.0
 30
0.0
 11
-37.177185059
 21
17.694030762
 31
0.0
  0
LINE
  5
2D
330
1D
100
AcDbEntity
  8
SK1
100
AcDbLine
 10
-37.177185059
 20
17.694030762
 30
0.0
 11
-38.826349927
 21
17.984807413
 31
0.0
  0
ARC
  5
2E
330
1D
100
AcDbEntity
  8
SK1
100
AcDbCircle
 10
-39.0
 20
17.0
 30
0.0
 40
0.999999995
100
AcDbArc
 50
79.999889695
 51
180.0
  0
LINE
  5
2F
330
1D
100
AcDbEntity
  8
SK1
100
AcDbLine
 10
-40.0
 20
17.0
 30
0.0
 11
-39.999999821
 21
-17.0
 31
0.0
  0
ARC
  5
30
330
1D
100
AcDbEntity
  8
SK1
100
AcDbCircle
 10
-39.0
 20
-17.0
 30
0.0
 40
0.999999821
100
AcDbArc
 50
180.0
 51
279.99987659
  0
LINE
  5
31
330
1D
100
AcDbEntity
  8
SK1
100
AcDbLine
 10
-38.82635498
 20
-17.984802246
 30
0.0
 11
-37.177185059
 21
-17.694030762
 31
0.0
  0
LINE
  5
32
330
1D
100
AcDbEntity
  8
SK1
100
AcDbLine
 10
-37.177185059
 20
-17.694030762
 30
0.0
 11
-35.0
 21
-18.0
 31
0.0
  0
LINE
  5
33
330
1D
100
AcDbEntity
  8
SK1
100
AcDbLine
 10
-35.0
 20
-18.0
 30
0.0
 11
-35.0
 21
18.0
 31
0.0
  0
LINE
  5
34
330
1D
100
AcDbEntity
  8
SK1
100
AcDbLine
 10
-35.0
 20
18.0
 30
0.0
 11
-1.48538208
 21
18.0
 31
0.0
  0
LINE
  5
35
330
1D
100
AcDbEntity
  8
SK1
100
AcDbLine
 10
-35.0
 20
-18.0
 30
0.0
 11
-1.485412598
 21
-18.0
 31
0.0
  0
LINE
  5
36
330
1D
100
AcDbEntity
  8
SK1
100
AcDbLine
 10
-1.485412598
 20
-18.0
 30
0.0
 11
-1.485412598
 21
18.0
 31
0.0
  0
LINE
  5
37
330
1D
100
AcDbEntity
  8
SK1
100
AcDbLine
 10
-1.485412598
 20
18.0
 30
0.0
 11
-0.429437004
 21
17.717051758
 31
0.0
  0
ARC
  5
38
330
1D
100
AcDbEntity
  8
SK1
100
AcDbCircle
 10
-0.300018311
 20
18.200012207
 30
0.0
 40
0.499999994
100
AcDbArc
 50
254.998911796
 51
306.870584339
  0
ARC
  5
39
330
1D
100
AcDbEntity
  8
SK1
100
AcDbCircle
 10
-0.300018311
 20
-18.200012207
 30
0.0
 40
0.499999968
100
AcDbArc
 50
53.129394204
 51
104.998095154
  0
LINE
  5
3A
330
1D
100
AcDbEntity
  8
SK1
100
AcDbLine
 10
-0.429412842
 20
-17.717041016
 30
0.0
 11
-1.485412598
 21
-18.0
 31
0.0
  0
CIRCLE
  5
3C
330
1D
100
AcDbEntity
  8
SK1
100
AcDbCircle
 10
-15.5
 20
0.0
 30
0.0
 40
4.5
  0
LINE
  5
3D
330
1D
100
AcDbEntity
  8
1
100
AcDbLine
 10
40.000030518
 20
-45.0
 30
0.0
 11
12.794315118
 21
-45.0
 31
0.0
  0
LINE
  5
3E
330
1D
100
AcDbEntity
  8
1
100
AcDbLine
 10
12.794315118
 20
-45.0
 30
0.0
 11
5.0
 21
-31.499847412
 31
0.0
  0
LINE
  5
3F
330
1D
100
AcDbEntity
  8
1
100
AcDbLine
 10
5.0
 20
-31.499847412
 30
0.0
 11
0.5
 21
-31.5
 31
0.0
  0
LINE
  5
40
330
1D
100
AcDbEntity
  8
1
100
AcDbLine
 10
0.5
 20
-31.5
 30
0.0
 11
0.0
 21
-31.0
 31
0.0
  0
LINE
  5
41
330
1D
100
AcDbEntity
  8
1
100
AcDbLine
 10
0.0
 20
-31.0
 30
0.0
 11
0.0
 21
31.0
 31
0.0
  0
LINE
  5
42
330
1D
100
AcDbEntity
  8
1
100
AcDbLine
 10
0.0
 20
31.0
 30
0.0
 11
0.5
 21
31.5
 31
0.0
  0
LINE
  5
43
330
1D
100
AcDbEntity
  8
1
100
AcDbLine
 10
0.5
 20
31.5
 30
0.0
 11
5.0
 21
31.499847412
 31
0.0
  0
LINE
  5
44
330
1D
100
AcDbEntity
  8
1
100
AcDbLine
 10
5.0
 20
31.499847412
 30
0.0
 11
12.794311523
 21
45.0
 31
0.0
  0
LINE
  5
45
330
1D
100
AcDbEntity
  8
1
100
AcDbLine
 10
12.794311523
 20
45.0
 30
0.0
 11
40.000030518
 21
45.0
 31
0.0
  0
LINE
  5
46
330
1D
100
AcDbEntity
  8
1
100
AcDbLine
 10
40.000030518
 20
45.0
 30
0.0
 11
40.000030518
 21
-45.0
 31
0.0
  0
LINE
  5
47
330
1D
100
AcDbEntity
  8
1
100
AcDbLine
 10
12.794315118
 20
-45.0
 30
0.0
 11
12.794315118
 21
-30.917328645
 31
0.0
  0
LINE
  5
48
330
1D
100
AcDbEntity
  8
1
100
AcDbLine
 10
12.794311523
 20
30.911785041
 30
0.0
 11
12.794311523
 21
45.0
 31
0.0
  0
LINE
  5
49
330
1D
100
AcDbEntity
  8
1
100
AcDbLine
 10
40.000030518
 20
-36.481237021
 30
0.0
 11
36.500030518
 21
-33.089770311
 31
0.0
  0
LINE
  5
4A
330
1D
100
AcDbEntity
  8
1
100
AcDbLine
 10
36.500030518
 20
-33.089770311
 30
0.0
 11
36.500030518
 21
34.999893188
 31
0.0
  0
LINE
  5
4B
330
1D
100
AcDbEntity
  8
3
100
AcDbLine
 10
37.000030518
 20
-45.0
 30
0.0
 11
37.000030518
 21
34.999893188
 31
0.0
  0
LINE
  5
4C
330
1D
100
AcDbEntity
  8
1
100
AcDbLine
 10
37.000030518
 20
34.999893188
 30
0.0
 11
37.000030518
 21
45.0
 31
0.0
  0
LINE
  5
4D
330
1D
100
AcDbEntity
  8
1
100
AcDbLine
 10
5.0
 20
31.499847412
 30
0.0
 11
5.0
 21
-31.5
 31
0.0
  0
LINE
  5
4E
330
1D
100
AcDbEntity
  8
1
100
AcDbLine
 10
13.009280359
 20
-30.920207378
 30
0.0
 11
36.500030518
 21
-30.920207378
 31
0.0
  0
LINE
  5
4F
330
1D
100
AcDbEntity
  8
1
100
AcDbLine
 10
12.794311523
 20
30.911785041
 30
0.0
 11
36.500030518
 21
30.911785041
 31
0.0
  0
LINE
  5
50
330
1D
100
AcDbEntity
  8
1
100
AcDbLine
 10
34.500030518
 20
-30.920207378
 30
0.0
 11
34.500030518
 21
30.911785041
 31
0.0
  0
ARC
  5
51
330
1D
100
AcDbEntity
  8
1
100
AcDbCircle
 10
70.216298654
 20
0.000003338
 30
0.0
 40
65.216298654
100
AcDbArc
 50
180.000002933
 51
208.299083976
  0
ARC
  5
52
330
1D
100
AcDbEntity
  8
1
100
AcDbCircle
 10
70.216298654
 20
0.000003338
 30
0.0
 40
65.216298654
100
AcDbArc
 50
151.700950833
 51
180.000002933
  0
LINE
  5
53
330
1D
100
AcDbEntity
  8
1
100
AcDbLine
 10
29.342203904
 20
34.999893188
 30
0.0
 11
40.000030518
 21
34.999893188
 31
0.0
  0
ARC
  5
54
330
1D
100
AcDbEntity
  8
1
100
AcDbCircle
 10
29.342203904
 20
49.999893188
 30
0.0
 40
15.0
100
AcDbArc
 50
199.470787896
 51
270.0
  0
LINE
  5
55
330
1D
100
AcDbEntity
  8
SK1
100
AcDbLine
 10
-13.430801392
 20
-21.5
 30
0.0
 11
-4.569198608
 21
-21.5
 31
0.0
  0
LINE
  5
56
330
1D
100
AcDbEntity
  8
SK1
100
AcDbLine
 10
-13.430801392
 20
21.5
 30
0.0
 11
-4.569198608
 21
21.5
 31
0.0
  0
LINE
  5
57
330
1D
100
AcDbEntity
  8
SK1
100
AcDbLine
 10
-15.866012573
 20
-18.282051086
 30
0.0
 11
-14.296813965
 21
-21.0
 31
0.0
  0
LINE
  5
58
330
1D
100
AcDbEntity
  8
SK1
100
AcDbLine
 10
-2.133972168
 20
-18.282066345
 30
0.0
 11
-3.703186035
 21
-20.999992371
 31
0.0
  0
LINE
  5
59
330
1D
100
AcDbEntity
  8
SK1
100
AcDbLine
 10
-15.866027832
 20
18.282066345
 30
0.0
 11
-14.296813965
 21
21.0
 31
0.0
  0
LINE
  5
5A
330
1D
100
AcDbEntity
  8
SK1
100
AcDbLine
 10
-2.133987427
 20
18.282066345
 30
0.0
 11
-3.703170776
 21
21.0
 31
0.0
  0
ARC
  5
5B
330
1D
100
AcDbEntity
  8
SK1
100
AcDbCircle
 10
-15.0
 20
-17.782043457
 30
0.0
 40
1.0
100
AcDbArc
 50
192.589039226
 51
210.000746548
  0
ARC
  5
5C
330
1D
100
AcDbEntity
  8
SK1
100
AcDbCircle
 10
-13.430801392
 20
-20.5
 30
0.0
 40
0.999988854
100
AcDbArc
 50
210.000366211
 51
269.999997854
  0
ARC
  5
5D
330
1D
100
AcDbEntity
  8
SK1
100
AcDbCircle
 10
-4.569198608
 20
-20.5
 30
0.0
 40
1.0
100
AcDbArc
 50
270.0
 51
330.000001788
  0
ARC
  5
5E
330
1D
100
AcDbEntity
  8
SK1
100
AcDbCircle
 10
-3.0
 20
-17.782058716
 30
0.0
 40
1.000005841
100
AcDbArc
 50
329.999694824
 51
347.41193131
  0
ARC
  5
5F
330
1D
100
AcDbEntity
  8
SK1
100
AcDbCircle
 10
-15.0
 20
17.782066345
 30
0.0
 40
1.0
100
AcDbArc
 50
150.000068843
 51
167.412304472
  0
ARC
  5
60
330
1D
100
AcDbEntity
  8
SK1
100
AcDbCircle
 10
-13.430801392
 20
20.5
 30
0.0
 40
0.999988854
100
AcDbArc
 50
90.000002146
 51
149.999633789
  0
ARC
  5
61
330
1D
100
AcDbEntity
  8
SK1
100
AcDbCircle
 10
-4.569198608
 20
20.5
 30
0.0
 40
1.0
100
AcDbArc
 50
29.99993920299999
 51
90.0
  0
ARC
  5
62
330
1D
100
AcDbEntity
  8
SK1
100
AcDbCircle
 10
-3.0
 20
17.782058716
 30
0.0
 40
0.999992669
100
AcDbArc
 50
12.58823723
 51
30.000732422
  0
LINE
  5
63
330
1D
100
AcDbEntity
  8
SK4
100
AcDbLine
 10
-9.0
 20
22.339381391
 30
0.0
 11
-9.0
 21
17.109295048
 31
0.0
  0
LINE
  5
64
330
1D
100
AcDbEntity
  8
SK4
100
AcDbLine
 10
-9.0
 20
-22.339381391
 30
0.0
 11
-9.0
 21
-17.109295048
 31
0.0
  0
LINE
  5
65
330
1D
100
AcDbEntity
  8
1
100
AcDbLine
 10
50.590857412
 20
44.987355627
 30
0.0
 11
40.000030518
 21
44.987355627
 31
0.0
  0
LINE
  5
66
330
1D
100
AcDbEntity
  8
1
100
AcDbLine
 10
63.378225954
 20
0.0
 30
0.0
 11
70.710004219
 21
27.362568994
 31
0.0
  0
LINE
  5
67
330
1D
100
AcDbEntity
  8
1
100
AcDbLine
 10
70.710004219
 20
27.362568994
 30
0.0
 11
70.710004219
 21
36.282490453
 31
0.0
  0
LINE
  5
68
330
1D
100
AcDbEntity
  8
1
100
AcDbLine
 10
58.299985881
 20
38.063015692
 30
0.0
 11
57.313184878
 21
36.886996988
 31
0.0
  0
ARC
  5
69
330
1D
100
AcDbEntity
  8
1
100
AcDbCircle
 10
59.304899211
 20
35.215747824
 30
0.0
 40
2.599999952
100
AcDbArc
 50
139.999959469
 51
320.000344075
  0
LINE
  5
6A
330
1D
100
AcDbEntity
  8
1
100
AcDbLine
 10
61.296613689
 20
33.544521323
 30
0.0
 11
62.283369417
 21
34.720511231
 31
0.0
  0
LINE
  5
6B
330
1D
100
AcDbEntity
  8
CUT
100
AcDbLine
 10
71.000001932
 20
48.020600486
 30
0.0
 11
71.000001903
 21
48.199999264
 31
0.0
  0
ARC
  5
6C
330
1D
100
AcDbEntity
  8
CUT
100
AcDbCircle
 10
70.200001167
 20
48.199999264
 30
0.0
 40
0.800000736
100
AcDbArc
 50
0.0
 51
9.194807617
  0
LINE
  5
6D
330
1D
100
AcDbEntity
  8
1
100
AcDbLine
 10
70.660835927
 20
36.274855579
 30
0.0
 11
70.710004219
 21
36.282490453
 31
0.0
  0
LINE
  5
6E
330
1D
100
AcDbEntity
  8
1
100
AcDbLine
 10
70.710004219
 20
36.282490453
 30
0.0
 11
70.678493473
 21
36.28766305
 31
0.0
  0
LINE
  5
70
330
1D
100
AcDbEntity
  8
1
100
AcDbLine
 10
58.376809821
 20
46.360157183
 30
0.0
 11
50.590857412
 21
44.987355627
 31
0.0
  0
LINE
  5
77
330
1D
100
AcDbEntity
  8
1
100
AcDbLine
 10
70.061067577
 20
48.98785781
 30
0.0
 11
58.961045018
 21
47.030599534
 31
0.0
  0
ARC
  5
78
330
1D
100
AcDbEntity
  8
1
100
AcDbCircle
 10
59.099973674
 20
46.242755881
 30
0.0
 40
0.799999246
100
AcDbArc
 50
100.000745058
 51
180.0
  0
LINE
  5
79
330
1D
100
AcDbEntity
  8
1
100
AcDbLine
 10
71.000001903
 20
36.928775778
 30
0.0
 11
70.999998097
 21
48.200000754
 31
0.0
  0
ARC
  5
7A
330
1D
100
AcDbEntity
  8
1
100
AcDbCircle
 10
70.199998851
 20
36.928783408
 30
0.0
 40
0.79999526
100
AcDbArc
 50
279.999876693
 51
359.9994535870001
  0
ARC
  5
7B
330
1D
100
AcDbEntity
  8
1
100
AcDbCircle
 10
70.199998851
 20
48.200000754
 30
0.0
 40
0.799999246
100
AcDbArc
 50
0.0
 51
100.000763039
  0
LINE
  5
7C
330
1D
100
AcDbEntity
  8
1
100
AcDbLine
 10
50.590857412
 20
-44.987355627
 30
0.0
 11
40.000030518
 21
-44.987355627
 31
0.0
  0
LINE
  5
7D
330
1D
100
AcDbEntity
  8
1
100
AcDbLine
 10
40.000030518
 20
35.0
 30
0.0
 11
54.000004219
 21
35.0
 31
0.0
  0
LINE
  5
7E
330
1D
100
AcDbEntity
  8
1
100
AcDbLine
 10
54.000004219
 20
35.0
 30
0.0
 11
70.710004219
 21
-27.362568994
 31
0.0
  0
LINE
  5
7F
330
1D
100
AcDbEntity
  8
1
100
AcDbLine
 10
70.710004219
 20
-27.362568994
 30
0.0
 11
70.710004219
 21
-36.282490453
 31
0.0
  0
LINE
  5
82
330
1D
100
AcDbEntity
  8
1
100
AcDbLine
 10
70.660835927
 20
-36.274855579
 30
0.0
 11
70.710004219
 21
-36.282490453
 31
0.0
  0
LINE
  5
83
330
1D
100
AcDbEntity
  8
CUT
100
AcDbLine
 10
70.710004219
 20
-36.282490453
 30
0.0
 11
70.678493473
 21
-36.28766305
 31
0.0
  0
LINE
  5
85
330
1D
100
AcDbEntity
  8
1
100
AcDbLine
 10
58.376809821
 20
-46.360157183
 30
0.0
 11
50.590857412
 21
-44.987355627
 31
0.0
  0
LINE
  5
86
330
1D
100
AcDbEntity
  8
1
100
AcDbLine
 10
70.19699287
 20
-36.366695395
 30
0.0
 11
70.19698511405785
 21
-47.24495591695833
 31
0.0
  0
ARC
  5
87
330
1D
100
AcDbEntity
  8
1
100
AcDbCircle
 10
69.396992134
 20
-47.243030539
 30
0.0
 40
0.799995297
100
AcDbArc
 50
260.00012341
 51
0.0
  0
LINE
  5
88
330
1D
100
AcDbEntity
  8
1
100
AcDbLine
 10
69.258076118
 20
-48.030872336
 30
0.0
 11
58.546982215
 21
-46.14221572
 31
0.0
  0
LINE
  5
8E
330
1D
100
AcDbEntity
  8
1
100
AcDbLine
 10
70.19699287
 20
-36.366695395
 30
0.0
 11
70.710004219
 21
-36.282490453
 31
0.0
  0
LINE
  5
8F
330
1D
100
AcDbEntity
  8
1
100
AcDbLine
 10
58.546982215
 20
-46.14221572
 30
0.0
 11
58.376809821
 21
-46.360157183
 31
0.0
  0
LINE
  5
90
330
1D
100
AcDbEntity
  8
SK3
100
AcDbLine
 10
-16.999974483
 20
9.000003815
 30
0.0
 11
-13.267949103
 21
8.000010628
 31
0.0
  0
LINE
  5
91
330
1D
100
AcDbEntity
  8
SK3
100
AcDbLine
 10
-36.999999911
 20
9.250003815
 30
0.0
 11
-36.278320223
 21
8.000003815
 31
0.0
  0
LINE
  5
92
330
1D
100
AcDbEntity
  8
SK3
100
AcDbLine
 10
-36.278320223
 20
-8.000003815
 30
0.0
 11
-36.999999911
 21
-9.250019073
 31
0.0
  0
LINE
  5
93
330
1D
100
AcDbEntity
  8
SK3
100
AcDbLine
 10
-39.999999911
 20
9.500003815
 30
0.0
 11
-39.567016512
 21
9.250003815
 31
0.0
  0
LINE
  5
94
330
1D
100
AcDbEntity
  8
SK3
100
AcDbLine
 10
-39.567016512
 20
-9.250003815
 30
0.0
 11
-39.999999911
 21
-9.500003815
 31
0.0
  0
LINE
  5
95
330
1D
100
AcDbEntity
  8
SK3
100
AcDbLine
 10
-36.999999911
 20
-9.250019073
 30
0.0
 11
-39.567016512
 21
-9.250019073
 31
0.0
  0
LINE
  5
96
330
1D
100
AcDbEntity
  8
SK3
100
AcDbLine
 10
-39.567016512
 20
-9.250019073
 30
0.0
 11
-39.567016512
 21
9.250003815
 31
0.0
  0
LINE
  5
97
330
1D
100
AcDbEntity
  8
SK3
100
AcDbLine
 10
-39.567016512
 20
9.250003815
 30
0.0
 11
-36.999999911
 21
9.250003815
 31
0.0
  0
LINE
  5
98
330
1D
100
AcDbEntity
  8
SK3
100
AcDbLine
 10
-36.999999911
 20
9.250003815
 30
0.0
 11
-36.999999911
 21
-9.250019073
 31
0.0
  0
LINE
  5
99
330
1D
100
AcDbEntity
  8
SK3
100
AcDbLine
 10
-36.278320223
 20
8.000003815
 30
0.0
 11
0.0
 21
8.000003815
 31
0.0
  0
LINE
  5
9A
330
1D
100
AcDbEntity
  8
SK3
100
AcDbLine
 10
0.0
 20
-8.000019073
 30
0.0
 11
-36.278320223
 21
-8.000019073
 31
0.0
  0
LINE
  5
9B
330
1D
100
AcDbEntity
  8
SK3
100
AcDbLine
 10
-36.278320223
 20
-8.000019073
 30
0.0
 11
-36.278320223
 21
8.000003815
 31
0.0
  0
LINE
  5
9C
330
1D
100
AcDbEntity
  8
3
100
AcDbLine
 10
2.000030607
 20
8.000003815
 30
0.0
 11
6.618805021
 21
0.000011444
 31
0.0
  0
LINE
  5
9D
330
1D
100
AcDbEntity
  8
3
100
AcDbLine
 10
6.618805021
 20
0.000011444
 30
0.0
 11
2.000030607
 21
-8.000019073
 31
0.0
  0
LINE
  5
9E
330
1D
100
AcDbEntity
  8
3
100
AcDbLine
 10
2.000030607
 20
-8.000019073
 30
0.0
 11
2.000030607
 21
8.000003815
 31
0.0
  0
LINE
  5
9F
330
1D
100
AcDbEntity
  8
SK3
100
AcDbLine
 10
-16.999999911
 20
9.000003815
 30
0.0
 11
-16.99987784
 21
-9.000003815
 31
0.0
  0
LINE
  5
A0
330
1D
100
AcDbEntity
  8
11
100
AcDbLine
 10
-16.99987784
 20
-9.000003815
 30
0.0
 11
-36.855590731
 21
-9.000003815
 31
0.0
  0
LINE
  5
A1
330
1D
100
AcDbEntity
  8
11
100
AcDbLine
 10
-36.855590731
 20
9.000003815
 30
0.0
 11
-16.999974483
 21
9.000003815
 31
0.0
  0
LINE
  5
A2
330
1D
100
AcDbEntity
  8
SK3
100
AcDbLine
 10
-16.999999911
 20
-9.000003815
 30
0.0
 11
-13.267949103
 21
-8.000003815
 31
0.0
  0
LINE
  5
A3
330
1D
100
AcDbEntity
  8
3
100
AcDbLine
 10
25.060815435
 20
-28.604805697
 30
0.0
 11
36.134253608
 21
-34.999893188
 31
0.0
  0
LINE
  5
A4
330
1D
100
AcDbEntity
  8
3
100
AcDbLine
 10
24.93578853
 20
-28.821296512
 30
0.0
 11
18.008048371
 21
-24.820409417
 31
0.0
  0
LINE
  5
A5
330
1D
100
AcDbEntity
  8
4
100
AcDbLine
 10
32.153236389
 20
-39.918197911
 30
0.0
 11
18.217893692
 21
-31.870301848
 31
0.0
  0
LINE
  5
A6
330
1D
100
AcDbEntity
  8
3
100
AcDbLine
 10
18.934605386
 20
-39.212668105
 30
0.0
 11
25.060815435
 21
-28.604805697
 31
0.0
  0
LINE
  5
A7
330
1D
100
AcDbEntity
  8
3
100
AcDbLine
 10
12.007043299
 20
-35.212123433
 30
0.0
 11
18.934605386
 21
-39.212668105
 31
0.0
  0
LINE
  5
A8
330
1D
100
AcDbEntity
  8
3
100
AcDbLine
 10
12.007043299
 20
-28.285094536
 30
0.0
 11
12.007043299
 21
-35.212123433
 31
0.0
  0
LINE
  5
A9
330
1D
100
AcDbEntity
  8
3
100
AcDbLine
 10
18.008045577
 20
-24.820414255
 30
0.0
 11
12.007043299
 21
-28.285094536
 31
0.0
  0
LINE
  5
AA
330
1D
100
AcDbEntity
  8
3
100
AcDbLine
 10
12.132234185
 20
-28.212815544
 30
0.0
 11
0.0
 21
-10.22603868106594
 31
0.0
  0
LINE
  5
AB
330
1D
100
AcDbEntity
  8
4
100
AcDbLine
 10
18.217893692
 20
-31.857657474
 30
0.0
 11
-0.0000000000000036
 21
-4.848519357900052
 31
0.0
  0
LINE
  5
AC
330
1D
100
AcDbEntity
  8
3
100
AcDbLine
 10
17.341075082
 20
-25.20548985
 30
0.0
 11
3.722954876
 21
-5.015796367
 31
0.0
  0
LINE
  5
AD
330
1D
100
AcDbEntity
  8
3
100
AcDbLine
 10
25.060815435
 20
28.604805697
 30
0.0
 11
36.134253608
 21
34.999893188
 31
0.0
  0
LINE
  5
AE
330
1D
100
AcDbEntity
  8
4
100
AcDbLine
 10
32.153236389
 20
39.918197911
 30
0.0
 11
18.217893692
 21
31.870301848
 31
0.0
  0
LINE
  5
AF
330
1D
100
AcDbEntity
  8
3
100
AcDbLine
 10
18.934605386
 20
39.212668105
 30
0.0
 11
25.060815435
 21
28.604805697
 31
0.0
  0
LINE
  5
B0
330
1D
100
AcDbEntity
  8
3
100
AcDbLine
 10
12.007043299
 20
35.212123433
 30
0.0
 11
18.934605386
 21
39.212668105
 31
0.0
  0
LINE
  5
B1
330
1D
100
AcDbEntity
  8
3
100
AcDbLine
 10
12.007043299
 20
28.285094536
 30
0.0
 11
12.007043299
 21
35.212123433
 31
0.0
  0
LINE
  5
B2
330
1D
100
AcDbEntity
  8
3
100
AcDbLine
 10
18.008045577
 20
24.820414255
 30
0.0
 11
12.007043299
 21
28.285094536
 31
0.0
  0
LINE
  5
B3
330
1D
100
AcDbEntity
  8
3
100
AcDbLine
 10
24.93578853
 20
28.821296512
 30
0.0
 11
18.008048371
 21
24.820409417
 31
0.0
  0
LINE
  5
B4
330
1D
100
AcDbEntity
  8
3
100
AcDbLine
 10
17.341075082
 20
25.20548985
 30
0.0
 11
3.722954876
 21
5.015796367
 31
0.0
  0
LINE
  5
B5
330
1D
100
AcDbEntity
  8
4
100
AcDbLine
 10
18.217893692
 20
31.857657474
 30
0.0
 11
-0.0000000000000036
 21
4.848519357900052
 31
0.0
  0
LINE
  5
B6
330
1D
100
AcDbEntity
  8
3
100
AcDbLine
 10
12.132234185
 20
28.212815544
 30
0.0
 11
0.0
 21
10.22603868106594
 31
0.0
  0
LINE
  5
B7
330
1D
100
AcDbEntity
  8
3
100
AcDbLine
 10
18.007684227
 20
24.820202374
 30
0.0
 11
12.007407442
 21
35.212330476
 31
0.0
  0
LINE
  5
B8
330
1D
100
AcDbEntity
  8
3
100
AcDbLine
 10
18.008048371
 20
-24.820409417
 30
0.0
 11
12.007043299
 21
-35.212123433
 31
0.0
  0
LINE
  5
B9
330
1D
100
AcDbEntity
  8
2
100
AcDbLine
 10
0.0
 20
62.0
 30
0.0
 11
0.0
 21
31.0
 31
0.0
  0
LINE
  5
BA
330
1D
100
AcDbEntity
  8
2
100
AcDbLine
 10
0.0
 20
60.0
 30
0.0
 11
3.499999999
 21
60.450000008
 31
0.0
  0
LINE
  5
BB
330
1D
100
AcDbEntity
  8
2
100
AcDbLine
 10
3.499999999
 20
60.450000008
 30
0.0
 11
3.500000001
 21
59.550000008
 31
0.0
  0
LINE
  5
BC
330
1D
100
AcDbEntity
  8
2
100
AcDbLine
 10
3.500000001
 20
59.550000008
 30
0.0
 11
0.0
 21
60.0
 31
0.0
  0
LINE
  5
BD
330
1D
100
AcDbEntity
  8
2
100
AcDbLine
 10
71.000001932
 20
62.000000167
 30
0.0
 11
71.000001932
 21
48.020600486
 31
0.0
  0
LINE
  5
BE
330
1D
100
AcDbEntity
  8
2
100
AcDbLine
 10
71.000001932
 20
60.000000167
 30
0.0
 11
67.500001933
 21
59.550000159
 31
0.0
  0
LINE
  5
BF
330
1D
100
AcDbEntity
  8
2
100
AcDbLine
 10
67.500001933
 20
59.550000159
 30
0.0
 11
67.500001931
 21
60.450000159
 31
0.0
  0
LINE
  5
C0
330
1D
100
AcDbEntity
  8
2
100
AcDbLine
 10
67.500001931
 20
60.450000159
 30
0.0
 11
71.000001932
 21
60.000000167
 31
0.0
  0
LINE
  5
C1
330
1D
100
AcDbEntity
  8
2
100
AcDbLine
 10
3.5
 20
60.000000008
 30
0.0
 11
67.500001932
 21
60.000000159
 31
0.0
  0
TEXT
  5
C2
330
1D
100
AcDbEntity
  8
2
100
AcDbText
 10
34.218125169
 20
61.500000081
 30
0.0
 40
3.5
  1
71
 50
0.000000135
  7
BMG_Text
100
AcDbText
  0
LINE
  5
C3
330
1D
100
AcDbEntity
  8
2
100
AcDbLine
 10
-58.0
 20
-31.5
 30
0.0
 11
0.5
 21
-31.5
 31
0.0
  0
LINE
  5
C4
330
1D
100
AcDbEntity
  8
2
100
AcDbLine
 10
-56.0
 20
-31.5
 30
0.0
 11
-56.45
 21
-28.0
 31
0.0
  0
LINE
  5
C5
330
1D
100
AcDbEntity
  8
2
100
AcDbLine
 10
-56.45
 20
-28.0
 30
0.0
 11
-55.55
 21
-28.0
 31
0.0
  0
LINE
  5
C6
330
1D
100
AcDbEntity
  8
2
100
AcDbLine
 10
-55.55
 20
-28.0
 30
0.0
 11
-56.0
 21
-31.5
 31
0.0
  0
LINE
  5
C7
330
1D
100
AcDbEntity
  8
2
100
AcDbLine
 10
-58.0
 20
31.5
 30
0.0
 11
0.5
 21
31.5
 31
0.0
  0
LINE
  5
C8
330
1D
100
AcDbEntity
  8
2
100
AcDbLine
 10
-56.0
 20
31.5
 30
0.0
 11
-55.55
 21
28.0
 31
0.0
  0
LINE
  5
C9
330
1D
100
AcDbEntity
  8
2
100
AcDbLine
 10
-55.55
 20
28.0
 30
0.0
 11
-56.45
 21
28.0
 31
0.0
  0
LINE
  5
CA
330
1D
100
AcDbEntity
  8
2
100
AcDbLine
 10
-56.45
 20
28.0
 30
0.0
 11
-56.0
 21
31.5
 31
0.0
  0
LINE
  5
CB
330
1D
100
AcDbEntity
  8
2
100
AcDbLine
 10
-56.0
 20
-28.0
 30
0.0
 11
-56.0
 21
28.0
 31
0.0
  0
TEXT
  5
CC
330
1D
100
AcDbEntity
  8
2
100
AcDbText
 10
-57.5
 20
0.331405546
 30
0.0
 40
3.5
  1
63
 50
90.0
  7
BMG_Text
100
AcDbText
  0
CIRCLE
  5
CD
330
1D
100
AcDbEntity
  8
2
100
AcDbCircle
 10
-58.75
 20
-1.918594454
 30
0.0
 40
1.25
  0
LINE
  5
CE
330
1D
100
AcDbEntity
  8
2
100
AcDbLine
 10
-57.5
 20
-3.168594454
 30
0.0
 11
-60.0
 21
-0.668594454
 31
0.0
  0
LINE
  5
CF
330
1D
100
AcDbEntity
  8
SK2
100
AcDbLine
 10
-50.0
 20
-18.0
 30
0.0
 11
-35.0
 21
-18.0
 31
0.0
  0
LINE
  5
D0
330
1D
100
AcDbEntity
  8
SK2
100
AcDbLine
 10
-48.0
 20
-18.0
 30
0.0
 11
-48.45
 21
-14.5
 31
0.0
  0
LINE
  5
D1
330
1D
100
AcDbEntity
  8
SK2
100
AcDbLine
 10
-48.45
 20
-14.5
 30
0.0
 11
-47.55
 21
-14.5
 31
0.0
  0
LINE
  5
D2
330
1D
100
AcDbEntity
  8
SK2
100
AcDbLine
 10
-47.55
 20
-14.5
 30
0.0
 11
-48.0
 21
-18.0
 31
0.0
  0
LINE
  5
D3
330
1D
100
AcDbEntity
  8
SK2
100
AcDbLine
 10
-50.0
 20
18.0
 30
0.0
 11
-35.0
 21
18.0
 31
0.0
  0
LINE
  5
D4
330
1D
100
AcDbEntity
  8
SK2
100
AcDbLine
 10
-48.0
 20
18.0
 30
0.0
 11
-47.55
 21
14.5
 31
0.0
  0
LINE
  5
D5
330
1D
100
AcDbEntity
  8
SK2
100
AcDbLine
 10
-47.55
 20
14.5
 30
0.0
 11
-48.45
 21
14.5
 31
0.0
  0
LINE
  5
D6
330
1D
100
AcDbEntity
  8
SK2
100
AcDbLine
 10
-48.45
 20
14.5
 30
0.0
 11
-48.0
 21
18.0
 31
0.0
  0
LINE
  5
D7
330
1D
100
AcDbEntity
  8
SK2
100
AcDbLine
 10
-48.0
 20
-14.5
 30
0.0
 11
-48.0
 21
14.5
 31
0.0
  0
TEXT
  5
D8
330
1D
100
AcDbEntity
  8
SK2
100
AcDbText
 10
-49.5
 20
0.331405848
 30
0.0
 40
3.5
  1
36
 50
90.0
  7
BMG_Text
100
AcDbText
  0
CIRCLE
  5
D9
330
1D
100
AcDbEntity
  8
SK2
100
AcDbCircle
 10
-50.75
 20
-1.918594152
 30
0.0
 40
1.25
  0
LINE
  5
DA
330
1D
100
AcDbEntity
  8
SK2
100
AcDbLine
 10
-49.5
 20
-3.168594152
 30
0.0
 11
-52.0
 21
-0.668594152
 31
0.0
  0
LINE
  5
DB
330
1D
100
AcDbEntity
  8
2
100
AcDbLine
 10
0.0
 20
-62.0
 30
0.0
 11
0.0
 21
-31.0
 31
0.0
  0
LINE
  5
DC
330
1D
100
AcDbEntity
  8
2
100
AcDbLine
 10
0.0
 20
-60.0
 30
0.0
 11
3.500000004
 21
-59.550000035
 31
0.0
  0
LINE
  5
DD
330
1D
100
AcDbEntity
  8
2
100
AcDbLine
 10
3.500000004
 20
-59.550000035
 30
0.0
 11
3.499999996
 21
-60.450000035
 31
0.0
  0
LINE
  5
DE
330
1D
100
AcDbEntity
  8
2
100
AcDbLine
 10
3.499999996
 20
-60.450000035
 30
0.0
 11
0.0
 21
-60.0
 31
0.0
  0
LINE
  5
DF
330
1D
100
AcDbEntity
  8
2
100
AcDbLine
 10
40.000030518
 20
-62.000000395
 30
0.0
 11
40.000030518
 21
-44.987355627
 31
0.0
  0
LINE
  5
E0
330
1D
100
AcDbEntity
  8
2
100
AcDbLine
 10
40.000030518
 20
-60.000000395
 30
0.0
 11
36.500030514
 21
-60.45000036
 31
0.0
  0
LINE
  5
E1
330
1D
100
AcDbEntity
  8
2
100
AcDbLine
 10
36.500030514
 20
-60.45000036
 30
0.0
 11
36.500030522
 21
-59.55000036
 31
0.0
  0
LINE
  5
E2
330
1D
100
AcDbEntity
  8
2
100
AcDbLine
 10
36.500030522
 20
-59.55000036
 30
0.0
 11
40.000030518
 21
-60.000000395
 31
0.0
  0
LINE
  5
E3
330
1D
100
AcDbEntity
  8
2
100
AcDbLine
 10
3.5
 20
-60.000000035
 30
0.0
 11
36.500030518
 21
-60.00000036
 31
0.0
  0
TEXT
  5
E4
330
1D
100
AcDbEntity
  8
2
100
AcDbText
 10
18.335327327
 20
-58.500000181
 30
0.0
 40
3.5
  1
40
 50
359.999999435
  7
BMG_Text
100
AcDbText
  0
LINE
  5
E5
330
1D
100
AcDbEntity
  8
2
100
AcDbLine
 10
85.999999995
 20
-49.0
 30
0.0
 11
70.199998851
 21
-49.0
 31
0.0
  0
LINE
  5
E6
330
1D
100
AcDbEntity
  8
2
100
AcDbLine
 10
83.999999995
 20
-49.0
 30
0.0
 11
83.549999995
 21
-45.5
 31
0.0
  0
LINE
  5
E7
330
1D
100
AcDbEntity
  8
2
100
AcDbLine
 10
83.549999995
 20
-45.5
 30
0.0
 11
84.449999995
 21
-45.5
 31
0.0
  0
LINE
  5
E8
330
1D
100
AcDbEntity
  8
2
100
AcDbLine
 10
84.449999995
 20
-45.5
 30
0.0
 11
83.999999995
 21
-49.0
 31
0.0
  0
LINE
  5
E9
330
1D
100
AcDbEntity
  8
2
100
AcDbLine
 10
85.999999995
 20
49.0
 30
0.0
 11
70.199998851
 21
49.0
 31
0.0
  0
LINE
  5
EA
330
1D
100
AcDbEntity
  8
2
100
AcDbLine
 10
83.999999995
 20
49.0
 30
0.0
 11
84.449999995
 21
45.5
 31
0.0
  0
LINE
  5
EB
330
1D
100
AcDbEntity
  8
2
100
AcDbLine
 10
84.449999995
 20
45.5
 30
0.0
 11
83.549999995
 21
45.5
 31
0.0
  0
LINE
  5
EC
330
1D
100
AcDbEntity
  8
2
100
AcDbLine
 10
83.549999995
 20
45.5
 30
0.0
 11
83.999999995
 21
49.0
 31
0.0
  0
LINE
  5
ED
330
1D
100
AcDbEntity
  8
2
100
AcDbLine
 10
83.999999995
 20
-45.5
 30
0.0
 11
83.999999995
 21
45.5
 31
0.0
  0
CIRCLE
  5
EE
330
1D
100
AcDbEntity
  8
2
100
AcDbCircle
 10
81.249999995
 20
-6.047501095
 30
0.0
 40
1.25
  0
LINE
  5
EF
330
1D
100
AcDbEntity
  8
2
100
AcDbLine
 10
82.499999995
 20
-7.297501095
 30
0.0
 11
79.999999995
 21
-4.797501095
 31
0.0
  0
TEXT
  5
F0
330
1D
100
AcDbEntity
  8
2
100
AcDbText
 10
82.499999995
 20
-3.797501095
 30
0.0
 40
3.5
  1
98-126
 50
90.0
  7
BMG_Text
100
AcDbText
  0
TEXT
  5
F1
330
1D
100
AcDbEntity
  8
SK6
100
AcDbText
 10
-61.21084729606915
 20
-66.63482997071142
 30
0.0
 40
3.5
  1
315.602
  7
BMG_Text
100
AcDbText
  0
LINE
  5
F2
330
1D
100
AcDbEntity
  8
2
100
AcDbLine
 10
-65.999996405
 20
-45.0
 30
0.0
 11
12.794315118
 21
-45.0
 31
0.0
  0
LINE
  5
F3
330
1D
100
AcDbEntity
  8
2
100
AcDbLine
 10
-63.999996405
 20
-45.0
 30
0.0
 11
-64.449996545
 21
-41.500000018
 31
0.0
  0
LINE
  5
F4
330
1D
100
AcDbEntity
  8
2
100
AcDbLine
 10
-64.449996545
 20
-41.500000018
 30
0.0
 11
-63.549996545
 21
-41.499999982
 31
0.0
  0
LINE
  5
F5
330
1D
100
AcDbEntity
  8
2
100
AcDbLine
 10
-63.549996545
 20
-41.499999982
 30
0.0
 11
-63.999996405
 21
-45.0
 31
0.0
  0
LINE
  5
F6
330
1D
100
AcDbEntity
  8
2
100
AcDbLine
 10
-66.0
 20
45.0
 30
0.0
 11
12.794311523
 21
45.0
 31
0.0
  0
LINE
  5
F7
330
1D
100
AcDbEntity
  8
2
100
AcDbLine
 10
-64.0
 20
45.0
 30
0.0
 11
-63.549999861
 21
41.500000018
 31
0.0
  0
LINE
  5
F8
330
1D
100
AcDbEntity
  8
2
100
AcDbLine
 10
-63.549999861
 20
41.500000018
 30
0.0
 11
-64.449999861
 21
41.499999982
 31
0.0
  0
LINE
  5
F9
330
1D
100
AcDbEntity
  8
2
100
AcDbLine
 10
-64.449999861
 20
41.499999982
 30
0.0
 11
-64.0
 21
45.0
 31
0.0
  0
LINE
  5
FA
330
1D
100
AcDbEntity
  8
2
100
AcDbLine
 10
-63.999996545
 20
-41.5
 30
0.0
 11
-63.999999861
 21
41.5
 31
0.0
  0
TEXT
  5
FB
330
1D
100
AcDbEntity
  8
2
100
AcDbText
 10
-65.499998209
 20
0.139998934
 30
0.0
 40
3.5
  1
90
 50
90.00000228900001
  7
BMG_Text
100
AcDbText
  0
CIRCLE
  5
FC
330
1D
100
AcDbEntity
  8
2
100
AcDbCircle
 10
-66.749998119
 20
-2.110001116
 30
0.0
 40
1.25
  0
LINE
  5
FD
330
1D
100
AcDbEntity
  8
2
100
AcDbLine
 10
-65.499998069
 20
-3.360001066
 30
0.0
 11
-67.999998169
 21
-0.860001166
 31
0.0
  0
LINE
  5
19A
330
1D
100
AcDbEntity
  8
1
100
AcDbLine
 10
62.283369417
 20
34.720511231
 30
0.0
 11
70.33891487451675
 21
36.14094157461416
 31
0.0
  0
LINE
  5
19B
330
1D
100
AcDbEntity
  8
1
100
AcDbLine
 10
70.33891487451675
 20
36.14094157461416
 30
0.0
 11
70.710004219
 21
36.14094157461416
 31
0.0
  0
LINE
  5
19C
330
1D
100
AcDbEntity
  8
1
100
AcDbLine
 10
58.299985881
 20
38.063015692
 30
0.0
 11
58.299985881
 21
46.24391020241664
 31
0.0
  0
LINE
  5
19D
330
1D
100
AcDbEntity
  8
1
100
AcDbLine
 10
58.299985881
 20
46.24391020241664
 30
0.0
 11
58.28242374503123
 21
46.34351524311286
 31
0.0
  0
LINE
  5
19E
330
1D
100
AcDbEntity
  8
3
100
AcDbLine
 10
58.376809821
 20
46.360157183
 30
0.0
 11
70.05150967666819
 21
48.26412232948325
 31
0.0
  0
LINE
  5
19F
330
1D
100
AcDbEntity
  8
3
100
AcDbLine
 10
70.05150967666819
 20
48.26412232948325
 30
0.0
 11
70.21697421077641
 21
36.928783408
 31
0.0
  0
LINE
  5
1A0
330
1D
100
AcDbEntity
  8
3
100
AcDbLine
 10
70.21697421077641
 20
36.928783408
 30
0.0
 11
70.69587581808487
 21
36.30101079826207
 31
0.0
  0
LWPOLYLINE
  5
1A9
330
1D
100
AcDbEntity
  8
INFTOTAL
100
AcDbPolyline
 90
        4
 70
     1
 43
0.0
 10
94.13669874339092
 20
70.87374944127728
 10
94.1366987433909
 20
-72.78104916379696
 10
-73.70487717784383
 20
-72.78104916379698
 10
-73.7048771778438
 20
70.87374944127728
  0
LINE
  5
1AC
330
1D
100
AcDbEntity
  8
NOCUT
100
AcDbLine
 10
0.0
 20
31.0
 30
0.0
 11
0.5
 21
31.5
 31
0.0
  0
LINE
  5
1AD
330
1D
100
AcDbEntity
  8
NOCUT
100
AcDbLine
 10
0.5
 20
31.5
 30
0.0
 11
5.002089759721938
 21
31.5
 31
0.0
  0
LINE
  5
1AE
330
1D
100
AcDbEntity
  8
NOCUT
100
AcDbLine
 10
5.002089759721938
 20
31.5
 30
0.0
 11
12.794311523
 21
45.0
 31
0.0
  0
LINE
  5
1B0
330
1D
100
AcDbEntity
  8
NOCUT
100
AcDbLine
 10
50.590857412
 20
44.987355627
 30
0.0
 11
58.30690503911725
 21
46.34783172963227
 31
0.0
  0
LINE
  5
1BB
330
1D
100
AcDbEntity
  8
NOCUT
100
AcDbLine
 10
70.21697421077641
 20
36.928783408
 30
0.0
 11
70.710004219
 21
36.282490453
 31
0.0
  0
LINE
  5
1BC
330
1D
100
AcDbEntity
  8
NOCUT
100
AcDbLine
 10
70.710004219
 20
36.282490453
 30
0.0
 11
70.710004219
 21
27.362568994
 31
0.0
  0
LINE
  5
1BD
330
1D
100
AcDbEntity
  8
NOCUT
100
AcDbLine
 10
70.710004219
 20
27.362568994
 30
0.0
 11
63.378225954
 21
0.0
 31
0.0
  0
LINE
  5
1BE
330
1D
100
AcDbEntity
  8
NOCUT
100
AcDbLine
 10
63.378225954
 20
0.0
 30
0.0
 11
0.0
 21
0.0
 31
0.0
  0
LINE
  5
1E8
330
1D
100
AcDbEntity
  8
SK4
100
AcDbLine
 10
66.642579939
 20
0.0
 30
0.0
 11
-41.763329068
 21
0.0
 31
0.0
  0
LINE
  5
1EB
330
1D
100
AcDbEntity
  8
SK4
100
AcDbLine
 10
18.217893692
 20
-31.857657474
 30
0.0
 11
-3.270367601
 21
0.0
 31
0.0
  0
LINE
  5
1EC
330
1D
100
AcDbEntity
  8
SK4
100
AcDbLine
 10
-3.270367601
 20
0.0
 30
0.0
 11
18.217893692
 21
31.857657474
 31
0.0
  0
LINE
  5
22C
330
1D
100
AcDbEntity
  8
SK3
100
AcDbLine
 10
-1.501479476
 20
8.000003815
 30
0.0
 11
0.0
 21
10.22603868106594
 31
0.0
  0
LINE
  5
22D
330
1D
100
AcDbEntity
  8
SK3
100
AcDbLine
 10
-1.501479476
 20
-8.000003815
 30
0.0
 11
0.0
 21
-10.22603868106594
 31
0.0
  0
LINE
  5
231
330
1D
100
AcDbEntity
  8
3
100
AcDbLine
 10
2.000030607
 20
8.000003815
 30
0.0
 11
0.0
 21
8.000003815
 31
0.0
  0
LINE
  5
232
330
1D
100
AcDbEntity
  8
3
100
AcDbLine
 10
0.0
 20
-8.000019073
 30
0.0
 11
2.000030607
 21
-8.000019073
 31
0.0
  0
LINE
  5
244
330
1D
100
AcDbEntity
  8
NOCUT
100
AcDbLine
 10
58.30690503911725
 20
46.34783172963227
 30
0.0
 11
70.05150967666819
 21
48.26412232948325
 31
0.0
  0
LINE
  5
245
330
1D
100
AcDbEntity
  8
NOCUT
100
AcDbLine
 10
70.05150967666819
 20
48.26412232948325
 30
0.0
 11
70.21697421077641
 21
36.928783408
 31
0.0
  0
LINE
  5
2BC
330
1D
100
AcDbEntity
  8
SK4
100
AcDbLine
 10
61.48737568598776
 20
37.81671917253894
 30
0.0
 11
67.81258539601289
 21
45.35479722746079
 31
0.0
  0
LINE
  5
2BD
330
1D
100
AcDbEntity
  8
SK4
100
AcDbLine
 10
68.41901956846127
 20
38.42315334498731
 30
0.0
 11
60.8809415135394
 21
44.74836305501243
 31
0.0
  0
LINE
  5
2BF
330
1D
100
AcDbEntity
  8
4
100
AcDbLine
 10
67.81258539601289
 20
45.35479722746079
 30
0.0
 11
61.48737568598776
 21
37.81671917253894
 31
0.0
  0
LINE
  5
2C0
330
1D
100
AcDbEntity
  8
4
100
AcDbLine
 10
68.41901956846127
 20
38.42315334498731
 30
0.0
 11
60.8809415135394
 21
44.74836305501243
 31
0.0
  0
LINE
  5
2CD
330
1D
100
AcDbEntity
  8
SK4
100
AcDbLine
 10
18.217893692
 20
31.870301848
 30
0.0
 11
32.153236389
 21
39.918197911
 31
0.0
  0
LINE
  5
2CE
330
1D
100
AcDbEntity
  8
SK4
100
AcDbLine
 10
18.217893692
 20
-31.870301848
 30
0.0
 11
32.153236389
 21
-39.918197911
 31
0.0
  0
LINE
  5
2EF
330
1D
100
AcDbEntity
  8
0
100
AcDbLine
 10
70.710004219
 20
36.282490453
 30
0.0
 11
70.69587581808487
 21
36.30101079826207
 31
0.0
  0
LINE
  5
2F0
330
1D
100
AcDbEntity
  8
1
100
AcDbLine
 10
58.29994933145522
 20
34.97152769408832
 30
0.0
 11
58.29999341172038
 21
46.24279030159315
 31
0.0
  0
LINE
  5
2F2
330
1D
100
AcDbEntity
  8
1
100
AcDbLine
 10
70.3388730835275
 20
36.14087452665599
 30
0.0
 11
59.23887926905611
 21
34.18366994401333
 31
0.0
  0
ARC
  5
2F4
330
1D
100
AcDbEntity
  8
1
100
AcDbCircle
 10
59.09996223100065
 20
34.97151564599974
 30
0.0
 40
0.799999246
100
AcDbArc
 50
179.9991370993637
 51
279.9999001383645
  0
LINE
  5
2FB
330
1D
100
AcDbEntity
  8
1
100
AcDbLine
 10
70.710004219
 20
-36.282490453
 30
0.0
 11
70.69587581808487
 21
-36.30101079826207
 31
0.0
  0
ARC
  5
2FD
330
1D
100
AcDbEntity
  8
1
100
AcDbCircle
 10
70.199998851
 20
-36.928783408
 30
0.0
 40
0.7999952604390685
100
AcDbArc
 50
53.26449891830547
 51
54.82681941399981
  0
LINE
  5
323
330
1D
100
AcDbEntity
  8
SK1
100
AcDbLine
 10
-0.0000133864025021
 20
-17.80001594049586
 30
0.0
 11
-0.0000135205989947
 21
17.80001580734564
 31
0.0
  0
LINE
  5
334
330
1D
100
AcDbEntity
  8
NOCUT
100
AcDbLine
 10
12.794311523
 20
45.0
 30
0.0
 11
40.000030518
 21
45.0
 31
0.0
  0
LINE
  5
335
330
1D
100
AcDbEntity
  8
NOCUT
100
AcDbLine
 10
50.590857412
 20
44.987355627
 30
0.0
 11
40.000030518
 21
44.987355627
 31
0.0
  0
LINE
  5
33C
330
1D
100
AcDbEntity
  8
NOCUT
100
AcDbLine
 10
0.0
 20
31.0
 30
0.0
 11
0.0
 21
0.0
 31
0.0
  0
LINE
  5
34C
330
1D
100
AcDbEntity
  8
1
100
AcDbLine
 10
70.061067577
 20
-48.98785781
 30
0.0
 11
58.96104501800001
 21
-47.030599534
 31
0.0
  0
ARC
  5
34D
330
1D
100
AcDbEntity
  8
1
100
AcDbCircle
 10
59.099973674
 20
-46.242755881
 30
0.0
 40
0.799999246
100
AcDbArc
 50
187.5473178483082
 51
259.9992549419997
  0
LINE
  5
34E
330
1D
100
AcDbEntity
  8
1
100
AcDbLine
 10
71.00000190299998
 20
-36.92877577800001
 30
0.0
 11
70.99999809699999
 21
-48.20000075399999
 31
0.0
  0
ARC
  5
34F
330
1D
100
AcDbEntity
  8
1
100
AcDbCircle
 10
70.19999885100002
 20
-36.92878340800001
 30
0.0
 40
0.79999526
100
AcDbArc
 50
0.0005464130002945
 51
53.26454494952298
  0
ARC
  5
350
330
1D
100
AcDbEntity
  8
1
100
AcDbCircle
 10
70.19999885100002
 20
-48.20000075399999
 30
0.0
 40
0.799999246
100
AcDbArc
 50
259.9992369609988
 51
0.0
  0
LINE
  5
351
330
1D
100
AcDbEntity
  8
1
100
AcDbLine
 10
70.67849295766352
 20
-36.28766266593126
 30
0.0
 11
70.19699287000002
 21
-36.366695395
 31
0.0
  0
LINE
  5
352
330
1D
100
AcDbEntity
  8
1
100
AcDbLine
 10
70.19699287000002
 20
-36.366695395
 30
0.0
 11
70.19698743100001
 21
-47.24303053900001
 31
0.0
  0
LINE
  5
353
330
1D
100
AcDbEntity
  8
1
100
AcDbLine
 10
69.258076118
 20
-48.03087233600001
 30
0.0
 11
58.546982215
 21
-46.14221572
 31
0.0
  0
LINE
  5
354
330
1D
100
AcDbEntity
  8
1
100
AcDbLine
 10
58.546982215
 20
-46.14221572
 30
0.0
 11
58.37680982100001
 21
-46.36015718300001
 31
0.0
  0
LINE
  5
355
330
1D
100
AcDbEntity
  8
1
100
AcDbLine
 10
58.37680982100001
 20
-46.36015718300001
 30
0.0
 11
58.30690503911727
 21
-46.34783172963227
 31
0.0
  0
ARC
  5
356
330
1D
100
AcDbEntity
  8
1
100
AcDbCircle
 10
69.396992134
 20
-47.24303053900001
 30
0.0
 40
0.7999952970000002
100
AcDbArc
 50
260.0001234100016
 51
0.0
  0
CIRCLE
  5
357
330
1D
100
AcDbEntity
  8
1
100
AcDbCircle
 10
64.64998054099999
 20
41.5857582
 30
0.0
 40
4.099999935
  0
LINE
  5
358
330
1D
100
AcDbEntity
  8
CUT
100
AcDbLine
 10
70.06106994764383
 20
48.98784436374297
 30
0.0
 11
58.96104501789094
 21
47.03059953434266
 31
0.0
  0
ARC
  5
359
330
1D
100
AcDbEntity
  8
CUT
100
AcDbCircle
 10
59.09997367400001
 20
46.242755881
 30
0.0
 40
0.799999246
100
AcDbArc
 50
100.0007450580002
 51
180.0
  0
LINE
  5
35A
330
1D
100
AcDbEntity
  8
CUT
100
AcDbLine
 10
70.99999411096363
 20
36.92877577868047
 30
0.0
 11
70.999998097
 21
48.200000754
 31
0.0
  0
ARC
  5
35B
330
1D
100
AcDbEntity
  8
CUT
100
AcDbCircle
 10
70.199998851
 20
36.928783408
 30
0.0
 40
0.79999526
100
AcDbArc
 50
279.9998766930001
 51
359.9994535870002
  0
ARC
  5
35C
330
1D
100
AcDbEntity
  8
CUT
100
AcDbCircle
 10
70.199998851
 20
48.200000754
 30
0.0
 40
0.799999246
100
AcDbArc
 50
0.0
 51
100.0007630389991
  0
LINE
  5
35D
330
1D
100
AcDbEntity
  8
CUT
100
AcDbLine
 10
58.29996298509138
 20
34.97152769435417
 30
0.0
 11
58.29997442800001
 21
46.242755881
 31
0.0
  0
LINE
  5
35E
330
1D
100
AcDbEntity
  8
CUT
100
AcDbLine
 10
70.33891487451675
 20
36.14094157461416
 30
0.0
 11
59.2388792690561
 21
34.18366994401332
 31
0.0
  0
ARC
  5
35F
330
1D
100
AcDbEntity
  8
CUT
100
AcDbCircle
 10
59.09996223100066
 20
34.97151564599974
 30
0.0
 40
0.799999246
100
AcDbArc
 50
179.9991370993637
 51
279.9999001383629
  0
HATCH
  5
382
330
1D
100
AcDbEntity
  8
7
100
AcDbHatch
 10
0.0
 20
0.0
 30
0.0
210
0.0
220
0.0
230
1.0
  2
ANSI37
 70
     0
 71
     0
 91
        2
 92
        7
 72
     1
 73
     1
 93
        8
 10
70.99999411096363
 20
36.928775779109
 42
0.0
 10
70.99999809699995
 20
48.20000056538838
 42
0.4663117832914177
 10
70.06106994755177
 20
48.98784436372672
 42
0.0
 10
58.96104501792405
 20
47.03059953434849
 42
0.3639663610691948
 10
58.29997442800055
 20
46.24275642245641
 42
0.0
 10
58.29996298509138
 20
34.9715276940953
 42
0.4663127009248545
 10
59.23888183043934
 20
34.18367039566257
 42
0.0
 10
70.33891765080966
 20
36.14094206415848
 42
0.3639671460265239
 97
        0
 92
       22
 72
     1
 73
     1
 93
        2
 10
60.54998060599999
 20
41.5857582
 42
-0.9999999999999998
 10
68.74998047599999
 20
41.5857582
 42
-0.9999999999999998
 97
        0
 75
     0
 76
     1
 52
90.0
 41
5.0
 77
     0
 78
     2
 53
135.0
 43
-100.2314058617727
 44
23.36397422820887
 45
-0.4419417382415922
 46
-0.4419417382415922
 79
     0
 53
225.0
 43
-100.2314058617727
 44
23.36397422820887
 45
0.4419417382415922
 46
-0.4419417382415923
 79
     0
 47
0.0
 98
        2
 10
68.90086469989612
 20
42.71530798723882
 10
68.90086469989612
 20
42.71530798723882
1001
ACAD
1010
0.0
1020
0.0
1030
0.0
1001
PE_URL
1000

  0
HATCH
  5
385
330
1D
100
AcDbEntity
  8
7
100
AcDbHatch
 10
0.0
 20
0.0
 30
0.0
210
0.0
220
0.0
230
1.0
  2
ANSI37
 70
     0
 71
     0
 91
        1
 92
        7
 72
     1
 73
     1
 93
       11
 10
70.9999980969999
 20
-48.20000093409265
 42
0.0
 10
70.99999605897271
 20
-36.92877577851035
 42
0.2366821369676819
 10
70.67849295766352
 20
-36.28766266593126
 42
0.0
 10
70.19699287000002
 20
-36.366695395
 42
0.0
 10
70.1969874309999
 20
-47.24303080570592
 42
-0.466306916276059
 10
69.258076108606
 20
-48.03087239080512
 42
0.0
 10
58.546982215
 20
-46.14221571999999
 42
0.0
 10
58.37680982099998
 20
-46.36015718300001
 42
0.0
 10
58.30690503911727
 20
-46.34783172963227
 42
0.3271012285391671
 10
58.96104501791821
 20
-47.03059953425699
 42
0.0
 10
70.06106876232191
 20
-48.98785108687147
 42
0.4663060730915036
 97
        0
 75
     0
 76
     1
 52
90.0
 41
5.0
 77
     0
 78
     2
 53
135.0
 43
-101.7108809506464
 44
27.08262351759203
 45
-0.4419417382415922
 46
-0.4419417382415922
 79
     0
 53
225.0
 43
-101.7108809506464
 44
27.08262351759203
 45
0.4419417382415922
 46
-0.4419417382415923
 79
     0
 47
0.0
 98
        1
 10
70.95894606453349
 20
-47.25149895025967
1001
ACAD
1010
0.0
1020
0.0
1030
0.0
1001
PE_URL
1000

  0
LINE
  5
386
330
1D
100
AcDbEntity
  8
CUT
100
AcDbLine
 10
70.061067577
 20
-48.98785781
 30
0.0
 11
58.96104501800001
 21
-47.030599534
 31
0.0
  0
ARC
  5
387
330
1D
100
AcDbEntity
  8
CUT
100
AcDbCircle
 10
59.099973674
 20
-46.242755881
 30
0.0
 40
0.799999246
100
AcDbArc
 50
187.5473178483082
 51
259.9992549419997
  0
LINE
  5
388
330
1D
100
AcDbEntity
  8
CUT
100
AcDbLine
 10
71.00000190299998
 20
-36.92877577800001
 30
0.0
 11
70.99999809699999
 21
-48.20000075399999
 31
0.0
  0
ARC
  5
389
330
1D
100
AcDbEntity
  8
CUT
100
AcDbCircle
 10
70.19999885100002
 20
-36.92878340800001
 30
0.0
 40
0.79999526
100
AcDbArc
 50
0.0005464130002945
 51
53.26454494952298
  0
ARC
  5
38A
330
1D
100
AcDbEntity
  8
CUT
100
AcDbCircle
 10
70.19999885100002
 20
-48.20000075399999
 30
0.0
 40
0.799999246
100
AcDbArc
 50
259.9992369609988
 51
0.0
  0
ENDSEC
  0
SECTION
  2
OBJECTS
  0
DICTIONARY
  5
C
330
0
100
AcDbDictionary
281
     1
  3
ACAD_COLOR
350
36E
  3
ACAD_DETAILVIEWSTYLE
350
1B5
  3
ACAD_GROUP
350
D
  3
ACAD_LAYOUT
350
1A
  3
ACAD_MATERIAL
350
13C
  3
ACAD_MLEADERSTYLE
350
14A
  3
ACAD_MLINESTYLE
350
17
  3
ACAD_PLOTSETTINGS
350
19
  3
ACAD_PLOTSTYLENAME
350
E
  3
ACAD_SCALELIST
350
105
  3
ACAD_SECTIONVIEWSTYLE
350
1B6
  3
ACAD_TABLESTYLE
350
193
  3
ACAD_VISUALSTYLE
350
12B
  3
ACDB_RECOMPOSE_DATA
350
39B
  3
AcDbVariableDictionary
350
148
  3
APPDATA
350
196
  0
SUN
  5
1E6
330
FE
100
AcDbSun
 90
        1
290
     0
 63
     7
421
 16777215
 40
1.0
291
     1
 91
  2455826
 92
 54000000
292
     0
 70
     2
 71
   256
280
     1
  0
DICTIONARY
  5
197
330
2
100
AcDbDictionary
280
     1
281
     1
  3
ACAD_LAYERSTATES
360
198
  3
ACLYDICTIONARY
360
2D8
  0
DICTIONARY
  5
37B
330
1D
100
AcDbDictionary
280
     1
281
     1
  3
ACAD_SORTENTS
360
37C
  0
DICTIONARY
  5
36E
102
{ACAD_REACTORS
330
C
102
}
330
C
100
AcDbDictionary
281
     1
  0
DICTIONARY
  5
1B5
102
{ACAD_REACTORS
330
C
102
}
330
C
100
AcDbDictionary
281
     1
  0
DICTIONARY
  5
D
102
{ACAD_REACTORS
330
C
102
}
330
C
100
AcDbDictionary
281
     1
  0
DICTIONARY
  5
1A
102
{ACAD_REACTORS
330
C
102
}
330
C
100
AcDbDictionary
281
     1
  3
Layout1
350
1C
  3
Model
350
1E
  0
DICTIONARY
  5
13C
102
{ACAD_REACTORS
330
C
102
}
330
C
100
AcDbDictionary
281
     1
  3
ByBlock
350
13E
  3
ByLayer
350
13D
  3
Global
350
13F
  0
DICTIONARY
  5
14A
102
{ACAD_REACTORS
330
C
102
}
330
C
100
AcDbDictionary
281
     1
  3
Standard
350
195
  0
DICTIONARY
  5
17
102
{ACAD_REACTORS
330
C
102
}
330
C
100
AcDbDictionary
281
     1
  3
Standard
350
18
  0
DICTIONARY
  5
19
102
{ACAD_REACTORS
330
C
102
}
330
C
100
AcDbDictionary
281
     1
  0
ACDBDICTIONARYWDFLT
  5
E
102
{ACAD_REACTORS
330
C
102
}
330
C
100
AcDbDictionary
281
     1
  3
Normal
350
F
100
AcDbDictionaryWithDefault
340
F
  0
DICTIONARY
  5
105
102
{ACAD_REACTORS
330
C
102
}
330
C
100
AcDbDictionary
281
     1
  3
A0
350
106
  3
A1
350
107
  3
A2
350
108
  3
A3
350
109
  3
A4
350
10A
  3
A5
350
10B
  3
A6
350
10C
  3
A7
350
10D
  3
A8
350
10E
  3
A9
350
10F
  3
B0
350
110
  3
B1
350
111
  3
B2
350
112
  3
B3
350
113
  3
B4
350
114
  3
B5
350
115
  3
B6
350
116
  3
B7
350
117
  3
B8
350
118
  3
B9
350
119
  3
C0
350
11A
  3
C1
350
11B
  3
C2
350
11C
  3
C3
350
11D
  3
C4
350
11E
  3
C5
350
11F
  3
C6
350
120
  3
C7
350
121
  3
C8
350
122
  3
C9
350
123
  3
D0
350
124
  3
D1
350
125
  3
D2
350
126
  0
DICTIONARY
  5
1B6
102
{ACAD_REACTORS
330
C
102
}
330
C
100
AcDbDictionary
281
     1
  0
DICTIONARY
  5
193
102
{ACAD_REACTORS
330
C
102
}
330
C
100
AcDbDictionary
281
     1
  3
Standard
350
194
  0
DICTIONARY
  5
12B
102
{ACAD_REACTORS
330
C
102
}
330
C
100
AcDbDictionary
281
     1
  3
2dWireframe
350
130
  3
3D Hidden
350
132
  3
3dWireframe
350
131
  3
Basic
350
133
  3
Brighten
350
137
  3
ColorChange
350
13B
  3
Conceptual
350
135
  3
Dim
350
136
  3
EdgeColorOff
350
18D
  3
Facepattern
350
13A
  3
Flat
350
12C
  3
FlatWithEdges
350
12D
  3
Gouraud
350
12E
  3
GouraudWithEdges
350
12F
  3
Hidden
350
18A
  3
JitterOff
350
18B
  3
Linepattern
350
139
  3
OverhangOff
350
18C
  3
Realistic
350
134
  3
Shaded
350
192
  3
Shaded with edges
350
191
  3
Shades of Gray
350
18E
  3
Sketchy
350
18F
  3
Thicken
350
138
  3
Wireframe
350
189
  3
X-Ray
350
190
  0
XRECORD
  5
39B
102
{ACAD_REACTORS
330
C
102
}
330
C
100
AcDbXrecord
280
     1
 90
        1
330
194
  0
DICTIONARY
  5
148
102
{ACAD_REACTORS
330
C
102
}
330
C
100
AcDbDictionary
281
     1
  3
CANNOSCALE
350
1B2
  3
CMLEADERSTYLE
350
1B4
  3
CTABLESTYLE
350
1B3
  3
DIMASSOC
350
14C
  3
HIDETEXT
350
14D
  3
MSLTSCALE
350
14B
  0
DICTIONARY
  5
196
102
{ACAD_REACTORS
330
C
102
}
330
C
100
AcDbDictionary
281
     1
  0
DICTIONARY
  5
198
102
{ACAD_REACTORS
330
197
102
}
330
197
100
AcDbDictionary
281
     1
  0
DICTIONARY
  5
2D8
102
{ACAD_REACTORS
330
197
102
}
330
197
100
AcDbDictionary
281
     1
1001
ACAD
1000
<All
  0
SORTENTSTABLE
  5
37C
102
{ACAD_REACTORS
330
37B
102
}
330
37B
100
AcDbSortentsTable
330
1D
331
34C
  5
350
331
34D
  5
351
331
34E
  5
352
331
34F
  5
353
331
350
  5
354
331
351
  5
355
331
352
  5
356
331
353
  5
357
331
354
  5
358
331
355
  5
359
331
356
  5
35A
331
357
  5
379
331
358
  5
37A
331
359
  5
37D
331
35A
  5
37E
331
35B
  5
37F
331
35C
  5
380
331
35D
  5
381
331
35E
  5
382
331
35F
  5
383
331
0
  5
384
331
0
  5
385
331
0
  5
35B
331
0
  5
35C
331
0
  5
35D
331
0
  5
34C
331
0
  5
35E
331
0
  5
35F
331
382
  5
378
331
0
  5
34D
331
0
  5
34E
331
385
  5
34F
  0
LAYOUT
  5
1C
102
{ACAD_REACTORS
330
1A
102
}
330
1A
100
AcDbPlotSettings
  1

  2
none_device
  4

  6

 40
0.0
 41
0.0
 42
0.0
 43
0.0
 44
0.0
 45
0.0
 46
0.0
 47
0.0
 48
0.0
 49
0.0
140
0.0
141
0.0
142
1.0
143
1.0
 70
   688
 72
     0
 73
     0
 74
     5
  7

 75
    16
 76
     0
 77
     2
 78
   300
147
1.0
148
0.0
149
0.0
100
AcDbLayout
  1
Layout1
 70
     1
 71
     1
 10
0.0
 20
0.0
 11
12.0
 21
9.0
 12
0.0
 22
0.0
 32
0.0
 14
1.000000000000000E+20
 24
1.000000000000000E+20
 34
1.000000000000000E+20
 15
-1.000000000000000E+20
 25
-1.000000000000000E+20
 35
-1.000000000000000E+20
146
0.0
 13
0.0
 23
0.0
 33
0.0
 16
1.0
 26
0.0
 36
0.0
 17
0.0
 27
1.0
 37
0.0
 76
     0
330
1B
  0
LAYOUT
  5
1E
102
{ACAD_REACTORS
330
1A
102
}
330
1A
100
AcDbPlotSettings
  1

  2
none_device
  4

  6

 40
0.0
 41
0.0
 42
0.0
 43
0.0
 44
0.0
 45
0.0
 46
0.0
 47
0.0
 48
0.0
 49
0.0
140
0.0
141
0.0
142
1.0
143
1.0
 70
  1712
 72
     0
 73
     0
 74
     0
  7

 75
     0
 76
     0
 77
     2
 78
   300
147
1.0
148
0.0
149
0.0
100
AcDbLayout
  1
Model
 70
     1
 71
     0
 10
0.0
 20
0.0
 11
12.0
 21
9.0
 12
0.0
 22
0.0
 32
0.0
 14
-73.70487717784384
 24
-72.78104916379698
 34
0.0
 15
94.13669874339094
 25
70.87374944127728
 35
0.0
146
0.0
 13
0.0
 23
0.0
 33
0.0
 16
1.0
 26
0.0
 36
0.0
 17
0.0
 27
1.0
 37
0.0
 76
     0
330
1D
331
FE
  0
MATERIAL
  5
13E
102
{ACAD_REACTORS
330
13C
102
}
330
13C
100
AcDbMaterial
  1
ByBlock
 72
     1
 94
      127
  0
MATERIAL
  5
13D
102
{ACAD_REACTORS
330
13C
102
}
330
13C
100
AcDbMaterial
  1
ByLayer
 72
     1
 94
      127
  0
MATERIAL
  5
13F
102
{ACAD_REACTORS
330
13C
102
}
330
13C
100
AcDbMaterial
  1
Global
 72
     1
 94
      127
  0
MLEADERSTYLE
  5
195
102
{ACAD_REACTORS
330
14A
102
}
330
14A
100
AcDbMLeaderStyle
179
     2
170
     2
171
     1
172
     0
 90
        2
 40
0.0
 41
0.0
173
     1
 91
-1056964608
340
14
 92
       -2
290
     1
 42
0.09
291
     1
 43
0.36
  3
Standard
341
0
 44
0.18
300

342
11
174
     1
178
     1
175
     1
176
     0
 93
-1056964608
 45
0.18
292
     0
297
     0
 46
0.18
343
0
 94
-1056964608
 47
1.0
 49
1.0
140
1.0
293
     1
141
0.0
294
     1
177
     0
142
1.0
295
     0
296
     0
143
0.125
271
     0
272
     9
273
     9
298
     0
  0
MLINESTYLE
  5
18
102
{ACAD_REACTORS
330
17
102
}
330
17
100
AcDbMlineStyle
  2
Standard
 70
     0
  3

 62
   256
 51
90.0
 52
90.0
 71
     2
 49
0.5
 62
   256
  6
BYLAYER
 49
-0.5
 62
   256
  6
BYLAYER
  0
ACDBPLACEHOLDER
  5
F
102
{ACAD_REACTORS
330
E
102
}
330
E
  0
SCALE
  5
106
102
{ACAD_REACTORS
330
105
102
}
330
105
100
AcDbScale
 70
     0
300
1:1
140
1.0
141
1.0
290
     1
  0
SCALE
  5
107
102
{ACAD_REACTORS
330
105
102
}
330
105
100
AcDbScale
 70
     0
300
1:2
140
1.0
141
2.0
290
     0
  0
SCALE
  5
108
102
{ACAD_REACTORS
330
105
102
}
330
105
100
AcDbScale
 70
     0
300
1:4
140
1.0
141
4.0
290
     0
  0
SCALE
  5
109
102
{ACAD_REACTORS
330
105
102
}
330
105
100
AcDbScale
 70
     0
300
1:5
140
1.0
141
5.0
290
     0
  0
SCALE
  5
10A
102
{ACAD_REACTORS
330
105
102
}
330
105
100
AcDbScale
 70
     0
300
1:8
140
1.0
141
8.0
290
     0
  0
SCALE
  5
10B
102
{ACAD_REACTORS
330
105
102
}
330
105
100
AcDbScale
 70
     0
300
1:10
140
1.0
141
10.0
290
     0
  0
SCALE
  5
10C
102
{ACAD_REACTORS
330
105
102
}
330
105
100
AcDbScale
 70
     0
300
1:16
140
1.0
141
16.0
290
     0
  0
SCALE
  5
10D
102
{ACAD_REACTORS
330
105
102
}
330
105
100
AcDbScale
 70
     0
300
1:20
140
1.0
141
20.0
290
     0
  0
SCALE
  5
10E
102
{ACAD_REACTORS
330
105
102
}
330
105
100
AcDbScale
 70
     0
300
1:30
140
1.0
141
30.0
290
     0
  0
SCALE
  5
10F
102
{ACAD_REACTORS
330
105
102
}
330
105
100
AcDbScale
 70
     0
300
1:40
140
1.0
141
40.0
290
     0
  0
SCALE
  5
110
102
{ACAD_REACTORS
330
105
102
}
330
105
100
AcDbScale
 70
     0
300
1:50
140
1.0
141
50.0
290
     0
  0
SCALE
  5
111
102
{ACAD_REACTORS
330
105
102
}
330
105
100
AcDbScale
 70
     0
300
1:100
140
1.0
141
100.0
290
     0
  0
SCALE
  5
112
102
{ACAD_REACTORS
330
105
102
}
330
105
100
AcDbScale
 70
     0
300
2:1
140
2.0
141
1.0
290
     0
  0
SCALE
  5
113
102
{ACAD_REACTORS
330
105
102
}
330
105
100
AcDbScale
 70
     0
300
4:1
140
4.0
141
1.0
290
     0
  0
SCALE
  5
114
102
{ACAD_REACTORS
330
105
102
}
330
105
100
AcDbScale
 70
     0
300
8:1
140
8.0
141
1.0
290
     0
  0
SCALE
  5
115
102
{ACAD_REACTORS
330
105
102
}
330
105
100
AcDbScale
 70
     0
300
10:1
140
10.0
141
1.0
290
     0
  0
SCALE
  5
116
102
{ACAD_REACTORS
330
105
102
}
330
105
100
AcDbScale
 70
     0
300
100:1
140
100.0
141
1.0
290
     0
  0
SCALE
  5
117
102
{ACAD_REACTORS
330
105
102
}
330
105
100
AcDbScale
 70
     0
300
1/128" = 1'-0"
140
0.0078125
141
12.0
290
     0
  0
SCALE
  5
118
102
{ACAD_REACTORS
330
105
102
}
330
105
100
AcDbScale
 70
     0
300
1/64" = 1'-0"
140
0.015625
141
12.0
290
     0
  0
SCALE
  5
119
102
{ACAD_REACTORS
330
105
102
}
330
105
100
AcDbScale
 70
     0
300
1/32" = 1'-0"
140
0.03125
141
12.0
290
     0
  0
SCALE
  5
11A
102
{ACAD_REACTORS
330
105
102
}
330
105
100
AcDbScale
 70
     0
300
1/16" = 1'-0"
140
0.0625
141
12.0
290
     0
  0
SCALE
  5
11B
102
{ACAD_REACTORS
330
105
102
}
330
105
100
AcDbScale
 70
     0
300
3/32" = 1'-0"
140
0.09375
141
12.0
290
     0
  0
SCALE
  5
11C
102
{ACAD_REACTORS
330
105
102
}
330
105
100
AcDbScale
 70
     0
300
1/8" = 1'-0"
140
0.125
141
12.0
290
     0
  0
SCALE
  5
11D
102
{ACAD_REACTORS
330
105
102
}
330
105
100
AcDbScale
 70
     0
300
3/16" = 1'-0"
140
0.1875
141
12.0
290
     0
  0
SCALE
  5
11E
102
{ACAD_REACTORS
330
105
102
}
330
105
100
AcDbScale
 70
     0
300
1/4" = 1'-0"
140
0.25
141
12.0
290
     0
  0
SCALE
  5
11F
102
{ACAD_REACTORS
330
105
102
}
330
105
100
AcDbScale
 70
     0
300
3/8" = 1'-0"
140
0.375
141
12.0
290
     0
  0
SCALE
  5
120
102
{ACAD_REACTORS
330
105
102
}
330
105
100
AcDbScale
 70
     0
300
1/2" = 1'-0"
140
0.5
141
12.0
290
     0
  0
SCALE
  5
121
102
{ACAD_REACTORS
330
105
102
}
330
105
100
AcDbScale
 70
     0
300
3/4" = 1'-0"
140
0.75
141
12.0
290
     0
  0
SCALE
  5
122
102
{ACAD_REACTORS
330
105
102
}
330
105
100
AcDbScale
 70
     0
300
1" = 1'-0"
140
1.0
141
12.0
290
     0
  0
SCALE
  5
123
102
{ACAD_REACTORS
330
105
102
}
330
105
100
AcDbScale
 70
     0
300
1-1/2" = 1'-0"
140
1.5
141
12.0
290
     0
  0
SCALE
  5
124
102
{ACAD_REACTORS
330
105
102
}
330
105
100
AcDbScale
 70
     0
300
3" = 1'-0"
140
3.0
141
12.0
290
     0
  0
SCALE
  5
125
102
{ACAD_REACTORS
330
105
102
}
330
105
100
AcDbScale
 70
     0
300
6" = 1'-0"
140
6.0
141
12.0
290
     0
  0
SCALE
  5
126
102
{ACAD_REACTORS
330
105
102
}
330
105
100
AcDbScale
 70
     0
300
1'-0" = 1'-0"
140
12.0
141
12.0
290
     0
  0
TABLESTYLE
  5
194
102
{ACAD_REACTORS
330
193
102
}
102
{ACAD_XDICTIONARY
360
399
102
}
330
193
100
AcDbTableStyle
  3
Standard
 70
     0
 71
     0
 40
0.06
 41
0.06
280
     0
281
     0
  7
Standard
140
0.18
170
     2
 62
     0
 63
   257
283
     0
 90
        4
 91
        0
  1

274
    -2
284
     1
 64
     0
275
    -2
285
     1
 65
     0
276
    -2
286
     1
 66
     0
277
    -2
287
     1
 67
     0
278
    -2
288
     1
 68
     0
279
    -2
289
     1
 69
     0
  7
Standard
140
0.25
170
     5
 62
     0
 63
   257
283
     0
 90
        4
 91
        0
  1

274
    -2
284
     1
 64
     0
275
    -2
285
     1
 65
     0
276
    -2
286
     1
 66
     0
277
    -2
287
     1
 67
     0
278
    -2
288
     1
 68
     0
279
    -2
289
     1
 69
     0
  7
Standard
140
0.18
170
     5
 62
     0
 63
   257
283
     0
 90
        4
 91
        0
  1

274
    -2
284
     1
 64
     0
275
    -2
285
     1
 65
     0
276
    -2
286
     1
 66
     0
277
    -2
287
     1
 67
     0
278
    -2
288
     1
 68
     0
279
    -2
289
     1
 69
     0
  0
VISUALSTYLE
  5
130
102
{ACAD_REACTORS
330
12B
102
}
330
12B
100
AcDbVisualStyle
  2
2dWireframe
 70
     4
177
     3
291
     0
 70
    58
 90
        0
176
     1
 90
        2
176
     1
 90
        0
176
     1
 90
        0
176
     1
 40
-0.6
176
     1
 40
-30.0
176
     1
 62
     7
176
     1
 90
        1
176
     1
 90
        4
176
     1
 62
     7
176
     1
 62
   257
176
     1
 90
        1
176
     1
 90
        1
176
     1
 40
1.0
176
     1
 90
        0
176
     1
 62
   257
176
     1
 40
1.0
176
     1
 90
        1
176
     1
 90
        6
176
     1
 90
        2
176
     1
 62
     7
176
     1
 90
        5
176
     1
 90
        0
176
     1
 90
        0
176
     1
290
     0
176
     1
 90
        1
176
     1
 40
0.0
176
     1
 90
        0
176
     1
290
     1
176
     1
290
     1
176
     1
290
     0
176
     1
290
     0
176
     1
290
     0
176
     1
290
     0
176
     1
290
     0
176
     1
290
     0
176
     1
290
     0
176
     1
 90
       50
176
     1
 40
0.0
176
     1
 40
1.0
176
     1
 90
        0
176
     1
 62
    18
420
        0
176
     1
 90
       50
176
     1
 90
        3
176
     1
 62
     5
420
      255
176
     1
290
     0
176
     1
 90
       50
176
     1
 90
       50
176
     1
 90
       50
176
     1
290
     0
176
     1
 90
       50
176
     1
 62
   256
176
     0
 40
1.0
176
     0
 90
        2
176
     1
  1
strokes_ogs.tif
176
     1
290
     0
176
     1
 40
1.0
176
     1
 40
1.0
176
     1
  0
VISUALSTYLE
  5
132
102
{ACAD_REACTORS
330
12B
102
}
330
12B
100
AcDbVisualStyle
  2
3D Hidden
 70
     6
177
     3
291
     0
 70
    58
 90
        1
176
     1
 90
        2
176
     1
 90
        2
176
     1
 90
        0
176
     1
 40
-0.6
176
     1
 40
-30.0
176
     1
 62
     7
176
     1
 90
        2
176
     1
 90
        2
176
     1
 62
     7
176
     1
 62
   257
176
     1
 90
        2
176
     1
 90
        1
176
     1
 40
40.0
176
     1
 90
        0
176
     1
 62
   257
176
     1
 40
1.0
176
     1
 90
        1
176
     1
 90
        6
176
     1
 90
        2
176
     1
 62
     7
176
     1
 90
        3
176
     1
 90
        0
176
     1
 90
        0
176
     1
290
     0
176
     1
 90
        1
176
     1
 40
0.0
176
     1
 90
        0
176
     1
290
     0
176
     1
290
     1
176
     1
290
     1
176
     1
290
     0
176
     1
290
     0
176
     1
290
     0
176
     1
290
     0
176
     1
290
     0
176
     1
290
     0
176
     1
 90
       50
176
     1
 40
0.0
176
     1
 40
1.0
176
     1
 90
        0
176
     1
 62
    18
420
        0
176
     1
 90
       50
176
     1
 90
        3
176
     1
 62
     5
420
      255
176
     1
290
     0
176
     1
 90
       50
176
     1
 90
       50
176
     1
 90
       50
176
     1
290
     0
176
     1
 90
       50
176
     1
 62
   256
176
     0
 40
1.0
176
     0
 90
        2
176
     1
  1
strokes_ogs.tif
176
     1
290
     0
176
     1
 40
1.0
176
     1
 40
1.0
176
     1
  0
VISUALSTYLE
  5
131
102
{ACAD_REACTORS
330
12B
102
}
330
12B
100
AcDbVisualStyle
  2
3dWireframe
 70
     5
177
     3
291
     0
 70
    58
 90
        0
176
     1
 90
        2
176
     1
 90
        0
176
     1
 90
        0
176
     1
 40
-0.6
176
     1
 40
-30.0
176
     1
 62
     7
176
     1
 90
        1
176
     1
 90
        4
176
     1
 62
     7
176
     1
 62
   257
176
     1
 90
        1
176
     1
 90
        1
176
     1
 40
1.0
176
     1
 90
        0
176
     1
 62
   257
176
     1
 40
1.0
176
     1
 90
        1
176
     1
 90
        6
176
     1
 90
        2
176
     1
 62
     7
176
     1
 90
        5
176
     1
 90
        0
176
     1
 90
        0
176
     1
290
     0
176
     1
 90
        1
176
     1
 40
0.0
176
     1
 90
        0
176
     1
290
     0
176
     1
290
     1
176
     1
290
     1
176
     1
290
     0
176
     1
290
     0
176
     1
290
     0
176
     1
290
     0
176
     1
290
     0
176
     1
290
     0
176
     1
 90
       50
176
     1
 40
0.0
176
     1
 40
1.0
176
     1
 90
        0
176
     1
 62
    18
420
        0
176
     1
 90
       50
176
     1
 90
        3
176
     1
 62
     5
420
      255
176
     1
290
     0
176
     1
 90
       50
176
     1
 90
       50
176
     1
 90
       50
176
     1
290
     0
176
     1
 90
       50
176
     1
 62
   256
176
     0
 40
1.0
176
     0
 90
        2
176
     1
  1
strokes_ogs.tif
176
     1
290
     0
176
     1
 40
1.0
176
     1
 40
1.0
176
     1
  0
VISUALSTYLE
  5
133
102
{ACAD_REACTORS
330
12B
102
}
330
12B
100
AcDbVisualStyle
  2
Basic
 70
     7
177
     3
291
     1
 70
    58
 90
        1
176
     1
 90
        0
176
     1
 90
        1
176
     1
 90
        0
176
     1
 40
-0.6
176
     1
 40
-30.0
176
     1
 62
     7
176
     1
 90
        0
176
     1
 90
        4
176
     1
 62
     7
176
     1
 62
   257
176
     1
 90
        1
176
     1
 90
        1
176
     1
 40
1.0
176
     1
 90
        8
176
     1
 62
     7
176
     1
 40
1.0
176
     1
 90
        1
176
     1
 90
        6
176
     1
 90
        2
176
     1
 62
     7
176
     1
 90
        5
176
     1
 90
        0
176
     1
 90
        0
176
     1
290
     0
176
     1
 90
        1
176
     1
 40
0.0
176
     1
 90
        0
176
     1
290
     0
176
     1
290
     1
176
     1
290
     1
176
     1
290
     0
176
     1
290
     0
176
     1
290
     0
176
     1
290
     0
176
     1
290
     0
176
     1
290
     0
176
     1
 90
       50
176
     1
 40
0.0
176
     1
 40
1.0
176
     1
 90
        0
176
     1
 62
    18
420
        0
176
     1
 90
       50
176
     1
 90
        3
176
     1
 62
     5
420
      255
176
     1
290
     0
176
     1
 90
       50
176
     1
 90
       50
176
     1
 90
       50
176
     1
290
     0
176
     1
 90
       50
176
     1
 62
   256
176
     0
 40
1.0
176
     0
 90
        2
176
     1
  1
strokes_ogs.tif
176
     1
290
     0
176
     1
 40
1.0
176
     1
 40
1.0
176
     1
  0
VISUALSTYLE
  5
137
102
{ACAD_REACTORS
330
12B
102
}
330
12B
100
AcDbVisualStyle
  2
Brighten
 70
    12
177
     3
291
     1
 70
    58
 90
        2
176
     1
 90
        2
176
     1
 90
        0
176
     1
 90
        0
176
     1
 40
-0.6
176
     1
 40
-30.0
176
     1
 62
     7
176
     1
 90
        1
176
     1
 90
        4
176
     1
 62
     7
176
     1
 62
   257
176
     1
 90
        1
176
     1
 90
        1
176
     1
 40
1.0
176
     1
 90
        8
176
     1
 62
     7
176
     1
 40
1.0
176
     1
 90
        1
176
     1
 90
        6
176
     1
 90
        2
176
     1
 62
     7
176
     1
 90
        5
176
     1
 90
        0
176
     1
 90
        0
176
     1
290
     0
176
     1
 90
        1
176
     1
 40
50.0
176
     1
 90
        0
176
     1
290
     0
176
     1
290
     1
176
     1
290
     1
176
     1
290
     0
176
     1
290
     0
176
     1
290
     0
176
     1
290
     0
176
     1
290
     0
176
     1
290
     0
176
     1
 90
       50
176
     1
 40
0.0
176
     1
 40
1.0
176
     1
 90
        0
176
     1
 62
    18
420
        0
176
     1
 90
       50
176
     1
 90
        3
176
     1
 62
     5
420
      255
176
     1
290
     0
176
     1
 90
       50
176
     1
 90
       50
176
     1
 90
       50
176
     1
290
     0
176
     1
 90
       50
176
     1
 62
   256
176
     0
 40
1.0
176
     0
 90
        2
176
     1
  1
strokes_ogs.tif
176
     1
290
     0
176
     1
 40
1.0
176
     1
 40
1.0
176
     1
  0
VISUALSTYLE
  5
13B
102
{ACAD_REACTORS
330
12B
102
}
330
12B
100
AcDbVisualStyle
  2
ColorChange
 70
    16
177
     3
291
     1
 70
    58
 90
        2
176
     1
 90
        2
176
     1
 90
        3
176
     1
 90
        0
176
     1
 40
-0.6
176
     1
 40
-30.0
176
     1
 62
     8
176
     1
 90
        1
176
     1
 90
        4
176
     1
 62
     7
176
     1
 62
   257
176
     1
 90
        1
176
     1
 90
        1
176
     1
 40
1.0
176
     1
 90
        8
176
     1
 62
     8
176
     1
 40
1.0
176
     1
 90
        1
176
     1
 90
        6
176
     1
 90
        2
176
     1
 62
     7
176
     1
 90
        5
176
     1
 90
        0
176
     1
 90
        0
176
     1
290
     0
176
     1
 90
        1
176
     1
 40
0.0
176
     1
 90
        0
176
     1
290
     0
176
     1
290
     1
176
     1
290
     1
176
     1
290
     0
176
     1
290
     0
176
     1
290
     0
176
     1
290
     0
176
     1
290
     0
176
     1
290
     0
176
     1
 90
       50
176
     1
 40
0.0
176
     1
 40
1.0
176
     1
 90
        0
176
     1
 62
    18
420
        0
176
     1
 90
       50
176
     1
 90
        3
176
     1
 62
     5
420
      255
176
     1
290
     0
176
     1
 90
       50
176
     1
 90
       50
176
     1
 90
       50
176
     1
290
     0
176
     1
 90
       50
176
     1
 62
   256
176
     0
 40
1.0
176
     0
 90
        2
176
     1
  1
strokes_ogs.tif
176
     1
290
     0
176
     1
 40
1.0
176
     1
 40
1.0
176
     1
  0
VISUALSTYLE
  5
135
102
{ACAD_REACTORS
330
12B
102
}
330
12B
100
AcDbVisualStyle
  2
Conceptual
 70
     9
177
     3
291
     0
 70
    58
 90
        3
176
     1
 90
        2
176
     1
 90
        0
176
     1
 90
        0
176
     1
 40
-0.6
176
     1
 40
-30.0
176
     1
 62
     7
176
     1
 90
        2
176
     1
 90
        2
176
     1
 62
     7
176
     1
 62
   257
176
     1
 90
        1
176
     1
 90
        1
176
     1
 40
40.0
176
     1
 90
        8
176
     1
 62
     7
176
     1
 40
1.0
176
     1
 90
        1
176
     1
 90
        6
176
     1
 90
        2
176
     1
 62
     7
176
     1
 90
        3
176
     1
 90
        0
176
     1
 90
        0
176
     1
290
     0
176
     1
 90
        1
176
     1
 40
0.0
176
     1
 90
        0
176
     1
290
     0
176
     1
290
     1
176
     1
290
     1
176
     1
290
     0
176
     1
290
     0
176
     1
290
     0
176
     1
290
     0
176
     1
290
     0
176
     1
290
     0
176
     1
 90
       50
176
     1
 40
0.0
176
     1
 40
1.0
176
     1
 90
        0
176
     1
 62
    18
420
        0
176
     1
 90
       50
176
     1
 90
        3
176
     1
 62
     5
420
      255
176
     1
290
     0
176
     1
 90
       50
176
     1
 90
       50
176
     1
 90
       50
176
     1
290
     0
176
     1
 90
       50
176
     1
 62
   256
176
     0
 40
1.0
176
     0
 90
        2
176
     1
  1
strokes_ogs.tif
176
     1
290
     0
176
     1
 40
1.0
176
     1
 40
1.0
176
     1
  0
VISUALSTYLE
  5
136
102
{ACAD_REACTORS
330
12B
102
}
330
12B
100
AcDbVisualStyle
  2
Dim
 70
    11
177
     3
291
     1
 70
    58
 90
        2
176
     1
 90
        2
176
     1
 90
        0
176
     1
 90
        0
176
     1
 40
-0.6
176
     1
 40
-30.0
176
     1
 62
     7
176
     1
 90
        1
176
     1
 90
        4
176
     1
 62
     7
176
     1
 62
   257
176
     1
 90
        1
176
     1
 90
        1
176
     1
 40
1.0
176
     1
 90
        8
176
     1
 62
     7
176
     1
 40
1.0
176
     1
 90
        1
176
     1
 90
        6
176
     1
 90
        2
176
     1
 62
     7
176
     1
 90
        5
176
     1
 90
        0
176
     1
 90
        0
176
     1
290
     0
176
     1
 90
        1
176
     1
 40
-50.0
176
     1
 90
        0
176
     1
290
     0
176
     1
290
     1
176
     1
290
     1
176
     1
290
     0
176
     1
290
     0
176
     1
290
     0
176
     1
290
     0
176
     1
290
     0
176
     1
290
     0
176
     1
 90
       50
176
     1
 40
0.0
176
     1
 40
1.0
176
     1
 90
        0
176
     1
 62
    18
420
        0
176
     1
 90
       50
176
     1
 90
        3
176
     1
 62
     5
420
      255
176
     1
290
     0
176
     1
 90
       50
176
     1
 90
       50
176
     1
 90
       50
176
     1
290
     0
176
     1
 90
       50
176
     1
 62
   256
176
     0
 40
1.0
176
     0
 90
        2
176
     1
  1
strokes_ogs.tif
176
     1
290
     0
176
     1
 40
1.0
176
     1
 40
1.0
176
     1
  0
VISUALSTYLE
  5
18D
102
{ACAD_REACTORS
330
12B
102
}
330
12B
100
AcDbVisualStyle
  2
EdgeColorOff
 70
    22
177
     3
291
     1
 70
    58
 90
        2
176
     0
 90
        2
176
     0
 90
        0
176
     0
 90
        0
176
     0
 40
0.6
176
     0
 40
30.0
176
     0
 62
     7
420
 16777215
176
     0
 90
        1
176
     0
 90
        4
176
     0
 62
     7
176
     0
 62
   257
176
     0
 90
        1
176
     0
 90
        1
176
     0
 40
1.0
176
     0
 90
        8
176
     2
 62
     7
176
     0
 40
1.0
176
     0
 90
        1
176
     0
 90
        6
176
     0
 90
        2
176
     0
 62
     7
176
     0
 90
        5
176
     0
 90
        0
176
     0
 90
        0
176
     0
290
     0
176
     0
 90
        1
176
     0
 40
0.0
176
     0
 90
        0
176
     0
290
     0
176
     0
290
     1
176
     0
290
     1
176
     0
290
     0
176
     0
290
     0
176
     0
290
     0
176
     0
290
     0
176
     0
290
     0
176
     0
290
     0
176
     0
 90
       50
176
     0
 40
0.0
176
     0
 40
1.0
176
     0
 90
        0
176
     0
 62
    18
420
        0
176
     0
 90
       50
176
     0
 90
        3
176
     0
 62
     5
420
      255
176
     0
290
     0
176
     0
 90
       50
176
     0
 90
       50
176
     0
 90
       50
176
     0
290
     0
176
     0
 90
       50
176
     0
 62
   256
176
     0
 40
1.0
176
     0
 90
        2
176
     0
  1
strokes_ogs.tif
176
     0
290
     0
176
     0
 40
1.0
176
     0
 40
1.0
176
     0
  0
VISUALSTYLE
  5
13A
102
{ACAD_REACTORS
330
12B
102
}
330
12B
100
AcDbVisualStyle
  2
Facepattern
 70
    15
177
     3
291
     1
 70
    58
 90
        2
176
     1
 90
        2
176
     1
 90
        0
176
     1
 90
        0
176
     1
 40
-0.6
176
     1
 40
-30.0
176
     1
 62
     7
176
     1
 90
        1
176
     1
 90
        4
176
     1
 62
     7
176
     1
 62
   257
176
     1
 90
        1
176
     1
 90
        1
176
     1
 40
1.0
176
     1
 90
        8
176
     1
 62
     7
176
     1
 40
1.0
176
     1
 90
        1
176
     1
 90
        6
176
     1
 90
        2
176
     1
 62
     7
176
     1
 90
        5
176
     1
 90
        0
176
     1
 90
        0
176
     1
290
     0
176
     1
 90
        1
176
     1
 40
0.0
176
     1
 90
        0
176
     1
290
     0
176
     1
290
     1
176
     1
290
     1
176
     1
290
     0
176
     1
290
     0
176
     1
290
     0
176
     1
290
     0
176
     1
290
     0
176
     1
290
     0
176
     1
 90
       50
176
     1
 40
0.0
176
     1
 40
1.0
176
     1
 90
        0
176
     1
 62
    18
420
        0
176
     1
 90
       50
176
     1
 90
        3
176
     1
 62
     5
420
      255
176
     1
290
     0
176
     1
 90
       50
176
     1
 90
       50
176
     1
 90
       50
176
     1
290
     0
176
     1
 90
       50
176
     1
 62
   256
176
     0
 40
1.0
176
     0
 90
        2
176
     1
  1
strokes_ogs.tif
176
     1
290
     0
176
     1
 40
1.0
176
     1
 40
1.0
176
     1
  0
VISUALSTYLE
  5
12C
102
{ACAD_REACTORS
330
12B
102
}
330
12B
100
AcDbVisualStyle
  2
Flat
 70
     0
177
     3
291
     1
 70
    58
 90
        2
176
     1
 90
        1
176
     1
 90
        1
176
     1
 90
        2
176
     1
 40
-0.6
176
     1
 40
30.0
176
     1
 62
     7
176
     1
 90
        0
176
     1
 90
        4
176
     1
 62
     7
176
     1
 62
   257
176
     1
 90
        1
176
     1
 90
        1
176
     1
 40
1.0
176
     1
 90
        8
176
     1
 62
     7
176
     1
 40
1.0
176
     1
 90
        1
176
     1
 90
        6
176
     1
 90
        2
176
     1
 62
     7
176
     1
 90
        5
176
     1
 90
        0
176
     1
 90
        0
176
     1
290
     0
176
     1
 90
       13
176
     1
 40
0.0
176
     1
 90
        0
176
     1
290
     0
176
     1
290
     1
176
     1
290
     1
176
     1
290
     0
176
     1
290
     0
176
     1
290
     0
176
     1
290
     0
176
     1
290
     0
176
     1
290
     0
176
     1
 90
       50
176
     1
 40
0.0
176
     1
 40
1.0
176
     1
 90
        0
176
     1
 62
    18
420
        0
176
     1
 90
       50
176
     1
 90
        3
176
     1
 62
     5
420
      255
176
     1
290
     0
176
     1
 90
       50
176
     1
 90
       50
176
     1
 90
       50
176
     1
290
     0
176
     1
 90
       50
176
     1
 62
   256
176
     0
 40
1.0
176
     0
 90
        2
176
     1
  1
strokes_ogs.tif
176
     1
290
     0
176
     1
 40
1.0
176
     1
 40
1.0
176
     1
  0
VISUALSTYLE
  5
12D
102
{ACAD_REACTORS
330
12B
102
}
330
12B
100
AcDbVisualStyle
  2
FlatWithEdges
 70
     1
177
     3
291
     1
 70
    58
 90
        2
176
     1
 90
        1
176
     1
 90
        1
176
     1
 90
        2
176
     1
 40
-0.6
176
     1
 40
30.0
176
     1
 62
     7
176
     1
 90
        1
176
     1
 90
        4
176
     1
 62
     7
176
     1
 62
   257
176
     1
 90
        1
176
     1
 90
        1
176
     1
 40
1.0
176
     1
 90
        0
176
     1
 62
   257
176
     1
 40
1.0
176
     1
 90
        1
176
     1
 90
        6
176
     1
 90
        2
176
     1
 62
     7
176
     1
 90
        5
176
     1
 90
        0
176
     1
 90
        0
176
     1
290
     0
176
     1
 90
       13
176
     1
 40
0.0
176
     1
 90
        0
176
     1
290
     0
176
     1
290
     1
176
     1
290
     1
176
     1
290
     0
176
     1
290
     0
176
     1
290
     0
176
     1
290
     0
176
     1
290
     0
176
     1
290
     0
176
     1
 90
       50
176
     1
 40
0.0
176
     1
 40
1.0
176
     1
 90
        0
176
     1
 62
    18
420
        0
176
     1
 90
       50
176
     1
 90
        3
176
     1
 62
     5
420
      255
176
     1
290
     0
176
     1
 90
       50
176
     1
 90
       50
176
     1
 90
       50
176
     1
290
     0
176
     1
 90
       50
176
     1
 62
   256
176
     0
 40
1.0
176
     0
 90
        2
176
     1
  1
strokes_ogs.tif
176
     1
290
     0
176
     1
 40
1.0
176
     1
 40
1.0
176
     1
  0
VISUALSTYLE
  5
12E
102
{ACAD_REACTORS
330
12B
102
}
330
12B
100
AcDbVisualStyle
  2
Gouraud
 70
     2
177
     3
291
     1
 70
    58
 90
        2
176
     1
 90
        2
176
     1
 90
        1
176
     1
 90
        2
176
     1
 40
-0.6
176
     1
 40
30.0
176
     1
 62
     7
176
     1
 90
        0
176
     1
 90
        4
176
     1
 62
     7
176
     1
 62
   257
176
     1
 90
        1
176
     1
 90
        1
176
     1
 40
1.0
176
     1
 90
        0
176
     1
 62
     7
176
     1
 40
1.0
176
     1
 90
        1
176
     1
 90
        6
176
     1
 90
        2
176
     1
 62
     7
176
     1
 90
        5
176
     1
 90
        0
176
     1
 90
        0
176
     1
290
     0
176
     1
 90
       13
176
     1
 40
0.0
176
     1
 90
        0
176
     1
290
     0
176
     1
290
     1
176
     1
290
     1
176
     1
290
     0
176
     1
290
     0
176
     1
290
     0
176
     1
290
     0
176
     1
290
     0
176
     1
290
     0
176
     1
 90
       50
176
     1
 40
0.0
176
     1
 40
1.0
176
     1
 90
        0
176
     1
 62
    18
420
        0
176
     1
 90
       50
176
     1
 90
        3
176
     1
 62
     5
420
      255
176
     1
290
     0
176
     1
 90
       50
176
     1
 90
       50
176
     1
 90
       50
176
     1
290
     0
176
     1
 90
       50
176
     1
 62
   256
176
     0
 40
1.0
176
     0
 90
        2
176
     1
  1
strokes_ogs.tif
176
     1
290
     0
176
     1
 40
1.0
176
     1
 40
1.0
176
     1
  0
VISUALSTYLE
  5
12F
102
{ACAD_REACTORS
330
12B
102
}
330
12B
100
AcDbVisualStyle
  2
GouraudWithEdges
 70
     3
177
     3
291
     1
 70
    58
 90
        2
176
     1
 90
        2
176
     1
 90
        1
176
     1
 90
        2
176
     1
 40
-0.6
176
     1
 40
30.0
176
     1
 62
     7
176
     1
 90
        1
176
     1
 90
        4
176
     1
 62
     7
176
     1
 62
   257
176
     1
 90
        1
176
     1
 90
        1
176
     1
 40
1.0
176
     1
 90
        0
176
     1
 62
   257
176
     1
 40
1.0
176
     1
 90
        1
176
     1
 90
        6
176
     1
 90
        2
176
     1
 62
     7
176
     1
 90
        5
176
     1
 90
        0
176
     1
 90
        0
176
     1
290
     0
176
     1
 90
       13
176
     1
 40
0.0
176
     1
 90
        0
176
     1
290
     0
176
     1
290
     1
176
     1
290
     1
176
     1
290
     0
176
     1
290
     0
176
     1
290
     0
176
     1
290
     0
176
     1
290
     0
176
     1
290
     0
176
     1
 90
       50
176
     1
 40
0.0
176
     1
 40
1.0
176
     1
 90
        0
176
     1
 62
    18
420
        0
176
     1
 90
       50
176
     1
 90
        3
176
     1
 62
     5
420
      255
176
     1
290
     0
176
     1
 90
       50
176
     1
 90
       50
176
     1
 90
       50
176
     1
290
     0
176
     1
 90
       50
176
     1
 62
   256
176
     0
 40
1.0
176
     0
 90
        2
176
     1
  1
strokes_ogs.tif
176
     1
290
     0
176
     1
 40
1.0
176
     1
 40
1.0
176
     1
  0
VISUALSTYLE
  5
18A
102
{ACAD_REACTORS
330
12B
102
}
330
12B
100
AcDbVisualStyle
  2
Hidden
 70
     6
177
     3
291
     0
 70
    58
 90
        1
176
     1
 90
        2
176
     1
 90
        2
176
     1
 90
        0
176
     1
 40
0.6
176
     1
 40
30.0
176
     1
 62
     7
420
 16777215
176
     1
 90
        2
176
     1
 90
        2
176
     1
 62
     7
176
     1
 62
   257
176
     1
 90
        2
176
     1
 90
        1
176
     1
 40
40.0
176
     1
 90
        0
176
     1
 62
   257
176
     1
 40
1.0
176
     1
 90
        1
176
     1
 90
        6
176
     1
 90
        2
176
     1
 62
     7
176
     1
 90
        3
176
     1
 90
        0
176
     1
 90
        0
176
     1
290
     0
176
     1
 90
        1
176
     1
 40
0.0
176
     1
 90
        0
176
     1
290
     0
176
     1
290
     1
176
     1
290
     1
176
     1
290
     0
176
     1
290
     0
176
     1
290
     0
176
     1
290
     0
176
     1
290
     0
176
     1
290
     0
176
     1
 90
       50
176
     1
 40
0.0
176
     1
 40
1.0
176
     1
 90
        0
176
     1
 62
    18
420
        0
176
     1
 90
       50
176
     1
 90
        3
176
     1
 62
     5
420
      255
176
     1
290
     0
176
     1
 90
       50
176
     1
 90
       50
176
     1
 90
       50
176
     1
290
     0
176
     1
 90
       50
176
     1
 62
   256
176
     0
 40
1.0
176
     0
 90
        2
176
     1
  1
strokes_ogs.tif
176
     1
290
     0
176
     1
 40
1.0
176
     1
 40
1.0
176
     1
  0
VISUALSTYLE
  5
18B
102
{ACAD_REACTORS
330
12B
102
}
330
12B
100
AcDbVisualStyle
  2
JitterOff
 70
    20
177
     3
291
     1
 70
    58
 90
        2
176
     0
 90
        2
176
     0
 90
        0
176
     0
 90
        0
176
     0
 40
0.6
176
     0
 40
30.0
176
     0
 62
     7
420
 16777215
176
     0
 90
        1
176
     0
 90
        4
176
     0
 62
     7
176
     0
 62
   257
176
     0
 90
        1
176
     0
 90
        1
176
     0
 40
1.0
176
     0
 90
       10
176
     2
 62
     7
176
     0
 40
1.0
176
     0
 90
        1
176
     0
 90
        6
176
     0
 90
        2
176
     0
 62
     7
176
     0
 90
        5
176
     0
 90
        0
176
     0
 90
        0
176
     0
290
     0
176
     0
 90
        1
176
     0
 40
0.0
176
     0
 90
        0
176
     0
290
     0
176
     0
290
     1
176
     0
290
     1
176
     0
290
     0
176
     0
290
     0
176
     0
290
     0
176
     0
290
     0
176
     0
290
     0
176
     0
290
     0
176
     0
 90
       50
176
     0
 40
0.0
176
     0
 40
1.0
176
     0
 90
        0
176
     0
 62
    18
420
        0
176
     0
 90
       50
176
     0
 90
        3
176
     0
 62
     5
420
      255
176
     0
290
     0
176
     0
 90
       50
176
     0
 90
       50
176
     0
 90
       50
176
     0
290
     0
176
     0
 90
       50
176
     0
 62
   256
176
     0
 40
1.0
176
     0
 90
        2
176
     0
  1
strokes_ogs.tif
176
     0
290
     0
176
     0
 40
1.0
176
     0
 40
1.0
176
     0
  0
VISUALSTYLE
  5
139
102
{ACAD_REACTORS
330
12B
102
}
330
12B
100
AcDbVisualStyle
  2
Linepattern
 70
    14
177
     3
291
     1
 70
    58
 90
        2
176
     1
 90
        2
176
     1
 90
        0
176
     1
 90
        0
176
     1
 40
-0.6
176
     1
 40
-30.0
176
     1
 62
     7
176
     1
 90
        1
176
     1
 90
        4
176
     1
 62
     7
176
     1
 62
   257
176
     1
 90
        7
176
     1
 90
        7
176
     1
 40
1.0
176
     1
 90
        8
176
     1
 62
     7
176
     1
 40
1.0
176
     1
 90
        1
176
     1
 90
        6
176
     1
 90
        2
176
     1
 62
     7
176
     1
 90
        5
176
     1
 90
        0
176
     1
 90
        0
176
     1
290
     0
176
     1
 90
        1
176
     1
 40
0.0
176
     1
 90
        0
176
     1
290
     0
176
     1
290
     1
176
     1
290
     1
176
     1
290
     0
176
     1
290
     0
176
     1
290
     0
176
     1
290
     0
176
     1
290
     0
176
     1
290
     0
176
     1
 90
       50
176
     1
 40
0.0
176
     1
 40
1.0
176
     1
 90
        0
176
     1
 62
    18
420
        0
176
     1
 90
       50
176
     1
 90
        3
176
     1
 62
     5
420
      255
176
     1
290
     0
176
     1
 90
       50
176
     1
 90
       50
176
     1
 90
       50
176
     1
290
     0
176
     1
 90
       50
176
     1
 62
   256
176
     0
 40
1.0
176
     0
 90
        2
176
     1
  1
strokes_ogs.tif
176
     1
290
     0
176
     1
 40
1.0
176
     1
 40
1.0
176
     1
  0
VISUALSTYLE
  5
18C
102
{ACAD_REACTORS
330
12B
102
}
330
12B
100
AcDbVisualStyle
  2
OverhangOff
 70
    21
177
     3
291
     1
 70
    58
 90
        2
176
     0
 90
        2
176
     0
 90
        0
176
     0
 90
        0
176
     0
 40
0.6
176
     0
 40
30.0
176
     0
 62
     7
420
 16777215
176
     0
 90
        1
176
     0
 90
        4
176
     0
 62
     7
176
     0
 62
   257
176
     0
 90
        1
176
     0
 90
        1
176
     0
 40
1.0
176
     0
 90
        9
176
     2
 62
     7
176
     0
 40
1.0
176
     0
 90
        1
176
     0
 90
        6
176
     0
 90
        2
176
     0
 62
     7
176
     0
 90
        5
176
     0
 90
        0
176
     0
 90
        0
176
     0
290
     0
176
     0
 90
        1
176
     0
 40
0.0
176
     0
 90
        0
176
     0
290
     0
176
     0
290
     1
176
     0
290
     1
176
     0
290
     0
176
     0
290
     0
176
     0
290
     0
176
     0
290
     0
176
     0
290
     0
176
     0
290
     0
176
     0
 90
       50
176
     0
 40
0.0
176
     0
 40
1.0
176
     0
 90
        0
176
     0
 62
    18
420
        0
176
     0
 90
       50
176
     0
 90
        3
176
     0
 62
     5
420
      255
176
     0
290
     0
176
     0
 90
       50
176
     0
 90
       50
176
     0
 90
       50
176
     0
290
     0
176
     0
 90
       50
176
     0
 62
   256
176
     0
 40
1.0
176
     0
 90
        2
176
     0
  1
strokes_ogs.tif
176
     0
290
     0
176
     0
 40
1.0
176
     0
 40
1.0
176
     0
  0
VISUALSTYLE
  5
134
102
{ACAD_REACTORS
330
12B
102
}
330
12B
100
AcDbVisualStyle
  2
Realistic
 70
     8
177
     3
291
     0
 70
    58
 90
        2
176
     1
 90
        2
176
     1
 90
        0
176
     1
 90
        0
176
     1
 40
-0.6
176
     1
 40
-30.0
176
     1
 62
     7
176
     1
 90
        1
176
     1
 90
        0
176
     1
 62
     7
176
     1
 62
   257
176
     1
 90
        1
176
     1
 90
        1
176
     1
 40
1.0
176
     1
 90
        8
176
     1
 62
     8
176
     1
 40
1.0
176
     1
 90
        1
176
     1
 90
        6
176
     1
 90
        2
176
     1
 62
     7
176
     1
 90
        5
176
     1
 90
        0
176
     1
 90
        0
176
     1
290
     0
176
     1
 90
       13
176
     1
 40
0.0
176
     1
 90
        0
176
     1
290
     0
176
     1
290
     1
176
     1
290
     1
176
     1
290
     0
176
     1
290
     0
176
     1
290
     0
176
     1
290
     0
176
     1
290
     0
176
     1
290
     0
176
     1
 90
       50
176
     1
 40
0.0
176
     1
 40
1.0
176
     1
 90
        0
176
     1
 62
    18
420
        0
176
     1
 90
       50
176
     1
 90
        3
176
     1
 62
     5
420
      255
176
     1
290
     0
176
     1
 90
       50
176
     1
 90
       50
176
     1
 90
       50
176
     1
290
     0
176
     1
 90
       50
176
     1
 62
   256
176
     0
 40
1.0
176
     0
 90
        2
176
     1
  1
strokes_ogs.tif
176
     1
290
     0
176
     1
 40
1.0
176
     1
 40
1.0
176
     1
  0
VISUALSTYLE
  5
192
102
{ACAD_REACTORS
330
12B
102
}
330
12B
100
AcDbVisualStyle
  2
Shaded
 70
    27
177
     3
291
     0
 70
    58
 90
        2
176
     1
 90
        2
176
     1
 90
        1
176
     1
 90
        2
176
     1
 40
0.6
176
     1
 40
30.0
176
     1
 62
     7
420
 16777215
176
     1
 90
        0
176
     1
 90
        4
176
     1
 62
     7
176
     1
 62
   257
176
     1
 90
        1
176
     1
 90
        1
176
     1
 40
1.0
176
     1
 90
        8
176
     1
 62
   257
176
     1
 40
1.0
176
     1
 90
        1
176
     1
 90
        6
176
     1
 90
        2
176
     1
 62
     8
420
  7895160
176
     1
 90
        3
176
     1
 90
        0
176
     1
 90
        0
176
     1
290
     0
176
     1
 90
        5
176
     1
 40
0.0
176
     1
 90
        0
176
     1
290
     0
176
     1
290
     1
176
     1
290
     1
176
     1
290
     0
176
     1
290
     0
176
     1
290
     0
176
     1
290
     0
176
     1
290
     0
176
     1
290
     0
176
     1
 90
       50
176
     1
 40
0.0
176
     1
 40
1.0
176
     1
 90
        0
176
     1
 62
    18
420
        0
176
     1
 90
       50
176
     1
 90
        3
176
     1
 62
     5
420
      255
176
     1
290
     0
176
     1
 90
       50
176
     1
 90
       50
176
     1
 90
       50
176
     1
290
     0
176
     1
 90
       50
176
     1
 62
   256
176
     0
 40
1.0
176
     0
 90
        2
176
     1
  1
strokes_ogs.tif
176
     1
290
     0
176
     1
 40
1.0
176
     1
 40
1.0
176
     1
  0
VISUALSTYLE
  5
191
102
{ACAD_REACTORS
330
12B
102
}
330
12B
100
AcDbVisualStyle
  2
Shaded with edges
 70
    26
177
     3
291
     0
 70
    58
 90
        2
176
     1
 90
        2
176
     1
 90
        1
176
     1
 90
        2
176
     1
 40
0.6
176
     1
 40
30.0
176
     1
 62
     7
420
 16777215
176
     1
 90
        1
176
     1
 90
       10
176
     1
 62
     7
176
     1
 62
   257
176
     1
 90
        2
176
     1
 90
        1
176
     1
 40
1.0
176
     1
 90
        8
176
     1
 62
   257
176
     1
 40
1.0
176
     1
 90
        1
176
     1
 90
        6
176
     1
 90
        2
176
     1
 62
     7
176
     1
 90
        3
176
     1
 90
        0
176
     1
 90
        0
176
     1
290
     0
176
     1
 90
        5
176
     1
 40
0.0
176
     1
 90
        0
176
     1
290
     0
176
     1
290
     1
176
     1
290
     1
176
     1
290
     0
176
     1
290
     0
176
     1
290
     0
176
     1
290
     0
176
     1
290
     0
176
     1
290
     0
176
     1
 90
       50
176
     1
 40
0.0
176
     1
 40
1.0
176
     1
 90
        0
176
     1
 62
    18
420
        0
176
     1
 90
       50
176
     1
 90
        3
176
     1
 62
     5
420
      255
176
     1
290
     0
176
     1
 90
       50
176
     1
 90
       50
176
     1
 90
       50
176
     1
290
     0
176
     1
 90
       50
176
     1
 62
   256
176
     0
 40
1.0
176
     0
 90
        2
176
     1
  1
strokes_ogs.tif
176
     1
290
     0
176
     1
 40
1.0
176
     1
 40
1.0
176
     1
  0
VISUALSTYLE
  5
18E
102
{ACAD_REACTORS
330
12B
102
}
330
12B
100
AcDbVisualStyle
  2
Shades of Gray
 70
    23
177
     3
291
     0
 70
    58
 90
        2
176
     1
 90
        2
176
     1
 90
        3
176
     1
 90
        0
176
     1
 40
0.6
176
     1
 40
30.0
176
     1
 62
     7
420
 16777215
176
     1
 90
        2
176
     1
 90
        2
176
     1
 62
     7
176
     1
 62
     7
176
     1
 90
        1
176
     1
 90
        1
176
     1
 40
40.0
176
     1
 90
        8
176
     1
 62
     7
176
     1
 40
1.0
176
     1
 90
        1
176
     1
 90
        6
176
     1
 90
        2
176
     1
 62
     7
176
     1
 90
        3
176
     1
 90
        0
176
     1
 90
        0
176
     1
290
     0
176
     1
 90
        1
176
     1
 40
0.0
176
     1
 90
        0
176
     1
290
     0
176
     1
290
     1
176
     1
290
     1
176
     1
290
     0
176
     1
290
     0
176
     1
290
     0
176
     1
290
     0
176
     1
290
     0
176
     1
290
     0
176
     1
 90
       50
176
     1
 40
0.0
176
     1
 40
1.0
176
     1
 90
        0
176
     1
 62
    18
420
        0
176
     1
 90
       50
176
     1
 90
        3
176
     1
 62
     5
420
      255
176
     1
290
     0
176
     1
 90
       50
176
     1
 90
       50
176
     1
 90
       50
176
     1
290
     0
176
     1
 90
       50
176
     1
 62
   256
176
     0
 40
1.0
176
     0
 90
        2
176
     1
  1
strokes_ogs.tif
176
     1
290
     0
176
     1
 40
1.0
176
     1
 40
1.0
176
     1
  0
VISUALSTYLE
  5
18F
102
{ACAD_REACTORS
330
12B
102
}
330
12B
100
AcDbVisualStyle
  2
Sketchy
 70
    24
177
     3
291
     0
 70
    58
 90
        1
176
     1
 90
        2
176
     1
 90
        2
176
     1
 90
        0
176
     1
 40
0.6
176
     1
 40
30.0
176
     1
 62
     7
420
 16777215
176
     1
 90
        2
176
     1
 90
        2
176
     1
 62
     7
176
     1
 62
     7
176
     1
 90
        1
176
     1
 90
        1
176
     1
 40
40.0
176
     1
 90
       11
176
     1
 62
     7
176
     1
 40
1.0
176
     1
 90
        1
176
     1
 90
        6
176
     1
 90
        2
176
     1
 62
     7
176
     1
 90
        6
176
     1
 90
        0
176
     1
 90
        0
176
     1
290
     0
176
     1
 90
        1
176
     1
 40
0.0
176
     1
 90
        0
176
     1
290
     0
176
     1
290
     1
176
     1
290
     1
176
     1
290
     0
176
     1
290
     0
176
     1
290
     0
176
     1
290
     0
176
     1
290
     0
176
     1
290
     0
176
     1
 90
       50
176
     1
 40
0.0
176
     1
 40
1.0
176
     1
 90
        0
176
     1
 62
    18
420
        0
176
     1
 90
       50
176
     1
 90
        3
176
     1
 62
     5
420
      255
176
     1
290
     0
176
     1
 90
       50
176
     1
 90
       50
176
     1
 90
       50
176
     1
290
     0
176
     1
 90
       50
176
     1
 62
   256
176
     0
 40
1.0
176
     0
 90
        2
176
     1
  1
strokes_ogs.tif
176
     1
290
     0
176
     1
 40
1.0
176
     1
 40
1.0
176
     1
  0
VISUALSTYLE
  5
138
102
{ACAD_REACTORS
330
12B
102
}
330
12B
100
AcDbVisualStyle
  2
Thicken
 70
    13
177
     3
291
     1
 70
    58
 90
        2
176
     1
 90
        2
176
     1
 90
        0
176
     1
 90
        0
176
     1
 40
-0.6
176
     1
 40
-30.0
176
     1
 62
     7
176
     1
 90
        1
176
     1
 90
        4
176
     1
 62
     7
176
     1
 62
   257
176
     1
 90
        1
176
     1
 90
        1
176
     1
 40
1.0
176
     1
 90
       12
176
     1
 62
     7
176
     1
 40
1.0
176
     1
 90
        1
176
     1
 90
        6
176
     1
 90
        2
176
     1
 62
     7
176
     1
 90
        5
176
     1
 90
        0
176
     1
 90
        0
176
     1
290
     0
176
     1
 90
        1
176
     1
 40
0.0
176
     1
 90
        0
176
     1
290
     0
176
     1
290
     1
176
     1
290
     1
176
     1
290
     0
176
     1
290
     0
176
     1
290
     0
176
     1
290
     0
176
     1
290
     0
176
     1
290
     0
176
     1
 90
       50
176
     1
 40
0.0
176
     1
 40
1.0
176
     1
 90
        0
176
     1
 62
    18
420
        0
176
     1
 90
       50
176
     1
 90
        3
176
     1
 62
     5
420
      255
176
     1
290
     0
176
     1
 90
       50
176
     1
 90
       50
176
     1
 90
       50
176
     1
290
     0
176
     1
 90
       50
176
     1
 62
   256
176
     0
 40
1.0
176
     0
 90
        2
176
     1
  1
strokes_ogs.tif
176
     1
290
     0
176
     1
 40
1.0
176
     1
 40
1.0
176
     1
  0
VISUALSTYLE
  5
189
102
{ACAD_REACTORS
330
12B
102
}
330
12B
100
AcDbVisualStyle
  2
Wireframe
 70
     5
177
     3
291
     0
 70
    58
 90
        0
176
     1
 90
        2
176
     1
 90
        0
176
     1
 90
        0
176
     1
 40
0.6
176
     1
 40
30.0
176
     1
 62
     7
420
 16777215
176
     1
 90
        1
176
     1
 90
        4
176
     1
 62
     7
176
     1
 62
   257
176
     1
 90
        1
176
     1
 90
        1
176
     1
 40
1.0
176
     1
 90
        0
176
     1
 62
   257
176
     1
 40
1.0
176
     1
 90
        1
176
     1
 90
        6
176
     1
 90
        2
176
     1
 62
     7
176
     1
 90
        3
176
     1
 90
        0
176
     1
 90
        0
176
     1
290
     0
176
     1
 90
        1
176
     1
 40
0.0
176
     1
 90
        0
176
     1
290
     0
176
     1
290
     1
176
     1
290
     1
176
     1
290
     0
176
     1
290
     0
176
     1
290
     0
176
     1
290
     0
176
     1
290
     0
176
     1
290
     0
176
     1
 90
       50
176
     1
 40
0.0
176
     1
 40
1.0
176
     1
 90
        0
176
     1
 62
    18
420
        0
176
     1
 90
       50
176
     1
 90
        3
176
     1
 62
     5
420
      255
176
     1
290
     0
176
     1
 90
       50
176
     1
 90
       50
176
     1
 90
       50
176
     1
290
     0
176
     1
 90
       50
176
     1
 62
   256
176
     0
 40
1.0
176
     0
 90
        2
176
     1
  1
strokes_ogs.tif
176
     1
290
     0
176
     1
 40
1.0
176
     1
 40
1.0
176
     1
  0
VISUALSTYLE
  5
190
102
{ACAD_REACTORS
330
12B
102
}
330
12B
100
AcDbVisualStyle
  2
X-Ray
 70
    25
177
     3
291
     0
 70
    58
 90
        2
176
     1
 90
        2
176
     1
 90
        1
176
     1
 90
        1
176
     1
 40
0.5
176
     1
 40
30.0
176
     1
 62
     7
420
 16777215
176
     1
 90
        1
176
     1
 90
        0
176
     1
 62
     7
176
     1
 62
   257
176
     1
 90
        1
176
     1
 90
        1
176
     1
 40
1.0
176
     1
 90
        8
176
     1
 62
     7
176
     1
 40
1.0
176
     1
 90
        1
176
     1
 90
        6
176
     1
 90
        2
176
     1
 62
     7
176
     1
 90
        3
176
     1
 90
        0
176
     1
 90
        0
176
     1
290
     0
176
     1
 90
       13
176
     1
 40
0.0
176
     1
 90
        0
176
     1
290
     0
176
     1
290
     1
176
     1
290
     1
176
     1
290
     0
176
     1
290
     0
176
     1
290
     0
176
     1
290
     0
176
     1
290
     0
176
     1
290
     0
176
     1
 90
       50
176
     1
 40
0.0
176
     1
 40
1.0
176
     1
 90
        0
176
     1
 62
    18
420
        0
176
     1
 90
       50
176
     1
 90
        3
176
     1
 62
     5
420
      255
176
     1
290
     0
176
     1
 90
       50
176
     1
 90
       50
176
     1
 90
       50
176
     1
290
     0
176
     1
 90
       50
176
     1
 62
   256
176
     0
 40
1.0
176
     0
 90
        2
176
     1
  1
strokes_ogs.tif
176
     1
290
     0
176
     1
 40
1.0
176
     1
 40
1.0
176
     1
  0
DICTIONARYVAR
  5
1B2
102
{ACAD_REACTORS
330
148
102
}
330
148
100
DictionaryVariables
280
     0
  1
1:1
  0
DICTIONARYVAR
  5
1B4
102
{ACAD_REACTORS
330
148
102
}
330
148
100
DictionaryVariables
280
     0
  1
Standard
  0
DICTIONARYVAR
  5
1B3
102
{ACAD_REACTORS
330
148
102
}
330
148
100
DictionaryVariables
280
     0
  1
Standard
  0
DICTIONARYVAR
  5
14C
102
{ACAD_REACTORS
330
148
102
}
330
148
100
DictionaryVariables
280
     0
  1
2
  0
DICTIONARYVAR
  5
14D
102
{ACAD_REACTORS
330
148
102
}
330
148
100
DictionaryVariables
280
     0
  1
1
  0
DICTIONARYVAR
  5
14B
102
{ACAD_REACTORS
330
148
102
}
330
148
100
DictionaryVariables
280
     0
  1
0
  0
DICTIONARY
  5
399
330
194
100
AcDbDictionary
280
     1
281
     1
  3
ACAD_ROUNDTRIP_2008_TABLESTYLE_CELLSTYLEMAP
360
39A
  0
CELLSTYLEMAP
  5
39A
102
{ACAD_REACTORS
330
399
102
}
330
399
100
AcDbCellStyleMap
 90
        3
300
CELLSTYLE
  1
TABLEFORMAT_BEGIN
 90
        5
170
     1
 91
        0
 92
    32768
 62
   257
 93
        1
300
CONTENTFORMAT
  1
CONTENTFORMAT_BEGIN
 90
        0
 91
        0
 92
        4
 93
        0
300

 40
0.0
140
1.0
 94
        5
 62
     0
340
11
144
0.25
309
CONTENTFORMAT_END
171
     1
301
MARGIN
  1
CELLMARGIN_BEGIN
 40
0.06
 40
0.06
 40
0.06
 40
0.06
 40
0.06
 40
0.06
309
CELLMARGIN_END
 94
        6
 95
        1
302
GRIDFORMAT
  1
GRIDFORMAT_BEGIN
 90
        0
 91
        1
 62
     0
 92
       -2
340
14
 93
        0
 40
0.045
309
GRIDFORMAT_END
 95
        2
302
GRIDFORMAT
  1
GRIDFORMAT_BEGIN
 90
        0
 91
        1
 62
     0
 92
       -2
340
14
 93
        0
 40
0.045
309
GRIDFORMAT_END
 95
        4
302
GRIDFORMAT
  1
GRIDFORMAT_BEGIN
 90
        0
 91
        1
 62
     0
 92
       -2
340
14
 93
        0
 40
0.045
309
GRIDFORMAT_END
 95
        8
302
GRIDFORMAT
  1
GRIDFORMAT_BEGIN
 90
        0
 91
        1
 62
     0
 92
       -2
340
14
 93
        0
 40
0.045
309
GRIDFORMAT_END
 95
       16
302
GRIDFORMAT
  1
GRIDFORMAT_BEGIN
 90
        0
 91
        1
 62
     0
 92
       -2
340
14
 93
        0
 40
0.045
309
GRIDFORMAT_END
 95
       32
302
GRIDFORMAT
  1
GRIDFORMAT_BEGIN
 90
        0
 91
        1
 62
     0
 92
       -2
340
14
 93
        0
 40
0.045
309
GRIDFORMAT_END
309
TABLEFORMAT_END
  1
CELLSTYLE_BEGIN
 90
        1
 91
        1
300
_TITLE
309
CELLSTYLE_END
300
CELLSTYLE
  1
TABLEFORMAT_BEGIN
 90
        5
170
     1
 91
        0
 92
        0
 62
   257
 93
        1
300
CONTENTFORMAT
  1
CONTENTFORMAT_BEGIN
 90
        0
 91
        0
 92
        4
 93
        0
300

 40
0.0
140
1.0
 94
        5
 62
     0
340
11
144
0.18
309
CONTENTFORMAT_END
171
     1
301
MARGIN
  1
CELLMARGIN_BEGIN
 40
0.06
 40
0.06
 40
0.06
 40
0.06
 40
0.06
 40
0.06
309
CELLMARGIN_END
 94
        6
 95
        1
302
GRIDFORMAT
  1
GRIDFORMAT_BEGIN
 90
        0
 91
        1
 62
     0
 92
       -2
340
14
 93
        0
 40
0.045
309
GRIDFORMAT_END
 95
        2
302
GRIDFORMAT
  1
GRIDFORMAT_BEGIN
 90
        0
 91
        1
 62
     0
 92
       -2
340
14
 93
        0
 40
0.045
309
GRIDFORMAT_END
 95
        4
302
GRIDFORMAT
  1
GRIDFORMAT_BEGIN
 90
        0
 91
        1
 62
     0
 92
       -2
340
14
 93
        0
 40
0.045
309
GRIDFORMAT_END
 95
        8
302
GRIDFORMAT
  1
GRIDFORMAT_BEGIN
 90
        0
 91
        1
 62
     0
 92
       -2
340
14
 93
        0
 40
0.045
309
GRIDFORMAT_END
 95
       16
302
GRIDFORMAT
  1
GRIDFORMAT_BEGIN
 90
        0
 91
        1
 62
     0
 92
       -2
340
14
 93
        0
 40
0.045
309
GRIDFORMAT_END
 95
       32
302
GRIDFORMAT
  1
GRIDFORMAT_BEGIN
 90
        0
 91
        1
 62
     0
 92
       -2
340
14
 93
        0
 40
0.045
309
GRIDFORMAT_END
309
TABLEFORMAT_END
  1
CELLSTYLE_BEGIN
 90
        2
 91
        1
300
_HEADER
309
CELLSTYLE_END
300
CELLSTYLE
  1
TABLEFORMAT_BEGIN
 90
        5
170
     1
 91
        0
 92
        0
 62
   257
 93
        1
300
CONTENTFORMAT
  1
CONTENTFORMAT_BEGIN
 90
        0
 91
        0
 92
        4
 93
        0
300

 40
0.0
140
1.0
 94
        2
 62
     0
340
11
144
0.18
309
CONTENTFORMAT_END
171
     1
301
MARGIN
  1
CELLMARGIN_BEGIN
 40
0.06
 40
0.06
 40
0.06
 40
0.06
 40
0.06
 40
0.06
309
CELLMARGIN_END
 94
        6
 95
        1
302
GRIDFORMAT
  1
GRIDFORMAT_BEGIN
 90
        0
 91
        1
 62
     0
 92
       -2
340
14
 93
        0
 40
0.045
309
GRIDFORMAT_END
 95
        2
302
GRIDFORMAT
  1
GRIDFORMAT_BEGIN
 90
        0
 91
        1
 62
     0
 92
       -2
340
14
 93
        0
 40
0.045
309
GRIDFORMAT_END
 95
        4
302
GRIDFORMAT
  1
GRIDFORMAT_BEGIN
 90
        0
 91
        1
 62
     0
 92
       -2
340
14
 93
        0
 40
0.045
309
GRIDFORMAT_END
 95
        8
302
GRIDFORMAT
  1
GRIDFORMAT_BEGIN
 90
        0
 91
        1
 62
     0
 92
       -2
340
14
 93
        0
 40
0.045
309
GRIDFORMAT_END
 95
       16
302
GRIDFORMAT
  1
GRIDFORMAT_BEGIN
 90
        0
 91
        1
 62
     0
 92
       -2
340
14
 93
        0
 40
0.045
309
GRIDFORMAT_END
 95
       32
302
GRIDFORMAT
  1
GRIDFORMAT_BEGIN
 90
        0
 91
        1
 62
     0
 92
       -2
340
14
 93
        0
 40
0.045
309
GRIDFORMAT_END
309
TABLEFORMAT_END
  1
CELLSTYLE_BEGIN
 90
        3
 91
        2
300
_DATA
309
CELLSTYLE_END
  0
ENDSEC
  0
EOF
