  0
SECTION
  2
HEADER
  9
$ACADVER
  1
AC1027
  9
$ACADMAINTVER
 70
   105
  9
$DWGCODEPAGE
  3
ANSI_1252
  9
$REQUIREDVERSIONS
160
                 0
  9
$LASTSAVEDBY
  1
matthias.ochs
  9
$INSBASE
 10
0.0
 20
0.0
 30
0.0
  9
$EXTMIN
 10
-138.613809845527
 20
-88.87369046346173
 30
0.0
  9
$EXTMAX
 10
181.5944912481024
 20
106.615797704207
 30
0.0
  9
$LIMMIN
 10
-77.076216293
 20
-55.251458129
  9
$LIMMAX
 10
105.67233152
 20
61.170788612
  9
$ORTHOMODE
 70
     0
  9
$REGENMODE
 70
     1
  9
$FILLMODE
 70
     1
  9
$QTEXTMODE
 70
     0
  9
$MIRRTEXT
 70
     1
  9
$LTSCALE
 40
1.0
  9
$ATTMODE
 70
     1
  9
$TEXTSIZE
 40
0.2
  9
$TRACEWID
 40
0.05
  9
$TEXTSTYLE
  7
Standard
  9
$CLAYER
  8
SK1
  9
$CELTYPE
  6
ByLayer
  9
$CECOLOR
 62
   256
  9
$CELTSCALE
 40
1.0
  9
$DISPSILH
 70
     0
  9
$DIMSCALE
 40
1.0
  9
$DIMASZ
 40
0.18
  9
$DIMEXO
 40
0.0625
  9
$DIMDLI
 40
0.38
  9
$DIMRND
 40
0.0
  9
$DIMDLE
 40
0.0
  9
$DIMEXE
 40
0.18
  9
$DIMTP
 40
0.0
  9
$DIMTM
 40
0.0
  9
$DIMTXT
 40
0.18
  9
$DIMCEN
 40
0.09
  9
$DIMTSZ
 40
0.0
  9
$DIMTOL
 70
     0
  9
$DIMLIM
 70
     0
  9
$DIMTIH
 70
     1
  9
$DIMTOH
 70
     1
  9
$DIMSE1
 70
     0
  9
$DIMSE2
 70
     0
  9
$DIMTAD
 70
     0
  9
$DIMZIN
 70
     0
  9
$DIMBLK
  1

  9
$DIMASO
 70
     1
  9
$DIMSHO
 70
     1
  9
$DIMPOST
  1

  9
$DIMAPOST
  1

  9
$DIMALT
 70
     0
  9
$DIMALTD
 70
     2
  9
$DIMALTF
 40
25.4
  9
$DIMLFAC
 40
1.0
  9
$DIMTOFL
 70
     0
  9
$DIMTVP
 40
0.0
  9
$DIMTIX
 70
     0
  9
$DIMSOXD
 70
     0
  9
$DIMSAH
 70
     0
  9
$DIMBLK1
  1

  9
$DIMBLK2
  1

  9
$DIMSTYLE
  2
Standard
  9
$DIMCLRD
 70
     0
  9
$DIMCLRE
 70
     0
  9
$DIMCLRT
 70
     0
  9
$DIMTFAC
 40
1.0
  9
$DIMGAP
 40
0.09
  9
$DIMJUST
 70
     0
  9
$DIMSD1
 70
     0
  9
$DIMSD2
 70
     0
  9
$DIMTOLJ
 70
     1
  9
$DIMTZIN
 70
     0
  9
$DIMALTZ
 70
     0
  9
$DIMALTTZ
 70
     0
  9
$DIMUPT
 70
     0
  9
$DIMDEC
 70
     4
  9
$DIMTDEC
 70
     4
  9
$DIMALTU
 70
     2
  9
$DIMALTTD
 70
     2
  9
$DIMTXSTY
  7
Standard
  9
$DIMAUNIT
 70
     0
  9
$DIMADEC
 70
     0
  9
$DIMALTRND
 40
0.0
  9
$DIMAZIN
 70
     0
  9
$DIMDSEP
 70
    46
  9
$DIMATFIT
 70
     3
  9
$DIMFRAC
 70
     0
  9
$DIMLDRBLK
  1

  9
$DIMLUNIT
 70
     2
  9
$DIMLWD
 70
    -2
  9
$DIMLWE
 70
    -2
  9
$DIMTMOVE
 70
     2
  9
$DIMFXL
 40
1.0
  9
$DIMFXLON
 70
     0
  9
$DIMJOGANG
 40
0.7853981633974483
  9
$DIMTFILL
 70
     0
  9
$DIMTFILLCLR
 70
     0
  9
$DIMARCSYM
 70
     0
  9
$DIMLTYPE
  6

  9
$DIMLTEX1
  6

  9
$DIMLTEX2
  6

  9
$DIMTXTDIRECTION
 70
     0
  9
$LUNITS
 70
     2
  9
$LUPREC
 70
     4
  9
$SKETCHINC
 40
0.1
  9
$FILLETRAD
 40
0.5
  9
$AUNITS
 70
     2
  9
$AUPREC
 70
     0
  9
$MENU
  1
.
  9
$ELEVATION
 40
0.0
  9
$PELEVATION
 40
0.0
  9
$THICKNESS
 40
0.0
  9
$LIMCHECK
 70
     0
  9
$CHAMFERA
 40
0.5
  9
$CHAMFERB
 40
0.5
  9
$CHAMFERC
 40
1.0
  9
$CHAMFERD
 40
0.0
  9
$SKPOLY
 70
     0
  9
$TDCREATE
 40
2458327.507649259
  9
$TDUCREATE
 40
2458327.465982593
  9
$TDUPDATE
 40
2458564.415996239
  9
$TDUUPDATE
 40
2458564.374329572
  9
$TDINDWG
 40
0.0098045139
  9
$TDUSRTIMER
 40
0.0006456019
  9
$USRTIMER
 70
     1
  9
$ANGBASE
 50
0.0
  9
$ANGDIR
 70
     0
  9
$PDMODE
 70
     0
  9
$PDSIZE
 40
0.0
  9
$PLINEWID
 40
0.0
  9
$SPLFRAME
 70
     0
  9
$SPLINETYPE
 70
     6
  9
$SPLINESEGS
 70
     8
  9
$HANDSEED
  5
360
  9
$SURFTAB1
 70
     6
  9
$SURFTAB2
 70
     6
  9
$SURFTYPE
 70
     6
  9
$SURFU
 70
     6
  9
$SURFV
 70
     6
  9
$UCSBASE
  2

  9
$UCSNAME
  2

  9
$UCSORG
 10
0.0
 20
0.0
 30
0.0
  9
$UCSXDIR
 10
1.0
 20
0.0
 30
0.0
  9
$UCSYDIR
 10
0.0
 20
1.0
 30
0.0
  9
$UCSORTHOREF
  2

  9
$UCSORTHOVIEW
 70
     0
  9
$UCSORGTOP
 10
0.0
 20
0.0
 30
0.0
  9
$UCSORGBOTTOM
 10
0.0
 20
0.0
 30
0.0
  9
$UCSORGLEFT
 10
0.0
 20
0.0
 30
0.0
  9
$UCSORGRIGHT
 10
0.0
 20
0.0
 30
0.0
  9
$UCSORGFRONT
 10
0.0
 20
0.0
 30
0.0
  9
$UCSORGBACK
 10
0.0
 20
0.0
 30
0.0
  9
$PUCSBASE
  2

  9
$PUCSNAME
  2

  9
$PUCSORG
 10
0.0
 20
0.0
 30
0.0
  9
$PUCSXDIR
 10
1.0
 20
0.0
 30
0.0
  9
$PUCSYDIR
 10
0.0
 20
1.0
 30
0.0
  9
$PUCSORTHOREF
  2

  9
$PUCSORTHOVIEW
 70
     0
  9
$PUCSORGTOP
 10
0.0
 20
0.0
 30
0.0
  9
$PUCSORGBOTTOM
 10
0.0
 20
0.0
 30
0.0
  9
$PUCSORGLEFT
 10
0.0
 20
0.0
 30
0.0
  9
$PUCSORGRIGHT
 10
0.0
 20
0.0
 30
0.0
  9
$PUCSORGFRONT
 10
0.0
 20
0.0
 30
0.0
  9
$PUCSORGBACK
 10
0.0
 20
0.0
 30
0.0
  9
$USERI1
 70
     0
  9
$USERI2
 70
     0
  9
$USERI3
 70
     0
  9
$USERI4
 70
     0
  9
$USERI5
 70
     0
  9
$USERR1
 40
0.0
  9
$USERR2
 40
0.0
  9
$USERR3
 40
0.0
  9
$USERR4
 40
0.0
  9
$USERR5
 40
0.0
  9
$WORLDVIEW
 70
     1
  9
$SHADEDGE
 70
     3
  9
$SHADEDIF
 70
    70
  9
$TILEMODE
 70
     1
  9
$MAXACTVP
 70
    64
  9
$PINSBASE
 10
0.0
 20
0.0
 30
0.0
  9
$PLIMCHECK
 70
     0
  9
$PEXTMIN
 10
1.000000000000000E+20
 20
1.000000000000000E+20
 30
1.000000000000000E+20
  9
$PEXTMAX
 10
-1.000000000000000E+20
 20
-1.000000000000000E+20
 30
-1.000000000000000E+20
  9
$PLIMMIN
 10
0.0
 20
0.0
  9
$PLIMMAX
 10
0.0
 20
0.0
  9
$UNITMODE
 70
     0
  9
$VISRETAIN
 70
     1
  9
$PLINEGEN
 70
     0
  9
$PSLTSCALE
 70
     1
  9
$TREEDEPTH
 70
  3020
  9
$CMLSTYLE
  2
Standard
  9
$CMLJUST
 70
     0
  9
$CMLSCALE
 40
1.0
  9
$PROXYGRAPHICS
 70
     1
  9
$MEASUREMENT
 70
     0
  9
$CELWEIGHT
370
    -1
  9
$ENDCAPS
280
     0
  9
$JOINSTYLE
280
     0
  9
$LWDISPLAY
290
     0
  9
$INSUNITS
 70
     0
  9
$HYPERLINKBASE
  1

  9
$STYLESHEET
  1

  9
$XEDIT
290
     1
  9
$CEPSNTYPE
380
     0
  9
$PSTYLEMODE
290
     1
  9
$FINGERPRINTGUID
  2
{CABAE648-1657-4837-9B2E-1593BFE15D0F}
  9
$VERSIONGUID
  2
{FAEB1C32-E019-11D5-929B-00C0DF256EC4}
  9
$EXTNAMES
290
     1
  9
$PSVPSCALE
 40
0.0
  9
$OLESTARTUP
290
     0
  9
$SORTENTS
280
   127
  9
$INDEXCTL
280
     0
  9
$HIDETEXT
280
     1
  9
$XCLIPFRAME
280
     2
  9
$HALOGAP
280
     0
  9
$OBSCOLOR
 70
   257
  9
$OBSLTYPE
280
     0
  9
$INTERSECTIONDISPLAY
280
     0
  9
$INTERSECTIONCOLOR
 70
   257
  9
$DIMASSOC
280
     2
  9
$PROJECTNAME
  1

  9
$CAMERADISPLAY
290
     0
  9
$LENSLENGTH
 40
50.0
  9
$CAMERAHEIGHT
 40
0.0
  9
$STEPSPERSEC
 40
2.0
  9
$STEPSIZE
 40
6.0
  9
$3DDWFPREC
 40
2.0
  9
$PSOLWIDTH
 40
0.25
  9
$PSOLHEIGHT
 40
4.0
  9
$LOFTANG1
 40
1.570796326794897
  9
$LOFTANG2
 40
1.570796326794897
  9
$LOFTMAG1
 40
0.0
  9
$LOFTMAG2
 40
0.0
  9
$LOFTPARAM
 70
     7
  9
$LOFTNORMALS
280
     1
  9
$LATITUDE
 40
37.795
  9
$LONGITUDE
 40
-122.394
  9
$NORTHDIRECTION
 40
0.0
  9
$TIMEZONE
 70
 -8000
  9
$LIGHTGLYPHDISPLAY
280
     1
  9
$TILEMODELIGHTSYNCH
280
     1
  9
$SOLIDHIST
280
     0
  9
$SHOWHIST
280
     1
  9
$DWFFRAME
280
     2
  9
$DGNFRAME
280
     2
  9
$REALWORLDSCALE
290
     1
  9
$INTERFERECOLOR
 62
   256
  9
$CSHADOW
280
     0
  9
$SHADOWPLANELOCATION
 40
0.0
  0
ENDSEC
  0
SECTION
  2
CLASSES
  0
CLASS
  1
ACDBDICTIONARYWDFLT
  2
AcDbDictionaryWithDefault
  3
ObjectDBX Classes
 90
        0
 91
        8
280
     0
281
     0
  0
CLASS
  1
SCALE
  2
AcDbScale
  3
ObjectDBX Classes
 90
     1153
 91
        8
280
     0
281
     0
  0
CLASS
  1
VISUALSTYLE
  2
AcDbVisualStyle
  3
ObjectDBX Classes
 90
     4095
 91
        8
280
     0
281
     0
  0
CLASS
  1
MATERIAL
  2
AcDbMaterial
  3
ObjectDBX Classes
 90
     1153
 91
        8
280
     0
281
     0
  0
CLASS
  1
DICTIONARYVAR
  2
AcDbDictionaryVar
  3
ObjectDBX Classes
 90
        0
 91
        7
280
     0
281
     0
  0
CLASS
  1
ACDBPLACEHOLDER
  2
AcDbPlaceHolder
  3
ObjectDBX Classes
 90
        0
 91
        1
280
     0
281
     0
  0
CLASS
  1
LAYOUT
  2
AcDbLayout
  3
ObjectDBX Classes
 90
        0
 91
        1
280
     0
281
     0
  0
CLASS
  1
TABLESTYLE
  2
AcDbTableStyle
  3
ObjectDBX Classes
 90
     4095
 91
        8
280
     0
281
     0
  0
CLASS
  1
MLEADERSTYLE
  2
AcDbMLeaderStyle
  3
ACDB_MLEADERSTYLE_CLASS
 90
     4095
 91
        8
280
     0
281
     0
  0
CLASS
  1
SUN
  2
AcDbSun
  3
SCENEOE
 90
     1153
 91
        8
280
     0
281
     0
  0
CLASS
  1
SORTENTSTABLE
  2
AcDbSortentsTable
  3
ObjectDBX Classes
 90
        0
 91
        4
280
     0
281
     0
  0
CLASS
  1
CELLSTYLEMAP
  2
AcDbCellStyleMap
  3
ObjectDBX Classes
 90
     1152
 91
        4
280
     0
281
     0
  0
ENDSEC
  0
SECTION
  2
TABLES
  0
TABLE
  2
VPORT
  5
8
330
0
100
AcDbSymbolTable
 70
     1
  0
VPORT
  5
144
330
8
100
AcDbSymbolTableRecord
100
AcDbViewportTableRecord
  2
*Active
 70
     0
 10
0.0
 20
0.0
 11
1.0
 21
1.0
 12
-35.8263069541448
 22
-18.56532151678547
 13
0.0
 23
0.0
 14
0.5
 24
0.5
 15
0.5
 25
0.5
 16
0.0
 26
0.0
 36
1.0
 17
0.0
 27
0.0
 37
0.0
 40
219.5459489098293
 41
1.70021645021645
 42
50.0
 43
0.0
 44
0.0
 50
0.0
 51
0.0
 71
    16
 72
   100
 73
     1
 74
     3
 75
     0
 76
     0
 77
     0
 78
     0
281
     0
 65
     1
110
0.0
120
0.0
130
0.0
111
1.0
121
0.0
131
0.0
112
0.0
122
1.0
132
0.0
 79
     0
146
0.0
348
175
 60
     3
 61
     5
292
     1
282
     1
141
0.0
142
0.0
 63
   256
361
270
  0
ENDTAB
  0
TABLE
  2
LTYPE
  5
5
330
0
100
AcDbSymbolTable
 70
     8
  0
LTYPE
  5
14
330
5
100
AcDbSymbolTableRecord
100
AcDbLinetypeTableRecord
  2
ByBlock
 70
     0
  3

 72
    65
 73
     0
 40
0.0
  0
LTYPE
  5
15
330
5
100
AcDbSymbolTableRecord
100
AcDbLinetypeTableRecord
  2
ByLayer
 70
     0
  3

 72
    65
 73
     0
 40
0.0
  0
LTYPE
  5
16
330
5
100
AcDbSymbolTableRecord
100
AcDbLinetypeTableRecord
  2
Continuous
 70
     0
  3
Solid line
 72
    65
 73
     0
 40
0.0
  0
LTYPE
  5
20
330
5
100
AcDbSymbolTableRecord
100
AcDbLinetypeTableRecord
  2
PUNKT
 70
     0
  3
..............
 72
    65
 73
     2
 40
1.5
 49
0.7
 74
     0
 49
-0.8
 74
     0
  0
LTYPE
  5
21
330
5
100
AcDbSymbolTableRecord
100
AcDbLinetypeTableRecord
  2
GESTRICHELT
 70
     0
  3
-- -- -- -- --
 72
    65
 73
     7
 40
2.8
 49
0.9
 74
     0
 49
0.0
 74
     0
 49
0.9
 74
     0
 49
0.0
 74
     0
 49
0.2
 74
     0
 49
0.0
 74
     0
 49
-0.8
 74
     0
  0
LTYPE
  5
22
330
5
100
AcDbSymbolTableRecord
100
AcDbLinetypeTableRecord
  2
STRICHPUNKT
 70
     0
  3
--.--.--.--.--
 72
    65
 73
     4
 40
8.8
 49
5.5
 74
     0
 49
-1.3
 74
     0
 49
0.7
 74
     0
 49
-1.3
 74
     0
  0
LTYPE
  5
25
330
5
100
AcDbSymbolTableRecord
100
AcDbLinetypeTableRecord
  2
PHANTOM
 70
     0
  3
--..--..--..--
 72
    65
 73
     6
 40
14.2
 49
7.0
 74
     0
 49
-1.8
 74
     0
 49
0.9
 74
     0
 49
-1.8
 74
     0
 49
0.9
 74
     0
 49
-1.8
 74
     0
  0
LTYPE
  5
1BC
330
5
100
AcDbSymbolTableRecord
100
AcDbLinetypeTableRecord
  2
DASH
 70
     0
  3
DASH _ _ _ _ _
 72
    65
 73
     2
 40
0.75
 49
0.4
 74
     0
 49
-0.35
 74
     0
  0
LTYPE
  5
1BD
330
5
100
AcDbSymbolTableRecord
100
AcDbLinetypeTableRecord
  2
LONGDASH_DASH
 70
     0
  3
LONGDASH_DASH __ . __ . __
 72
    65
 73
     4
 40
0.85
 49
0.4
 74
     0
 49
-0.2
 74
     0
 49
0.05
 74
     0
 49
-0.2
 74
     0
  0
LTYPE
  5
1BE
330
5
100
AcDbSymbolTableRecord
100
AcDbLinetypeTableRecord
  2
LONGDASH_DASH_DASH
 70
     0
  3
LONGDASH_DASH_DASH __ . . __ . . __
 72
    65
 73
     6
 40
1.1
 49
0.4
 74
     0
 49
-0.2
 74
     0
 49
0.05
 74
     0
 49
-0.2
 74
     0
 49
0.05
 74
     0
 49
-0.2
 74
     0
  0
ENDTAB
  0
TABLE
  2
LAYER
  5
2
102
{ACAD_XDICTIONARY
360
1DB
102
}
330
0
100
AcDbSymbolTable
 70
    16
  0
LAYER
  5
186
330
2
100
AcDbSymbolTableRecord
100
AcDbLayerTableRecord
  2
200
 70
     0
 62
     2
  6
Continuous
370
    50
390
F
347
184
348
0
  0
LAYER
  5
1BF
330
2
100
AcDbSymbolTableRecord
100
AcDbLayerTableRecord
  2
0
 70
     0
 62
     1
  6
Continuous
370
    -3
390
F
347
184
348
0
  0
LAYER
  5
1C0
330
2
100
AcDbSymbolTableRecord
100
AcDbLayerTableRecord
  2
1
 70
     0
 62
     4
  6
Continuous
370
    50
390
F
347
184
348
0
  0
LAYER
  5
1C1
330
2
100
AcDbSymbolTableRecord
100
AcDbLayerTableRecord
  2
2
 70
     0
 62
     7
  6
Continuous
370
    25
390
F
347
184
348
0
  0
LAYER
  5
1C2
330
2
100
AcDbSymbolTableRecord
100
AcDbLayerTableRecord
  2
3
 70
     0
 62
     1
  6
DASH
370
    35
390
F
347
184
348
0
  0
LAYER
  5
1C3
330
2
100
AcDbSymbolTableRecord
100
AcDbLayerTableRecord
  2
4
 70
     0
 62
     2
  6
LONGDASH_DASH
370
    25
390
F
347
184
348
0
  0
LAYER
  5
1C4
330
2
100
AcDbSymbolTableRecord
100
AcDbLayerTableRecord
  2
6
 70
     0
 62
     5
  6
Continuous
370
    -3
390
F
347
184
348
0
  0
LAYER
  5
1C5
330
2
100
AcDbSymbolTableRecord
100
AcDbLayerTableRecord
  2
CUT
 70
     0
 62
     1
  6
Continuous
370
    25
390
F
347
184
348
0
  0
LAYER
  5
1C6
330
2
100
AcDbSymbolTableRecord
100
AcDbLayerTableRecord
  2
NOCUT
 70
     0
 62
     7
  6
Continuous
370
    25
390
F
347
184
348
0
  0
LAYER
  5
1C7
330
2
100
AcDbSymbolTableRecord
100
AcDbLayerTableRecord
  2
SK1
 70
     0
 62
     4
  6
Continuous
370
    50
390
F
347
184
348
0
  0
LAYER
  5
1C8
330
2
100
AcDbSymbolTableRecord
100
AcDbLayerTableRecord
  2
SK2
 70
     0
 62
     7
  6
Continuous
370
    25
390
F
347
184
348
0
  0
LAYER
  5
1C9
330
2
100
AcDbSymbolTableRecord
100
AcDbLayerTableRecord
  2
SK3
 70
     0
 62
     1
  6
DASH
370
    35
390
F
347
184
348
0
  0
LAYER
  5
1CA
330
2
100
AcDbSymbolTableRecord
100
AcDbLayerTableRecord
  2
SK4
 70
     0
 62
     2
  6
LONGDASH_DASH
370
    25
390
F
347
184
348
0
  0
LAYER
  5
1CB
330
2
100
AcDbSymbolTableRecord
100
AcDbLayerTableRecord
  2
SK6
 70
     0
 62
     5
  6
Continuous
370
    -3
390
F
347
184
348
0
  0
LAYER
  5
1CC
330
2
100
AcDbSymbolTableRecord
100
AcDbLayerTableRecord
  2
INFTOTAL
 70
     0
 62
     9
  6
Continuous
370
    18
390
F
347
184
348
0
  0
LAYER
  5
32D
330
2
100
AcDbSymbolTableRecord
100
AcDbLayerTableRecord
  2
7
 70
     0
 62
     5
  6
Continuous
370
    -3
390
F
347
184
348
0
1001
AcAecLayerStandard
1000

1000

  0
ENDTAB
  0
TABLE
  2
STYLE
  5
3
330
0
100
AcDbSymbolTable
 70
     2
  0
STYLE
  5
11
330
3
100
AcDbSymbolTableRecord
100
AcDbTextStyleTableRecord
  2
Standard
 70
     0
 40
0.0
 41
1.0
 50
0.0
 71
     0
 42
0.2
  3
txt
  4

  0
STYLE
  5
185
330
3
100
AcDbSymbolTableRecord
100
AcDbTextStyleTableRecord
  2
BMG_Text
 70
     0
 40
3.5
 41
1.0
 50
0.0
 71
     0
 42
0.2
  3
monos.ttf
  4

1001
ACAD
1000
Monospac821 BT
1071
       49
  0
ENDTAB
  0
TABLE
  2
VIEW
  5
6
330
0
100
AcDbSymbolTable
 70
     0
  0
ENDTAB
  0
TABLE
  2
UCS
  5
7
330
0
100
AcDbSymbolTable
 70
     0
  0
ENDTAB
  0
TABLE
  2
APPID
  5
9
330
0
100
AcDbSymbolTable
 70
     2
  0
APPID
  5
12
330
9
100
AcDbSymbolTableRecord
100
AcDbRegAppTableRecord
  2
ACAD
 70
     0
  0
APPID
  5
32E
330
9
100
AcDbSymbolTableRecord
100
AcDbRegAppTableRecord
  2
AcAecLayerStandard
 70
     0
  0
ENDTAB
  0
TABLE
  2
DIMSTYLE
  5
A
330
0
100
AcDbSymbolTable
 70
     1
100
AcDbDimStyleTable
  0
DIMSTYLE
105
28
330
A
100
AcDbSymbolTableRecord
100
AcDbDimStyleTableRecord
  2
Standard
 70
     0
178
     0
340
11
  0
ENDTAB
  0
TABLE
  2
BLOCK_RECORD
  5
1
330
0
100
AcDbSymbolTable
 70
     0
  0
BLOCK_RECORD
  5
1D
102
{ACAD_XDICTIONARY
360
331
102
}
330
1
100
AcDbSymbolTableRecord
100
AcDbBlockTableRecord
  2
*Model_Space
340
1E
 70
     0
280
     1
281
     0
  0
BLOCK_RECORD
  5
1B
330
1
100
AcDbSymbolTableRecord
100
AcDbBlockTableRecord
  2
*Paper_Space
340
1C
 70
     0
280
     1
281
     0
  0
ENDTAB
  0
ENDSEC
  0
SECTION
  2
BLOCKS
  0
BLOCK
  5
16E
330
1D
100
AcDbEntity
  8
0
100
AcDbBlockBegin
  2
*Model_Space
 70
     0
 10
0.0
 20
0.0
 30
0.0
  3
*Model_Space
  1

  0
ENDBLK
  5
16F
330
1D
100
AcDbEntity
  8
0
100
AcDbBlockEnd
  0
BLOCK
  5
16C
330
1B
100
AcDbEntity
 67
     1
  8
0
100
AcDbBlockBegin
  2
*Paper_Space
 70
     0
 10
0.0
 20
0.0
 30
0.0
  3
*Paper_Space
  1

  0
ENDBLK
  5
16D
330
1B
100
AcDbEntity
 67
     1
  8
0
100
AcDbBlockEnd
  0
ENDSEC
  0
SECTION
  2
ENTITIES
  0
LINE
  5
29
330
1D
100
AcDbEntity
  8
1
  6
Continuous
370
    50
100
AcDbLine
 10
76.05
 20
31.350050556
 30
0.0
 11
76.05
 21
37.505
 31
0.0
  0
LINE
  5
2A
330
1D
100
AcDbEntity
  8
1
  6
Continuous
370
    50
100
AcDbLine
 10
58.503783091
 20
46.005
 30
0.0
 11
52.932119558
 21
46.005
 31
0.0
  0
LINE
  5
2B
330
1D
100
AcDbEntity
  8
1
  6
Continuous
370
    50
100
AcDbLine
 10
75.1
 20
46.005
 30
0.0
 11
69.493282295
 21
46.005
 31
0.0
  0
ARC
  5
2C
330
1D
100
AcDbEntity
  8
1
  6
Continuous
370
    50
100
AcDbCircle
 10
52.883088643
 20
45.121690195
 30
0.0
 40
0.875201931
100
AcDbArc
 50
81.97579298600002
 51
181.343621842
  0
LINE
  5
2D
330
1D
100
AcDbEntity
  8
1
  6
Continuous
370
    50
100
AcDbLine
 10
52.0
 20
45.10135318
 30
0.0
 11
52.0
 21
37.794228634
 31
0.0
  0
LINE
  5
2E
330
1D
100
AcDbEntity
  8
1
  6
Continuous
370
    50
100
AcDbLine
 10
68.245289062
 20
45.798120721
 30
0.0
 11
67.1
 21
46.105
 31
0.0
  0
LINE
  5
2F
330
1D
100
AcDbEntity
  8
1
  6
Continuous
370
    50
100
AcDbLine
 10
60.9
 20
46.105
 30
0.0
 11
59.75225735528794
 21
45.79746328572413
 31
0.0
  0
LINE
  5
30
330
1D
100
AcDbEntity
  8
1
  6
Continuous
370
    50
100
AcDbLine
 10
48.087320508
 20
-40.4
 30
0.0
 11
59.246152423
 21
-43.39
 31
0.0
  0
LINE
  5
31
330
1D
100
AcDbEntity
  8
1
  6
Continuous
370
    50
100
AcDbLine
 10
68.753847577
 20
-43.39
 30
0.0
 11
79.809272111
 21
-40.4
 31
0.0
  0
LINE
  5
32
330
1D
100
AcDbEntity
  8
1
  6
Continuous
370
    50
100
AcDbLine
 10
1.0
 20
45.0
 30
0.0
 11
0.0
 21
44.0
 31
0.0
  0
LINE
  5
33
330
1D
100
AcDbEntity
  8
1
  6
Continuous
370
    50
100
AcDbLine
 10
0.0
 20
-44.0
 30
0.0
 11
0.5
 21
-44.5
 31
0.0
  0
LINE
  5
34
330
1D
100
AcDbEntity
  8
1
  6
Continuous
370
    50
100
AcDbLine
 10
15.045299462
 20
45.0
 30
0.0
 11
1.0
 21
45.0
 31
0.0
  0
LINE
  5
35
330
1D
100
AcDbEntity
  8
1
  6
Continuous
370
    50
100
AcDbLine
 10
82.969059892
 20
-40.4
 30
0.0
 11
83.2
 21
-40.0
 31
0.0
  0
ARC
  5
36
330
1D
100
AcDbEntity
  8
SK1
100
AcDbCircle
 10
-0.25
 20
-22.9
 30
0.0
 40
0.5
100
AcDbArc
 50
60.0
 51
105.0
  0
ARC
  5
37
330
1D
100
AcDbEntity
  8
SK1
100
AcDbCircle
 10
-0.25
 20
22.9
 30
0.0
 40
0.5
100
AcDbArc
 50
255.0
 51
300.0
  0
ARC
  5
38
330
1D
100
AcDbEntity
  8
SK1
100
AcDbCircle
 10
-48.787564435
 20
-21.8
 30
0.0
 40
1.2
100
AcDbArc
 50
210.0
 51
280.0
  0
ARC
  5
39
330
1D
100
AcDbEntity
  8
SK1
100
AcDbCircle
 10
-48.787564435
 20
21.8
 30
0.0
 40
1.2
100
AcDbArc
 50
80.0
 51
150.0
  0
LINE
  5
3A
330
1D
100
AcDbEntity
  8
SK1
100
AcDbLine
 10
-44.0
 20
-23.0
 30
0.0
 11
-2.555056733
 21
-23.0
 31
0.0
  0
LINE
  5
3B
330
1D
100
AcDbEntity
  8
SK1
100
AcDbLine
 10
-2.555056733
 20
23.0
 30
0.0
 11
-44.0
 21
23.0
 31
0.0
  0
LINE
  5
3C
330
1D
100
AcDbEntity
  8
SK1
100
AcDbLine
 10
-2.555056733
 20
-23.0
 30
0.0
 11
-0.379409522
 21
-22.417037087
 31
0.0
  0
LINE
  5
3D
330
1D
100
AcDbEntity
  8
SK1
100
AcDbLine
 10
-0.379409522
 20
22.417037087
 30
0.0
 11
-2.555056733
 21
23.0
 31
0.0
  0
LINE
  5
3E
330
1D
100
AcDbEntity
  8
SK1
100
AcDbLine
 10
-44.0
 20
23.0
 30
0.0
 11
-46.605707514
 21
22.633791691
 31
0.0
  0
LINE
  5
3F
330
1D
100
AcDbEntity
  8
SK1
100
AcDbLine
 10
-46.605707514
 20
-22.633791691
 30
0.0
 11
-44.0
 21
-23.0
 31
0.0
  0
LINE
  5
40
330
1D
100
AcDbEntity
  8
SK1
100
AcDbLine
 10
-48.579186622
 20
-22.981769304
 30
0.0
 11
-46.605707514
 21
-22.633791691
 31
0.0
  0
LINE
  5
41
330
1D
100
AcDbEntity
  8
SK1
100
AcDbLine
 10
-46.605707514
 20
22.633791691
 30
0.0
 11
-48.579186622
 21
22.981769304
 31
0.0
  0
LINE
  5
42
330
1D
100
AcDbEntity
  8
SK1
100
AcDbLine
 10
-49.826794919
 20
22.4
 30
0.0
 11
-50.0
 21
22.1
 31
0.0
  0
LINE
  5
43
330
1D
100
AcDbEntity
  8
SK1
100
AcDbLine
 10
-50.0
 20
-22.1
 30
0.0
 11
-49.826794919
 21
-22.4
 31
0.0
  0
LINE
  5
44
330
1D
100
AcDbEntity
  8
1
  6
Continuous
370
    50
100
AcDbLine
 10
76.05
 20
37.505
 30
0.0
 11
67.4
 21
37.505
 31
0.0
  0
LINE
  5
45
330
1D
100
AcDbEntity
  8
1
  6
Continuous
370
    50
100
AcDbLine
 10
60.491163094
 20
37.505
 30
0.0
 11
53.079415957
 21
37.505
 31
0.0
  0
ARC
  5
46
330
1D
100
AcDbEntity
  8
1
  6
Continuous
370
    50
100
AcDbCircle
 10
64.069932508
 20
75.731143782
 30
0.0
 40
30.243471143
100
AcDbArc
 50
259.3945608000001
 51
269.8675138479999
  0
ARC
  5
47
330
1D
100
AcDbEntity
  8
1
  6
Continuous
370
    50
100
AcDbCircle
 10
63.950421247
 20
75.514017609
 30
0.0
 40
30.026305048
100
AcDbArc
 50
270.094605533
 51
280.637822399
  0
ARC
  5
48
330
1D
100
AcDbEntity
  8
1
  6
Continuous
370
    50
100
AcDbCircle
 10
75.1
 20
45.105
 30
0.0
 40
0.9
100
AcDbArc
 50
0.0
 51
90.0
  0
LINE
  5
49
330
1D
100
AcDbEntity
  8
1
  6
Continuous
370
    50
100
AcDbLine
 10
66.799512926
 20
38.105487074
 30
0.0
 11
67.4
 21
37.505
 31
0.0
  0
LINE
  5
4A
330
1D
100
AcDbEntity
  8
1
  6
Continuous
370
    50
100
AcDbLine
 10
66.799512926
 20
38.105487074
 30
0.0
 11
66.548580521
 21
39.605
 31
0.0
  0
LINE
  5
4B
330
1D
100
AcDbEntity
  8
1
  6
Continuous
370
    50
100
AcDbLine
 10
66.548580521
 20
39.605
 30
0.0
 11
61.451419479
 21
39.605
 31
0.0
  0
LINE
  5
4C
330
1D
100
AcDbEntity
  8
1
  6
Continuous
370
    50
100
AcDbLine
 10
61.451419479
 20
39.605
 30
0.0
 11
61.182523803
 21
37.998142801
 31
0.0
  0
LINE
  5
4D
330
1D
100
AcDbEntity
  8
1
  6
Continuous
370
    50
100
AcDbLine
 10
60.491163094
 20
37.505
 30
0.0
 11
61.182523803
 21
37.998142801
 31
0.0
  0
LINE
  5
4E
330
1D
100
AcDbEntity
  8
1
  6
Continuous
370
    50
100
AcDbLine
 10
76.0
 20
37.505
 30
0.0
 11
76.0
 21
45.105
 31
0.0
  0
LINE
  5
50
330
1D
100
AcDbEntity
  8
1
100
AcDbLine
 10
84.555660938
 20
49.413054405
 30
0.0
 11
76.218942984
 21
47.943066099
 31
0.0
  0
ARC
  5
51
330
1D
100
AcDbEntity
  8
1
100
AcDbCircle
 10
78.585193217
 20
45.20621259
 30
0.0
 40
1.6
100
AcDbArc
 50
87.0
 51
266.9999999999999
  0
LINE
  5
52
330
1D
100
AcDbEntity
  8
1
100
AcDbLine
 10
78.501455687
 20
43.608405334
 30
0.0
 11
79.901540806
 21
43.535029982
 31
0.0
  0
LINE
  5
54
330
1D
100
AcDbEntity
  8
1
100
AcDbLine
 10
85.937218587
 20
37.505
 30
0.0
 11
86.046258056
 21
39.585597007
 31
0.0
  0
LINE
  5
55
330
1D
100
AcDbEntity
  8
1
  6
Continuous
370
    50
100
AcDbLine
 10
76.218942984
 20
47.943066099
 30
0.0
 11
75.1
 21
46.005
 31
0.0
  0
LINE
  5
56
330
1D
100
AcDbEntity
  8
1
100
AcDbLine
 10
84.555660938
 20
49.413054405
 30
0.0
 11
84.715987907
 21
49.098395011
 31
0.0
  0
LINE
  5
57
330
1D
100
AcDbEntity
  8
1
100
AcDbLine
 10
80.069015866
 20
46.730644494
 30
0.0
 11
78.668930747
 21
46.804019846
 31
0.0
  0
LINE
  5
58
330
1D
100
AcDbEntity
  8
1
  6
Continuous
370
    50
100
AcDbLine
 10
76.05
 20
37.505
 30
0.0
 11
85.937218587
 21
37.505
 31
0.0
  0
LINE
  5
5A
102
{ACAD_REACTORS
330
343
102
}
330
1D
100
AcDbEntity
  8
1
100
AcDbLine
 10
77.798843003
 20
44.900537902
 30
0.0
 11
85.860884194
 21
39.664987136
 31
0.0
  0
ARC
  5
5B
330
1D
100
AcDbEntity
  8
1
100
AcDbCircle
 10
78.016698617
 20
45.23600613
 30
0.0
 40
0.4
100
AcDbArc
 50
117.0
 51
237.0
  0
LINE
  5
5C
330
1D
100
AcDbEntity
  8
1
100
AcDbLine
 10
86.400242979
 20
49.956565834
 30
0.0
 11
77.835102417
 21
45.592408739
 31
0.0
  0
ARC
  5
5D
330
1D
100
AcDbEntity
  8
1
100
AcDbCircle
 10
86.581839179
 20
49.600163224
 30
0.0
 40
0.4
100
AcDbArc
 50
356.9999999999999
 51
117.0
  0
LINE
  5
5E
102
{ACAD_REACTORS
330
343
102
}
330
1D
100
AcDbEntity
  8
1
100
AcDbLine
 10
86.478191622
 20
39.979520981
 30
0.0
 11
86.981290993
 21
49.579228842
 31
0.0
  0
ARC
  5
5F
102
{ACAD_REACTORS
330
343
102
}
330
1D
100
AcDbEntity
  8
1
100
AcDbCircle
 10
86.078739808
 20
40.000455363
 30
0.0
 40
0.4
100
AcDbArc
 50
237.0
 51
356.9999999999999
  0
ARC
  5
60
102
{ACAD_REACTORS
330
343
102
}
330
1D
100
AcDbEntity
  8
1
100
AcDbCircle
 10
83.559092535
 20
44.945541572
 30
0.0
 40
1.8999736
100
AcDbArc
 50
163.204666437
 51
147.0
  0
ARC
  5
61
330
1D
100
AcDbEntity
  8
1
100
AcDbCircle
 10
83.559092535
 20
44.945541572
 30
0.0
 40
1.8999736
100
AcDbArc
 50
147.0
 51
163.204666437
  0
LINE
  5
62
330
1D
100
AcDbEntity
  8
1
  6
Continuous
370
    50
100
AcDbLine
 10
67.1
 20
46.105
 30
0.0
 11
60.9
 21
46.105
 31
0.0
  0
LINE
  5
63
330
1D
100
AcDbEntity
  8
1
  6
Continuous
370
    50
100
AcDbLine
 10
49.445
 20
-2.502813417
 30
0.0
 11
50.888375673
 21
-0.002813417
 31
0.0
  0
LINE
  5
64
330
1D
100
AcDbEntity
  8
1
  6
Continuous
370
    50
100
AcDbLine
 10
50.888375673
 20
-0.002813417
 30
0.0
 11
49.441751346
 21
2.502813417
 31
0.0
  0
LINE
  5
65
330
1D
100
AcDbEntity
  8
1
  6
Continuous
370
    50
100
AcDbLine
 10
49.441751346
 20
2.502813417
 30
0.0
 11
46.555
 21
2.502813417
 31
0.0
  0
LINE
  5
66
330
1D
100
AcDbEntity
  8
1
  6
Continuous
370
    50
100
AcDbLine
 10
46.555
 20
2.502813417
 30
0.0
 11
45.111624327
 21
0.002813417
 31
0.0
  0
LINE
  5
67
330
1D
100
AcDbEntity
  8
1
  6
Continuous
370
    50
100
AcDbLine
 10
45.111624327
 20
0.002813417
 30
0.0
 11
46.558248654
 21
-2.502813417
 31
0.0
  0
LINE
  5
68
330
1D
100
AcDbEntity
  8
1
  6
Continuous
370
    50
100
AcDbLine
 10
46.558248654
 20
-2.502813417
 30
0.0
 11
49.445
 21
-2.502813417
 31
0.0
  0
LINE
  5
69
330
1D
100
AcDbEntity
  8
1
  6
Continuous
370
    50
100
AcDbLine
 10
68.753847577
 20
-43.39
 30
0.0
 11
59.246152423
 21
-43.39
 31
0.0
  0
LINE
  5
6A
330
1D
100
AcDbEntity
  8
1
  6
Continuous
370
    50
100
AcDbLine
 10
0.0
 20
0.0
 30
0.0
 11
0.0
 21
44.0
 31
0.0
  0
LINE
  5
6B
330
1D
100
AcDbEntity
  8
1
  6
Continuous
370
    50
100
AcDbLine
 10
0.0
 20
-44.0
 30
0.0
 11
0.0
 21
0.0
 31
0.0
  0
LINE
  5
6C
330
1D
100
AcDbEntity
  8
1
  6
Continuous
370
    50
100
AcDbLine
 10
1.0
 20
45.0
 30
0.0
 11
1.0
 21
-44.5
 31
0.0
  0
LINE
  5
6D
330
1D
100
AcDbEntity
  8
1
  6
Continuous
370
    50
100
AcDbLine
 10
1.0
 20
-44.5
 30
0.0
 11
0.549208714
 21
-44.5
 31
0.0
  0
LINE
  5
6E
330
1D
100
AcDbEntity
  8
1
  6
Continuous
370
    50
100
AcDbLine
 10
16.2
 20
43.0
 30
0.0
 11
15.045299462
 21
45.0
 31
0.0
  0
LINE
  5
6F
330
1D
100
AcDbEntity
  8
1
  6
Continuous
370
    50
100
AcDbLine
 10
16.2
 20
43.0
 30
0.0
 11
46.42820323
 21
43.0
 31
0.0
  0
LINE
  5
70
330
1D
100
AcDbEntity
  8
1
  6
Continuous
370
    50
100
AcDbLine
 10
47.5
 20
39.0
 30
0.0
 11
46.42820323
 21
43.0
 31
0.0
  0
LINE
  5
71
330
1D
100
AcDbEntity
  8
1
  6
Continuous
370
    50
100
AcDbLine
 10
64.886346229
 20
34.341342569
 30
0.0
 11
47.5
 21
39.0
 31
0.0
  0
LINE
  5
72
330
1D
100
AcDbEntity
  8
1
  6
Continuous
370
    50
100
AcDbLine
 10
64.886346229
 20
34.341342569
 30
0.0
 11
61.195572735
 21
33.779493448
 31
0.0
  0
LINE
  5
73
330
1D
100
AcDbEntity
  8
1
  6
Continuous
370
    50
100
AcDbLine
 10
61.195572735
 20
33.779493448
 30
0.0
 11
57.566349062
 21
33.205313681
 31
0.0
  0
LINE
  5
74
330
1D
100
AcDbEntity
  8
1
  6
Continuous
370
    50
100
AcDbLine
 10
57.566349062
 20
33.205313681
 30
0.0
 11
54.0
 21
32.619012861
 31
0.0
  0
LINE
  5
75
330
1D
100
AcDbEntity
  8
1
  6
Continuous
370
    50
100
AcDbLine
 10
54.0
 20
32.619012861
 30
0.0
 11
23.2
 21
32.619012861
 31
0.0
  0
LINE
  5
76
330
1D
100
AcDbEntity
  8
1
  6
Continuous
370
    50
100
AcDbLine
 10
23.2
 20
-32.619012861
 30
0.0
 11
22.268995996
 21
-31.006802931
 31
0.0
  0
LINE
  5
77
330
1D
100
AcDbEntity
  8
1
  6
Continuous
370
    50
100
AcDbLine
 10
22.268995996
 20
-31.006802931
 30
0.0
 11
21.386338246
 21
-29.314977847
 31
0.0
  0
LINE
  5
78
330
1D
100
AcDbEntity
  8
1
  6
Continuous
370
    50
100
AcDbLine
 10
21.386338246
 20
-29.314977847
 30
0.0
 11
20.554293121
 21
-27.547881655
 31
0.0
  0
LINE
  5
79
330
1D
100
AcDbEntity
  8
1
  6
Continuous
370
    50
100
AcDbLine
 10
20.554293121
 20
-27.547881655
 30
0.0
 11
19.774997036
 21
-25.710051669
 31
0.0
  0
LINE
  5
7A
330
1D
100
AcDbEntity
  8
1
  6
Continuous
370
    50
100
AcDbLine
 10
19.774997036
 20
-25.710051669
 30
0.0
 11
19.050450964
 21
-23.806206824
 31
0.0
  0
LINE
  5
7B
330
1D
100
AcDbEntity
  8
1
  6
Continuous
370
    50
100
AcDbLine
 10
19.050450964
 20
-23.806206824
 30
0.0
 11
18.382515299
 21
-21.841235562
 31
0.0
  0
LINE
  5
7C
330
1D
100
AcDbEntity
  8
1
  6
Continuous
370
    50
100
AcDbLine
 10
18.382515299
 20
-21.841235562
 30
0.0
 11
17.772905076
 21
-19.820183273
 31
0.0
  0
LINE
  5
7D
330
1D
100
AcDbEntity
  8
1
  6
Continuous
370
    50
100
AcDbLine
 10
17.772905076
 20
-19.820183273
 30
0.0
 11
17.223185572
 21
-17.748239349
 31
0.0
  0
LINE
  5
7E
330
1D
100
AcDbEntity
  8
1
  6
Continuous
370
    50
100
AcDbLine
 10
17.223185572
 20
-17.748239349
 30
0.0
 11
16.734768285
 21
-15.630723852
 31
0.0
  0
LINE
  5
7F
330
1D
100
AcDbEntity
  8
1
  6
Continuous
370
    50
100
AcDbLine
 10
16.734768285
 20
-15.630723852
 30
0.0
 11
16.308907306
 21
-13.473073856
 31
0.0
  0
LINE
  5
80
330
1D
100
AcDbEntity
  8
1
  6
Continuous
370
    50
100
AcDbLine
 10
16.308907306
 20
-13.473073856
 30
0.0
 11
15.946696105
 21
-11.28082949
 31
0.0
  0
LINE
  5
81
330
1D
100
AcDbEntity
  8
1
  6
Continuous
370
    50
100
AcDbLine
 10
15.946696105
 20
-11.28082949
 30
0.0
 11
15.649064721
 21
-9.059619707
 31
0.0
  0
LINE
  5
82
330
1D
100
AcDbEntity
  8
1
  6
Continuous
370
    50
100
AcDbLine
 10
15.649064721
 20
-9.059619707
 30
0.0
 11
15.416777371
 21
-6.815147835
 31
0.0
  0
LINE
  5
83
330
1D
100
AcDbEntity
  8
1
  6
Continuous
370
    50
100
AcDbLine
 10
15.416777371
 20
-6.815147835
 30
0.0
 11
15.250430492
 21
-4.553176931
 31
0.0
  0
LINE
  5
84
330
1D
100
AcDbEntity
  8
1
  6
Continuous
370
    50
100
AcDbLine
 10
15.250430492
 20
-4.553176931
 30
0.0
 11
15.150451208
 21
-2.279514983
 31
0.0
  0
LINE
  5
85
330
1D
100
AcDbEntity
  8
1
  6
Continuous
370
    50
100
AcDbLine
 10
15.150451208
 20
-2.279514983
 30
0.0
 11
15.117096231
 21
0.0
 31
0.0
  0
LINE
  5
86
330
1D
100
AcDbEntity
  8
1
  6
Continuous
370
    50
100
AcDbLine
 10
15.117096231
 20
0.0
 30
0.0
 11
15.150451208
 21
2.279514983
 31
0.0
  0
LINE
  5
87
330
1D
100
AcDbEntity
  8
1
  6
Continuous
370
    50
100
AcDbLine
 10
15.150451208
 20
2.279514983
 30
0.0
 11
15.250430492
 21
4.553176931
 31
0.0
  0
LINE
  5
88
330
1D
100
AcDbEntity
  8
1
  6
Continuous
370
    50
100
AcDbLine
 10
15.250430492
 20
4.553176931
 30
0.0
 11
15.416777371
 21
6.815147835
 31
0.0
  0
LINE
  5
89
330
1D
100
AcDbEntity
  8
1
  6
Continuous
370
    50
100
AcDbLine
 10
15.416777371
 20
6.815147835
 30
0.0
 11
15.649064721
 21
9.059619707
 31
0.0
  0
LINE
  5
8A
330
1D
100
AcDbEntity
  8
1
  6
Continuous
370
    50
100
AcDbLine
 10
15.649064721
 20
9.059619707
 30
0.0
 11
15.946696105
 21
11.28082949
 31
0.0
  0
LINE
  5
8B
330
1D
100
AcDbEntity
  8
1
  6
Continuous
370
    50
100
AcDbLine
 10
15.946696105
 20
11.28082949
 30
0.0
 11
16.308907306
 21
13.473073856
 31
0.0
  0
LINE
  5
8C
330
1D
100
AcDbEntity
  8
1
  6
Continuous
370
    50
100
AcDbLine
 10
16.308907306
 20
13.473073856
 30
0.0
 11
16.734768285
 21
15.630723852
 31
0.0
  0
LINE
  5
8D
330
1D
100
AcDbEntity
  8
1
  6
Continuous
370
    50
100
AcDbLine
 10
16.734768285
 20
15.630723852
 30
0.0
 11
17.223185572
 21
17.748239349
 31
0.0
  0
LINE
  5
8E
330
1D
100
AcDbEntity
  8
1
  6
Continuous
370
    50
100
AcDbLine
 10
17.223185572
 20
17.748239349
 30
0.0
 11
17.772905076
 21
19.820183274
 31
0.0
  0
LINE
  5
8F
330
1D
100
AcDbEntity
  8
1
  6
Continuous
370
    50
100
AcDbLine
 10
17.772905076
 20
19.820183274
 30
0.0
 11
18.382515299
 21
21.841235562
 31
0.0
  0
LINE
  5
90
330
1D
100
AcDbEntity
  8
1
  6
Continuous
370
    50
100
AcDbLine
 10
18.382515299
 20
21.841235562
 30
0.0
 11
19.050450964
 21
23.806206824
 31
0.0
  0
LINE
  5
91
330
1D
100
AcDbEntity
  8
1
  6
Continuous
370
    50
100
AcDbLine
 10
19.050450964
 20
23.806206824
 30
0.0
 11
19.774997036
 21
25.710051669
 31
0.0
  0
LINE
  5
92
330
1D
100
AcDbEntity
  8
1
  6
Continuous
370
    50
100
AcDbLine
 10
19.774997036
 20
25.710051669
 30
0.0
 11
20.554293121
 21
27.547881655
 31
0.0
  0
LINE
  5
93
330
1D
100
AcDbEntity
  8
1
  6
Continuous
370
    50
100
AcDbLine
 10
20.554293121
 20
27.547881655
 30
0.0
 11
21.386338246
 21
29.314977848
 31
0.0
  0
LINE
  5
94
330
1D
100
AcDbEntity
  8
1
  6
Continuous
370
    50
100
AcDbLine
 10
21.386338246
 20
29.314977848
 30
0.0
 11
22.268995996
 21
31.006802931
 31
0.0
  0
LINE
  5
95
330
1D
100
AcDbEntity
  8
1
  6
Continuous
370
    50
100
AcDbLine
 10
22.268995996
 20
31.006802931
 30
0.0
 11
23.2
 21
32.619012861
 31
0.0
  0
LINE
  5
96
330
1D
100
AcDbEntity
  8
1
  6
Continuous
370
    50
100
AcDbLine
 10
54.0
 20
-32.619012861
 30
0.0
 11
23.2
 21
-32.619012861
 31
0.0
  0
LINE
  5
97
330
1D
100
AcDbEntity
  8
1
  6
Continuous
370
    50
100
AcDbLine
 10
79.158548116
 20
-36.323007236
 30
0.0
 11
72.619003457
 21
-35.450948107
 31
0.0
  0
LINE
  5
98
330
1D
100
AcDbEntity
  8
1
  6
Continuous
370
    50
100
AcDbLine
 10
72.619003457
 20
-35.450948107
 30
0.0
 11
66.241704669
 21
-34.542297954
 31
0.0
  0
LINE
  5
99
330
1D
100
AcDbEntity
  8
1
  6
Continuous
370
    50
100
AcDbLine
 10
66.241704669
 20
-34.542297954
 30
0.0
 11
60.03323414
 21
-33.597994648
 31
0.0
  0
LINE
  5
9A
330
1D
100
AcDbEntity
  8
1
  6
Continuous
370
    50
100
AcDbLine
 10
60.03323414
 20
-33.597994648
 30
0.0
 11
54.0
 21
-32.619012861
 31
0.0
  0
LINE
  5
9B
330
1D
100
AcDbEntity
  8
1
  6
Continuous
370
    50
100
AcDbLine
 10
82.969059892
 20
-40.4
 30
0.0
 11
47.0
 21
-40.4
 31
0.0
  0
LINE
  5
9C
330
1D
100
AcDbEntity
  8
1
  6
Continuous
370
    50
100
AcDbLine
 10
46.3033321
 20
-43.0
 30
0.0
 11
47.0
 21
-40.4
 31
0.0
  0
LINE
  5
9D
330
1D
100
AcDbEntity
  8
1
  6
Continuous
370
    50
100
AcDbLine
 10
46.3033321
 20
-43.0
 30
0.0
 11
16.2
 21
-43.0
 31
0.0
  0
LINE
  5
9E
330
1D
100
AcDbEntity
  8
1
  6
Continuous
370
    50
100
AcDbLine
 10
15.333974596
 20
-44.5
 30
0.0
 11
16.2
 21
-43.0
 31
0.0
  0
LINE
  5
9F
330
1D
100
AcDbEntity
  8
1
  6
Continuous
370
    50
100
AcDbLine
 10
1.0
 20
-44.5
 30
0.0
 11
15.333974596
 21
-44.5
 31
0.0
  0
LINE
  5
A0
330
1D
100
AcDbEntity
  8
1
  6
Continuous
370
    50
100
AcDbLine
 10
23.2
 20
-32.619012861
 30
0.0
 11
23.2
 21
32.619012861
 31
0.0
  0
LINE
  5
A1
330
1D
100
AcDbEntity
  8
1
  6
Continuous
370
    50
100
AcDbLine
 10
54.0
 20
-32.619012861
 30
0.0
 11
54.0
 21
32.619012861
 31
0.0
  0
LINE
  5
A2
330
1D
100
AcDbEntity
  8
1
  6
Continuous
370
    50
100
AcDbLine
 10
80.88446864
 20
30.054658588
 30
0.0
 11
64.886346229
 21
34.341342569
 31
0.0
  0
ARC
  5
A3
330
1D
100
AcDbEntity
  8
1
  6
Continuous
370
    50
100
AcDbCircle
 10
79.349722618
 20
-34.666801829
 30
0.0
 40
1.667202459
100
AcDbArc
 50
263.415533125
 51
337.00686724
  0
CIRCLE
  5
A4
330
1D
100
AcDbEntity
  8
1
  6
Continuous
370
    50
100
AcDbCircle
 10
48.0
 20
0.0
 30
0.0
 40
5.25
  0
LINE
  5
A5
330
1D
100
AcDbEntity
  8
1
  6
Continuous
370
    50
100
AcDbLine
 10
80.890598923
 20
-35.31033915
 30
0.0
 11
80.88446864
 21
-35.318045783
 31
0.0
  0
LINE
  5
A6
330
1D
100
AcDbEntity
  8
1
  6
Continuous
370
    50
100
AcDbLine
 10
83.2
 20
-32.368966619
 30
0.0
 11
80.890598923
 21
-35.31033915
 31
0.0
  0
LINE
  5
A7
330
1D
100
AcDbEntity
  8
1
  6
Continuous
370
    50
100
AcDbLine
 10
83.2
 20
-32.368966619
 30
0.0
 11
83.2
 21
29.43421383
 31
0.0
  0
LINE
  5
A8
330
1D
100
AcDbEntity
  8
1
  6
Continuous
370
    50
100
AcDbLine
 10
83.2
 20
29.43421383
 30
0.0
 11
80.88446864
 21
30.054658588
 31
0.0
  0
LINE
  5
A9
330
1D
100
AcDbEntity
  8
1
  6
Continuous
370
    50
100
AcDbLine
 10
83.2
 20
-40.0
 30
0.0
 11
83.2
 21
-32.368966619
 31
0.0
  0
LINE
  5
AA
330
1D
100
AcDbEntity
  8
SK1
100
AcDbLine
 10
-44.0
 20
0.0
 30
0.0
 11
-44.0
 21
23.0
 31
0.0
  0
LINE
  5
AB
330
1D
100
AcDbEntity
  8
SK1
100
AcDbLine
 10
-44.0
 20
-23.0
 30
0.0
 11
-44.0
 21
0.0
 31
0.0
  0
LINE
  5
AC
330
1D
100
AcDbEntity
  8
SK1
100
AcDbLine
 10
-2.555056733
 20
-23.0
 30
0.0
 11
-2.555056733
 21
23.0
 31
0.0
  0
LINE
  5
AD
330
1D
100
AcDbEntity
  8
SK1
100
AcDbLine
 10
-46.605707514
 20
-22.633791691
 30
0.0
 11
-46.605707514
 21
22.633791691
 31
0.0
  0
LINE
  5
AE
330
1D
100
AcDbEntity
  8
SK1
100
AcDbLine
 10
-50.0
 20
-22.1
 30
0.0
 11
-50.0
 21
22.1
 31
0.0
  0
LINE
  5
AF
330
1D
100
AcDbEntity
  8
SK1
100
AcDbLine
 10
-24.896312545
 20
-6.936667654
 30
0.0
 11
-26.014981517
 21
-5.797049204
 31
0.0
  0
LINE
  5
B0
330
1D
100
AcDbEntity
  8
SK1
100
AcDbLine
 10
-26.014981517
 20
-5.797049204
 30
0.0
 11
-26.92991681
 21
-4.482478241
 31
0.0
  0
LINE
  5
B1
330
1D
100
AcDbEntity
  8
SK1
100
AcDbLine
 10
-26.92991681
 20
-4.482478241
 30
0.0
 11
-27.608204916
 21
-3.011316513
 31
0.0
  0
LINE
  5
B2
330
1D
100
AcDbEntity
  8
SK1
100
AcDbLine
 10
-27.608204916
 20
-3.011316513
 30
0.0
 11
-28.017491181
 21
-1.433372104
 31
0.0
  0
LINE
  5
B3
330
1D
100
AcDbEntity
  8
SK1
100
AcDbLine
 10
-28.017491181
 20
-1.433372104
 30
0.0
 11
-28.132460798
 21
0.044533704
 31
0.0
  0
LINE
  5
B4
330
1D
100
AcDbEntity
  8
SK1
100
AcDbLine
 10
-28.132460798
 20
0.044533704
 30
0.0
 11
-28.002733117
 21
1.521045581
 31
0.0
  0
LINE
  5
B5
330
1D
100
AcDbEntity
  8
SK1
100
AcDbLine
 10
-28.002733117
 20
1.521045581
 30
0.0
 11
-27.658292876
 21
2.869522996
 31
0.0
  0
LINE
  5
B6
330
1D
100
AcDbEntity
  8
SK1
100
AcDbLine
 10
-27.658292876
 20
2.869522996
 30
0.0
 11
-27.115587468
 21
4.142924762
 31
0.0
  0
LINE
  5
B7
330
1D
100
AcDbEntity
  8
SK1
100
AcDbLine
 10
-27.115587468
 20
4.142924762
 30
0.0
 11
-26.352326076
 21
5.366311839
 31
0.0
  0
LINE
  5
B8
330
1D
100
AcDbEntity
  8
SK1
100
AcDbLine
 10
-26.352326076
 20
5.366311839
 30
0.0
 11
-25.415433926
 21
6.455145802
 31
0.0
  0
LINE
  5
B9
330
1D
100
AcDbEntity
  8
SK1
100
AcDbLine
 10
-25.415433926
 20
6.455145802
 30
0.0
 11
-24.206405779
 21
7.478540009
 31
0.0
  0
LINE
  5
BA
330
1D
100
AcDbEntity
  8
SK1
100
AcDbLine
 10
-24.206405779
 20
7.478540009
 30
0.0
 11
-22.845263426
 21
8.299086383
 31
0.0
  0
LINE
  5
BB
330
1D
100
AcDbEntity
  8
SK1
100
AcDbLine
 10
-22.845263426
 20
8.299086383
 30
0.0
 11
-21.264576032
 21
8.928742983
 31
0.0
  0
LINE
  5
BC
330
1D
100
AcDbEntity
  8
SK1
100
AcDbLine
 10
-21.264576032
 20
8.928742983
 30
0.0
 11
-19.591004446
 21
9.294444583
 31
0.0
  0
LINE
  5
BD
330
1D
100
AcDbEntity
  8
SK1
100
AcDbLine
 10
-19.591004446
 20
9.294444583
 30
0.0
 11
-17.92111376
 21
9.381981695
 31
0.0
  0
LINE
  5
BE
330
1D
100
AcDbEntity
  8
SK1
100
AcDbLine
 10
-17.92111376
 20
9.381981695
 30
0.0
 11
-16.259529329
 21
9.206274326
 31
0.0
  0
LINE
  5
BF
330
1D
100
AcDbEntity
  8
SK1
100
AcDbLine
 10
-16.259529329
 20
9.206274326
 30
0.0
 11
-14.706113934
 21
8.787329983
 31
0.0
  0
LINE
  5
C0
330
1D
100
AcDbEntity
  8
SK1
100
AcDbLine
 10
-14.706113934
 20
8.787329983
 30
0.0
 11
-13.245707075
 21
8.138111844
 31
0.0
  0
LINE
  5
C1
330
1D
100
AcDbEntity
  8
SK1
100
AcDbLine
 10
-13.245707075
 20
8.138111844
 30
0.0
 11
-11.867544684
 21
7.234362414
 31
0.0
  0
LINE
  5
C2
330
1D
100
AcDbEntity
  8
SK1
100
AcDbLine
 10
-11.867544684
 20
7.234362414
 30
0.0
 11
-10.661793731
 21
6.116845304
 31
0.0
  0
LINE
  5
C3
330
1D
100
AcDbEntity
  8
SK1
100
AcDbLine
 10
-10.661793731
 20
6.116845304
 30
0.0
 11
-9.644238658
 21
4.770947288
 31
0.0
  0
LINE
  5
C4
330
1D
100
AcDbEntity
  8
SK1
100
AcDbLine
 10
-9.644238658
 20
4.770947288
 30
0.0
 11
-8.881594242
 21
3.255227311
 31
0.0
  0
LINE
  5
C5
330
1D
100
AcDbEntity
  8
SK1
100
AcDbLine
 10
-8.881594242
 20
3.255227311
 30
0.0
 11
-8.438984416
 21
1.737212441
 31
0.0
  0
LINE
  5
C6
330
1D
100
AcDbEntity
  8
SK1
100
AcDbLine
 10
-8.438984416
 20
1.737212441
 30
0.0
 11
-8.267643066
 21
0.158405605
 31
0.0
  0
LINE
  5
C7
330
1D
100
AcDbEntity
  8
SK1
100
AcDbLine
 10
-8.267643066
 20
0.158405605
 30
0.0
 11
-8.357973664
 21
-1.267097352
 31
0.0
  0
LINE
  5
C8
330
1D
100
AcDbEntity
  8
SK1
100
AcDbLine
 10
-8.357973664
 20
-1.267097352
 30
0.0
 11
-8.671497055
 21
-2.656184506
 31
0.0
  0
LINE
  5
C9
330
1D
100
AcDbEntity
  8
SK1
100
AcDbLine
 10
-8.671497055
 20
-2.656184506
 30
0.0
 11
-9.189457222
 21
-3.953552805
 31
0.0
  0
LINE
  5
CA
330
1D
100
AcDbEntity
  8
SK1
100
AcDbLine
 10
-9.189457222
 20
-3.953552805
 30
0.0
 11
-9.893146526
 21
-5.151168371
 31
0.0
  0
LINE
  5
CB
330
1D
100
AcDbEntity
  8
SK1
100
AcDbLine
 10
-9.893146526
 20
-5.151168371
 30
0.0
 11
-10.84072245
 21
-6.307672945
 31
0.0
  0
LINE
  5
CC
330
1D
100
AcDbEntity
  8
SK1
100
AcDbLine
 10
-10.84072245
 20
-6.307672945
 30
0.0
 11
-11.954509166
 21
-7.302434221
 31
0.0
  0
LINE
  5
CD
330
1D
100
AcDbEntity
  8
SK1
100
AcDbLine
 10
-11.954509166
 20
-7.302434221
 30
0.0
 11
-13.34117701
 21
-8.188445999
 31
0.0
  0
LINE
  5
CE
330
1D
100
AcDbEntity
  8
SK1
100
AcDbLine
 10
-13.34117701
 20
-8.188445999
 30
0.0
 11
-14.862246368
 21
-8.842056166
 31
0.0
  0
LINE
  5
CF
330
1D
100
AcDbEntity
  8
SK1
100
AcDbLine
 10
-14.862246368
 20
-8.842056166
 30
0.0
 11
-16.519839635
 21
-9.250652718
 31
0.0
  0
LINE
  5
D0
330
1D
100
AcDbEntity
  8
SK1
100
AcDbLine
 10
-16.519839635
 20
-9.250652718
 30
0.0
 11
-18.229419178
 21
-9.386691954
 31
0.0
  0
LINE
  5
D1
330
1D
100
AcDbEntity
  8
SK1
100
AcDbLine
 10
-18.229419178
 20
-9.386691954
 30
0.0
 11
-19.860919059
 21
-9.253937611
 31
0.0
  0
LINE
  5
D2
330
1D
100
AcDbEntity
  8
SK1
100
AcDbLine
 10
-19.860919059
 20
-9.253937611
 30
0.0
 11
-21.445504148
 21
-8.872617061
 31
0.0
  0
LINE
  5
D3
330
1D
100
AcDbEntity
  8
SK1
100
AcDbLine
 10
-21.445504148
 20
-8.872617061
 30
0.0
 11
-22.935724782
 21
-8.252594816
 31
0.0
  0
LINE
  5
D4
330
1D
100
AcDbEntity
  8
SK1
100
AcDbLine
 10
-22.935724782
 20
-8.252594816
 30
0.0
 11
-24.301201105
 21
-7.41050391
 31
0.0
  0
LINE
  5
D5
330
1D
100
AcDbEntity
  8
SK1
100
AcDbLine
 10
-24.301201105
 20
-7.41050391
 30
0.0
 11
-24.896312545
 21
-6.936667654
 31
0.0
  0
CIRCLE
  5
D6
330
1D
100
AcDbEntity
  8
SK1
100
AcDbCircle
 10
-18.2
 20
0.0
 30
0.0
 40
7.75
  0
ARC
  5
D7
330
1D
100
AcDbEntity
  8
1
  6
Continuous
370
    50
100
AcDbCircle
 10
64.001262874
 20
71.567804795
 30
0.0
 40
27.868242765
100
AcDbArc
 50
246.597021654
 51
293.469292466
  0
LINE
  5
D8
330
1D
100
AcDbEntity
  8
1
  6
Continuous
370
    50
100
AcDbLine
 10
76.0
 20
45.105
 30
0.0
 11
75.974816873
 21
45.095967229
 31
0.0
  0
LINE
  5
D9
330
1D
100
AcDbEntity
  8
1
  6
Continuous
370
    50
100
AcDbLine
 10
75.974816873
 20
45.095967229
 30
0.0
 11
75.867162712
 21
45.057535517
 31
0.0
  0
LINE
  5
DA
330
1D
100
AcDbEntity
  8
1
  6
Continuous
370
    50
100
AcDbLine
 10
75.867162712
 20
45.057535517
 30
0.0
 11
75.672091756
 21
44.988651526
 31
0.0
  0
LINE
  5
DB
330
1D
100
AcDbEntity
  8
1
  6
Continuous
370
    50
100
AcDbLine
 10
75.672091756
 20
44.988651526
 30
0.0
 11
75.390092741
 21
44.890803418
 31
0.0
  0
LINE
  5
DC
330
1D
100
AcDbEntity
  8
1
  6
Continuous
370
    50
100
AcDbLine
 10
75.390092741
 20
44.890803418
 30
0.0
 11
75.018569119
 21
44.76505061
 31
0.0
  0
LINE
  5
DD
330
1D
100
AcDbEntity
  8
1
  6
Continuous
370
    50
100
AcDbLine
 10
75.018569119
 20
44.76505061
 30
0.0
 11
74.578435944
 21
44.620783238
 31
0.0
  0
LINE
  5
DE
330
1D
100
AcDbEntity
  8
1
  6
Continuous
370
    50
100
AcDbLine
 10
74.578435944
 20
44.620783238
 30
0.0
 11
74.060314664
 21
44.457598222
 31
0.0
  0
LINE
  5
DF
330
1D
100
AcDbEntity
  8
1
  6
Continuous
370
    50
100
AcDbLine
 10
74.060314664
 20
44.457598222
 30
0.0
 11
73.457102143
 21
44.276826474
 31
0.0
  0
LINE
  5
E0
330
1D
100
AcDbEntity
  8
1
  6
Continuous
370
    50
100
AcDbLine
 10
73.457102143
 20
44.276826474
 30
0.0
 11
72.778901437
 21
44.085650058
 31
0.0
  0
LINE
  5
E1
330
1D
100
AcDbEntity
  8
1
  6
Continuous
370
    50
100
AcDbLine
 10
72.778901437
 20
44.085650058
 30
0.0
 11
72.104087007
 21
43.908361492
 31
0.0
  0
LINE
  5
E2
330
1D
100
AcDbEntity
  8
1
  6
Continuous
370
    50
100
AcDbLine
 10
72.104087007
 20
43.908361492
 30
0.0
 11
71.37367278
 21
43.731296661
 31
0.0
  0
LINE
  5
E3
330
1D
100
AcDbEntity
  8
1
  6
Continuous
370
    50
100
AcDbLine
 10
71.37367278
 20
43.731296661
 30
0.0
 11
70.587986452
 21
43.558381757
 31
0.0
  0
LINE
  5
E4
330
1D
100
AcDbEntity
  8
1
  6
Continuous
370
    50
100
AcDbLine
 10
70.587986452
 20
43.558381757
 30
0.0
 11
69.747015495
 21
43.393840484
 31
0.0
  0
LINE
  5
E5
330
1D
100
AcDbEntity
  8
1
  6
Continuous
370
    50
100
AcDbLine
 10
69.747015495
 20
43.393840484
 30
0.0
 11
68.930124729
 21
43.254709014
 31
0.0
  0
LINE
  5
E6
330
1D
100
AcDbEntity
  8
1
  6
Continuous
370
    50
100
AcDbLine
 10
68.930124729
 20
43.254709014
 30
0.0
 11
67.186691838
 21
43.027422138
 31
0.0
  0
LINE
  5
E7
330
1D
100
AcDbEntity
  8
1
  6
Continuous
370
    50
100
AcDbLine
 10
67.186691838
 20
43.027422138
 30
0.0
 11
66.268302025
 21
42.946489305
 31
0.0
  0
LINE
  5
E8
330
1D
100
AcDbEntity
  8
1
  6
Continuous
370
    50
100
AcDbLine
 10
66.268302025
 20
42.946489305
 30
0.0
 11
65.317546856
 21
42.891271144
 31
0.0
  0
LINE
  5
E9
330
1D
100
AcDbEntity
  8
1
  6
Continuous
370
    50
100
AcDbLine
 10
65.317546856
 20
42.891271144
 30
0.0
 11
64.34996504
 21
42.865098504
 31
0.0
  0
LINE
  5
EA
330
1D
100
AcDbEntity
  8
1
  6
Continuous
370
    50
100
AcDbLine
 10
64.34996504
 20
42.865098504
 30
0.0
 11
63.368582638
 21
42.869580924
 31
0.0
  0
LINE
  5
EB
330
1D
100
AcDbEntity
  8
1
  6
Continuous
370
    50
100
AcDbLine
 10
63.368582638
 20
42.869580924
 30
0.0
 11
62.376869112
 21
42.905836922
 31
0.0
  0
LINE
  5
EC
330
1D
100
AcDbEntity
  8
1
  6
Continuous
370
    50
100
AcDbLine
 10
62.376869112
 20
42.905836922
 30
0.0
 11
60.621456851
 21
43.047731163
 31
0.0
  0
LINE
  5
ED
330
1D
100
AcDbEntity
  8
1
  6
Continuous
370
    50
100
AcDbLine
 10
60.621456851
 20
43.047731163
 30
0.0
 11
58.438686503
 21
43.360408167
 31
0.0
  0
LINE
  5
EE
330
1D
100
AcDbEntity
  8
1
  6
Continuous
370
    50
100
AcDbLine
 10
58.438686503
 20
43.360408167
 30
0.0
 11
57.567078957
 21
43.526433688
 31
0.0
  0
LINE
  5
EF
330
1D
100
AcDbEntity
  8
1
  6
Continuous
370
    50
100
AcDbLine
 10
57.567078957
 20
43.526433688
 30
0.0
 11
56.736723558
 21
43.705894376
 31
0.0
  0
LINE
  5
F0
330
1D
100
AcDbEntity
  8
1
  6
Continuous
370
    50
100
AcDbLine
 10
56.736723558
 20
43.705894376
 30
0.0
 11
55.942614981
 21
43.896575685
 31
0.0
  0
LINE
  5
F1
330
1D
100
AcDbEntity
  8
1
  6
Continuous
370
    50
100
AcDbLine
 10
55.942614981
 20
43.896575685
 30
0.0
 11
55.203272995
 21
44.09050926
 31
0.0
  0
LINE
  5
F2
330
1D
100
AcDbEntity
  8
1
  6
Continuous
370
    50
100
AcDbLine
 10
55.203272995
 20
44.09050926
 30
0.0
 11
54.598288315
 21
44.260730242
 31
0.0
  0
LINE
  5
F3
330
1D
100
AcDbEntity
  8
1
  6
Continuous
370
    50
100
AcDbLine
 10
54.598288315
 20
44.260730242
 30
0.0
 11
53.548828821
 21
44.580030435
 31
0.0
  0
LINE
  5
F4
330
1D
100
AcDbEntity
  8
1
  6
Continuous
370
    50
100
AcDbLine
 10
53.548828821
 20
44.580030435
 30
0.0
 11
53.110750784
 21
44.722129103
 31
0.0
  0
LINE
  5
F5
330
1D
100
AcDbEntity
  8
1
  6
Continuous
370
    50
100
AcDbLine
 10
53.110750784
 20
44.722129103
 30
0.0
 11
52.754412671
 21
44.841462463
 31
0.0
  0
LINE
  5
F6
330
1D
100
AcDbEntity
  8
1
  6
Continuous
370
    50
100
AcDbLine
 10
52.754412671
 20
44.841462463
 30
0.0
 11
52.341647459
 21
44.983836713
 31
0.0
  0
LINE
  5
F7
330
1D
100
AcDbEntity
  8
1
  6
Continuous
370
    50
100
AcDbLine
 10
52.341647459
 20
44.983836713
 30
0.0
 11
52.085908058
 21
45.074252575
 31
0.0
  0
LINE
  5
F8
330
1D
100
AcDbEntity
  8
1
  6
Continuous
370
    50
100
AcDbLine
 10
52.085908058
 20
45.074252575
 30
0.0
 11
52.008904549
 21
45.101804243
 31
0.0
  0
LINE
  5
F9
330
1D
100
AcDbEntity
  8
1
  6
Continuous
370
    50
100
AcDbLine
 10
52.008904549
 20
45.101804243
 30
0.0
 11
52.01019899
 21
45.101339872
 31
0.0
  0
LINE
  5
FA
330
1D
100
AcDbEntity
  8
4
  6
LONGDASH_DASH
370
    25
100
AcDbLine
 10
64.0
 20
-45.389405719
 30
0.0
 11
64.0
 21
49.235819661
 31
0.0
  0
LINE
  5
FB
330
1D
100
AcDbEntity
  8
3
  6
DASH
370
    35
100
AcDbLine
 10
51.501
 20
-35.75
 30
0.0
 11
51.501
 21
37.927935281
 31
0.0
  0
LINE
  5
FC
330
1D
100
AcDbEntity
  8
3
  6
DASH
370
    35
100
AcDbLine
 10
79.0
 20
-35.75
 30
0.0
 11
49.0
 21
-35.75
 31
0.0
  0
LINE
  5
FD
330
1D
100
AcDbEntity
  8
3
  6
DASH
370
    35
100
AcDbLine
 10
49.0
 20
-35.75
 30
0.0
 11
49.0
 21
-40.4
 31
0.0
  0
LINE
  5
FE
330
1D
100
AcDbEntity
  8
3
  6
DASH
370
    35
100
AcDbLine
 10
79.0
 20
-40.4
 30
0.0
 11
79.0
 21
-35.75
 31
0.0
  0
LINE
  5
FF
330
1D
100
AcDbEntity
  8
3
  6
DASH
370
    35
100
AcDbLine
 10
76.501
 20
31.22920547
 30
0.0
 11
76.501
 21
-35.75
 31
0.0
  0
TEXT
  5
100
330
1D
100
AcDbEntity
  8
SK6
  6
Continuous
370
    35
100
AcDbText
 10
22.559534043
 20
-41.459005531
 30
0.0
 40
3.5
  1
310.705
  7
BMG_Text
100
AcDbText
  0
LINE
  5
101
330
1D
100
AcDbEntity
  8
4
  6
LONGDASH_DASH
370
    25
100
AcDbLine
 10
-0.0000000000000004
 20
9.120436515855367
 30
0.0
 11
63.64738952799999
 21
35.59795759600001
 31
0.0
  0
LINE
  5
102
330
1D
100
AcDbEntity
  8
3
  6
DASH
370
    35
100
AcDbLine
 10
-0.0000000000000007
 20
11.83108969694425
 30
0.0
 11
58.322105008
 21
36.100225703
 31
0.0
  0
LINE
  5
103
330
1D
100
AcDbEntity
  8
3
  6
DASH
370
    35
100
AcDbLine
 10
0.520879021
 20
6.633810545
 30
0.0
 11
66.240794069
 21
33.978419364
 31
0.0
  0
LINE
  5
104
330
1D
100
AcDbEntity
  8
4
  6
LONGDASH_DASH
370
    25
100
AcDbLine
 10
0.0000000000000213
 20
0.0
 30
0.0
 11
85.48480429699998
 21
0.0
 31
0.0
  0
LINE
  5
106
330
1D
100
AcDbEntity
  8
SK3
  6
DASH
370
    35
100
AcDbLine
 10
-2.0
 20
-11.0
 30
0.0
 11
-50.0
 21
-11.0
 31
0.0
  0
LINE
  5
107
330
1D
100
AcDbEntity
  8
SK3
  6
DASH
370
    35
100
AcDbLine
 10
-2.0
 20
0.0
 30
0.0
 11
-2.0
 21
-11.0
 31
0.0
  0
LINE
  5
108
330
1D
100
AcDbEntity
  8
3
  6
DASH
370
    35
100
AcDbLine
 10
-0.0000000000000002
 20
-7.535978586049441
 30
0.0
 11
4.350999999999999
 21
0.0
 31
0.0
  0
LINE
  5
109
330
1D
100
AcDbEntity
  8
3
  6
DASH
370
    35
100
AcDbLine
 10
-0.0000000000000002
 20
7.535978586049441
 30
0.0
 11
4.350999999999999
 21
0.0
 31
0.0
  0
LINE
  5
10A
330
1D
100
AcDbEntity
  8
SK3
  6
DASH
370
    35
100
AcDbLine
 10
-2.0
 20
0.0
 30
0.0
 11
-2.0
 21
11.0
 31
0.0
  0
LINE
  5
10B
330
1D
100
AcDbEntity
  8
SK3
  6
DASH
370
    35
100
AcDbLine
 10
-2.0
 20
11.0
 30
0.0
 11
-50.0
 21
11.0
 31
0.0
  0
LINE
  5
10C
330
1D
100
AcDbEntity
  8
SK2
100
AcDbLine
 10
-61.65532589
 20
-23.0
 30
0.0
 11
-44.0
 21
-23.0
 31
0.0
  0
LINE
  5
10D
330
1D
100
AcDbEntity
  8
SK2
100
AcDbLine
 10
-59.65532589
 20
-23.0
 30
0.0
 11
-60.10532589
 21
-19.5
 31
0.0
  0
LINE
  5
10E
330
1D
100
AcDbEntity
  8
SK2
100
AcDbLine
 10
-60.10532589
 20
-19.5
 30
0.0
 11
-59.20532589
 21
-19.5
 31
0.0
  0
LINE
  5
10F
330
1D
100
AcDbEntity
  8
SK2
100
AcDbLine
 10
-59.20532589
 20
-19.5
 30
0.0
 11
-59.65532589
 21
-23.0
 31
0.0
  0
LINE
  5
110
330
1D
100
AcDbEntity
  8
SK2
100
AcDbLine
 10
-61.65532589
 20
23.0
 30
0.0
 11
-44.0
 21
23.0
 31
0.0
  0
LINE
  5
111
330
1D
100
AcDbEntity
  8
SK2
100
AcDbLine
 10
-59.65532589
 20
23.0
 30
0.0
 11
-59.20532589
 21
19.5
 31
0.0
  0
LINE
  5
112
330
1D
100
AcDbEntity
  8
SK2
100
AcDbLine
 10
-59.20532589
 20
19.5
 30
0.0
 11
-60.10532589
 21
19.5
 31
0.0
  0
LINE
  5
113
330
1D
100
AcDbEntity
  8
SK2
100
AcDbLine
 10
-60.10532589
 20
19.5
 30
0.0
 11
-59.65532589
 21
23.0
 31
0.0
  0
LINE
  5
114
330
1D
100
AcDbEntity
  8
SK2
100
AcDbLine
 10
-59.65532589
 20
-19.5
 30
0.0
 11
-59.65532589
 21
19.5
 31
0.0
  0
TEXT
  5
115
330
1D
100
AcDbEntity
  8
SK2
100
AcDbText
 10
-61.15532589
 20
0.139999486
 30
0.0
 40
3.5
  1
46
 50
90.0
  7
BMG_Text
100
AcDbText
  0
CIRCLE
  5
116
330
1D
100
AcDbEntity
  8
SK2
100
AcDbCircle
 10
-62.40532589
 20
-2.110000514
 30
0.0
 40
1.25
  0
LINE
  5
117
330
1D
100
AcDbEntity
  8
SK2
100
AcDbLine
 10
-61.15532589
 20
-3.360000514
 30
0.0
 11
-63.65532589
 21
-0.860000514
 31
0.0
  0
LINE
  5
118
330
1D
100
AcDbEntity
  8
2
  6
Continuous
370
    25
100
AcDbLine
 10
-68.95614624
 20
-44.5
 30
0.0
 11
1.0
 21
-44.5
 31
0.0
  0
LINE
  5
119
330
1D
100
AcDbEntity
  8
2
  6
Continuous
370
    25
100
AcDbLine
 10
-66.95614624
 20
-44.5
 30
0.0
 11
-67.40614624
 21
-41.0
 31
0.0
  0
LINE
  5
11A
330
1D
100
AcDbEntity
  8
2
  6
Continuous
370
    25
100
AcDbLine
 10
-67.40614624
 20
-41.0
 30
0.0
 11
-66.50614624
 21
-41.0
 31
0.0
  0
LINE
  5
11B
330
1D
100
AcDbEntity
  8
2
  6
Continuous
370
    25
100
AcDbLine
 10
-66.50614624
 20
-41.0
 30
0.0
 11
-66.95614624
 21
-44.5
 31
0.0
  0
LINE
  5
11C
330
1D
100
AcDbEntity
  8
2
  6
Continuous
370
    25
100
AcDbLine
 10
-68.95614624
 20
45.0
 30
0.0
 11
1.0
 21
45.0
 31
0.0
  0
LINE
  5
11D
330
1D
100
AcDbEntity
  8
2
  6
Continuous
370
    25
100
AcDbLine
 10
-66.95614624
 20
45.0
 30
0.0
 11
-66.50614624
 21
41.5
 31
0.0
  0
LINE
  5
11E
330
1D
100
AcDbEntity
  8
2
  6
Continuous
370
    25
100
AcDbLine
 10
-66.50614624
 20
41.5
 30
0.0
 11
-67.40614624
 21
41.5
 31
0.0
  0
LINE
  5
11F
330
1D
100
AcDbEntity
  8
2
  6
Continuous
370
    25
100
AcDbLine
 10
-67.40614624
 20
41.5
 30
0.0
 11
-66.95614624
 21
45.0
 31
0.0
  0
LINE
  5
120
330
1D
100
AcDbEntity
  8
2
  6
Continuous
370
    25
100
AcDbLine
 10
-66.95614624
 20
-41.0
 30
0.0
 11
-66.95614624
 21
41.5
 31
0.0
  0
TEXT
  5
121
330
1D
100
AcDbEntity
  8
2
  6
Continuous
370
    25
100
AcDbText
 10
-68.45614624
 20
0.389999
 30
0.0
 40
3.5
  1
90
 50
90.0
  7
BMG_Text
100
AcDbText
  0
CIRCLE
  5
122
330
1D
100
AcDbEntity
  8
2
  6
Continuous
370
    25
100
AcDbCircle
 10
-69.70614624
 20
-1.860001
 30
0.0
 40
1.25
  0
LINE
  5
123
330
1D
100
AcDbEntity
  8
2
  6
Continuous
370
    25
100
AcDbLine
 10
-68.45614624
 20
-3.110001
 30
0.0
 11
-70.95614624
 21
-0.610001
 31
0.0
  0
LINE
  5
124
330
1D
100
AcDbEntity
  8
2
  6
Continuous
370
    25
100
AcDbLine
 10
0.0
 20
-56.110063553
 30
0.0
 11
0.0
 21
-44.0
 31
0.0
  0
LINE
  5
125
330
1D
100
AcDbEntity
  8
2
  6
Continuous
370
    25
100
AcDbLine
 10
0.0
 20
-54.110063553
 30
0.0
 11
3.5
 21
-53.660063553
 31
0.0
  0
LINE
  5
126
330
1D
100
AcDbEntity
  8
2
  6
Continuous
370
    25
100
AcDbLine
 10
3.5
 20
-53.660063553
 30
0.0
 11
3.5
 21
-54.560063553
 31
0.0
  0
LINE
  5
127
330
1D
100
AcDbEntity
  8
2
  6
Continuous
370
    25
100
AcDbLine
 10
3.5
 20
-54.560063553
 30
0.0
 11
0.0
 21
-54.110063553
 31
0.0
  0
LINE
  5
128
330
1D
100
AcDbEntity
  8
2
  6
Continuous
370
    25
100
AcDbLine
 10
83.2
 20
-56.110063553
 30
0.0
 11
83.2
 21
-40.0
 31
0.0
  0
LINE
  5
129
330
1D
100
AcDbEntity
  8
2
  6
Continuous
370
    25
100
AcDbLine
 10
83.2
 20
-54.110063553
 30
0.0
 11
79.7
 21
-54.560063553
 31
0.0
  0
LINE
  5
12A
330
1D
100
AcDbEntity
  8
2
  6
Continuous
370
    25
100
AcDbLine
 10
79.7
 20
-54.560063553
 30
0.0
 11
79.7
 21
-53.660063553
 31
0.0
  0
LINE
  5
12B
330
1D
100
AcDbEntity
  8
2
  6
Continuous
370
    25
100
AcDbLine
 10
79.7
 20
-53.660063553
 30
0.0
 11
83.2
 21
-54.110063553
 31
0.0
  0
LINE
  5
12C
330
1D
100
AcDbEntity
  8
2
  6
Continuous
370
    25
100
AcDbLine
 10
3.5
 20
-54.110063553
 30
0.0
 11
79.7
 21
-54.110063553
 31
0.0
  0
TEXT
  5
12D
330
1D
100
AcDbEntity
  8
2
  6
Continuous
370
    25
100
AcDbText
 10
38.51343657
 20
-52.610063553
 30
0.0
 40
3.5
  1
83.2
  7
BMG_Text
100
AcDbText
  0
LINE
  5
12E
330
1D
100
AcDbEntity
  8
2
  6
Continuous
370
    25
100
AcDbLine
 10
0.0
 20
57.02939415
 30
0.0
 11
0.0
 21
44.0
 31
0.0
  0
LINE
  5
12F
330
1D
100
AcDbEntity
  8
2
  6
Continuous
370
    25
100
AcDbLine
 10
0.0
 20
55.02939415
 30
0.0
 11
3.500000001
 21
55.47939414
 31
0.0
  0
LINE
  5
130
330
1D
100
AcDbEntity
  8
2
  6
Continuous
370
    25
100
AcDbLine
 10
3.500000001
 20
55.47939414
 30
0.0
 11
3.499999999
 21
54.57939414
 31
0.0
  0
LINE
  5
131
330
1D
100
AcDbEntity
  8
2
  6
Continuous
370
    25
100
AcDbLine
 10
3.499999999
 20
54.57939414
 30
0.0
 11
0.0
 21
55.02939415
 31
0.0
  0
LINE
  5
132
330
1D
100
AcDbEntity
  8
2
  6
Continuous
370
    25
100
AcDbLine
 10
86.981839179
 20
57.029393914
 30
0.0
 11
86.981839179
 21
49.600163224
 31
0.0
  0
LINE
  5
133
330
1D
100
AcDbEntity
  8
2
  6
Continuous
370
    25
100
AcDbLine
 10
86.981839179
 20
55.029393914
 30
0.0
 11
83.481839178
 21
54.579393924
 31
0.0
  0
LINE
  5
134
330
1D
100
AcDbEntity
  8
2
  6
Continuous
370
    25
100
AcDbLine
 10
83.481839178
 20
54.579393924
 30
0.0
 11
83.48183918
 21
55.479393924
 31
0.0
  0
LINE
  5
135
330
1D
100
AcDbEntity
  8
2
  6
Continuous
370
    25
100
AcDbLine
 10
83.48183918
 20
55.479393924
 30
0.0
 11
86.981839179
 21
55.029393914
 31
0.0
  0
LINE
  5
136
330
1D
100
AcDbEntity
  8
2
  6
Continuous
370
    25
100
AcDbLine
 10
3.5
 20
55.02939414
 30
0.0
 11
83.481839179
 21
55.029393924
 31
0.0
  0
TEXT
  5
137
330
1D
100
AcDbEntity
  8
2
  6
Continuous
370
    25
100
AcDbText
 10
41.826231121
 20
56.529394037
 30
0.0
 40
3.5
  1
87
 50
359.999999845
  7
BMG_Text
100
AcDbText
  0
LINE
  5
13A
330
1D
100
AcDbEntity
  8
2
  6
Continuous
370
    25
100
AcDbLine
 10
102.552259063
 20
50.000163922
 30
0.0
 11
86.581839179
 21
50.000163224
 31
0.0
  0
LINE
  5
13B
330
1D
100
AcDbEntity
  8
2
  6
Continuous
370
    25
100
AcDbLine
 10
100.552259063
 20
50.000163835
 30
0.0
 11
101.002259216
 21
46.500163855
 31
0.0
  0
LINE
  5
13C
330
1D
100
AcDbEntity
  8
2
  6
Continuous
370
    25
100
AcDbLine
 10
101.002259216
 20
46.500163855
 30
0.0
 11
100.102259216
 21
46.500163815
 31
0.0
  0
LINE
  5
13D
330
1D
100
AcDbEntity
  8
2
  6
Continuous
370
    25
100
AcDbLine
 10
100.102259216
 20
46.500163815
 30
0.0
 11
100.552259063
 21
50.000163835
 31
0.0
  0
LINE
  5
13E
330
1D
100
AcDbEntity
  8
2
  6
Continuous
370
    25
100
AcDbLine
 10
100.552261467
 20
-5.000015659
 30
0.0
 11
100.552259216
 21
46.500163835
 31
0.0
  0
TEXT
  5
13F
330
1D
100
AcDbEntity
  8
2
  6
Continuous
370
    25
100
AcDbText
 10
99.032136919
 20
-5.163641072
 30
0.0
 40
3.5
  1
100
 50
90.00000250400001
  7
BMG_Text
100
AcDbText
  0
CIRCLE
  5
140
330
1D
100
AcDbEntity
  8
2
  6
Continuous
370
    25
100
AcDbCircle
 10
97.782137018
 20
-7.413641127
 30
0.0
 40
1.25
  0
LINE
  5
141
330
1D
100
AcDbEntity
  8
2
  6
Continuous
370
    25
100
AcDbLine
 10
99.032137072
 20
-8.663641072
 30
0.0
 11
96.532136963
 21
-6.163641181
 31
0.0
  0
TEXT
  5
142
330
1D
100
AcDbEntity
  8
2
  6
Continuous
370
    25
100
AcDbText
 10
99.032136644
 20
1.142296428
 30
0.0
 40
3.5
  1
-153
 50
90.00000250400001
  7
BMG_Text
100
AcDbText
  0
LINE
  5
1E2
330
1D
100
AcDbEntity
  8
NOCUT
100
AcDbLine
 10
0.0
 20
0.0
 30
0.0
 11
83.2
 21
0.0
 31
0.0
  0
LINE
  5
1EE
330
1D
100
AcDbEntity
  8
NOCUT
100
AcDbLine
 10
0.0
 20
0.0
 30
0.0
 11
0.0
 21
44.0
 31
0.0
  0
LINE
  5
1EF
330
1D
100
AcDbEntity
  8
NOCUT
100
AcDbLine
 10
0.0
 20
44.0
 30
0.0
 11
1.0
 21
45.0
 31
0.0
  0
LINE
  5
1F0
330
1D
100
AcDbEntity
  8
NOCUT
100
AcDbLine
 10
1.0
 20
45.0
 30
0.0
 11
15.045299462
 21
45.0
 31
0.0
  0
LINE
  5
1F1
330
1D
100
AcDbEntity
  8
NOCUT
100
AcDbLine
 10
15.045299462
 20
45.0
 30
0.0
 11
16.2
 21
43.0
 31
0.0
  0
LINE
  5
1F2
330
1D
100
AcDbEntity
  8
NOCUT
100
AcDbLine
 10
16.2
 20
43.0
 30
0.0
 11
46.42820323
 21
43.0
 31
0.0
  0
LINE
  5
1F3
330
1D
100
AcDbEntity
  8
NOCUT
100
AcDbLine
 10
46.42820323
 20
43.0
 30
0.0
 11
46.964101615
 21
41.0
 31
0.0
  0
LINE
  5
1F4
330
1D
100
AcDbEntity
  8
NOCUT
100
AcDbLine
 10
46.964101615
 20
41.0
 30
0.0
 11
47.1248711305
 21
40.4
 31
0.0
  0
LINE
  5
1F5
330
1D
100
AcDbEntity
  8
NOCUT
100
AcDbLine
 10
47.1248711305
 20
40.4
 30
0.0
 11
48.087320508
 21
40.4
 31
0.0
  0
LINE
  5
1F6
330
1D
100
AcDbEntity
  8
NOCUT
100
AcDbLine
 10
48.087320508
 20
40.4
 30
0.0
 11
52.0
 21
41.447790907
 31
0.0
  0
LINE
  5
1F7
330
1D
100
AcDbEntity
  8
NOCUT
100
AcDbLine
 10
52.0
 20
41.447790907
 30
0.0
 11
52.0
 21
45.10135318
 31
0.0
  0
LINE
  5
1F8
330
1D
100
AcDbEntity
  8
NOCUT
100
AcDbLine
 10
52.93211955808835
 20
45.99217144877016
 30
0.0
 11
58.56892611454214
 21
45.99217144877016
 31
0.0
  0
LINE
  5
1F9
330
1D
100
AcDbEntity
  8
NOCUT
100
AcDbLine
 10
58.56892611454214
 20
45.99217144877016
 30
0.0
 11
59.75290739
 21
45.797637462
 31
0.0
  0
LINE
  5
1FA
330
1D
100
AcDbEntity
  8
NOCUT
100
AcDbLine
 10
59.75290739
 20
45.797637462
 30
0.0
 11
60.9
 21
46.105
 31
0.0
  0
LINE
  5
1FB
330
1D
100
AcDbEntity
  8
NOCUT
100
AcDbLine
 10
60.9
 20
46.105
 30
0.0
 11
67.1
 21
46.105
 31
0.0
  0
LINE
  5
1FC
330
1D
100
AcDbEntity
  8
NOCUT
100
AcDbLine
 10
67.1
 20
46.105
 30
0.0
 11
68.245289062
 21
45.798120721
 31
0.0
  0
LINE
  5
1FD
330
1D
100
AcDbEntity
  8
NOCUT
100
AcDbLine
 10
68.245289062
 20
45.798120721
 30
0.0
 11
69.493282295
 21
46.005
 31
0.0
  0
LINE
  5
1FE
330
1D
100
AcDbEntity
  8
NOCUT
100
AcDbLine
 10
69.493282295
 20
46.005
 30
0.0
 11
75.10000000058076
 21
46.00499999967222
 31
0.0
  0
LINE
  5
1FF
330
1D
100
AcDbEntity
  8
NOCUT
100
AcDbLine
 10
75.10000000058076
 20
46.00499999967222
 30
0.0
 11
76.218942984
 21
47.943066099
 31
0.0
  0
LINE
  5
200
330
1D
100
AcDbEntity
  8
NOCUT
100
AcDbLine
 10
76.218942984
 20
47.943066099
 30
0.0
 11
84.555660938
 21
49.413054405
 31
0.0
  0
LINE
  5
201
330
1D
100
AcDbEntity
  8
NOCUT
100
AcDbLine
 10
84.555660938
 20
49.413054405
 30
0.0
 11
84.715987907
 21
49.098395011
 31
0.0
  0
LINE
  5
202
330
1D
100
AcDbEntity
  8
NOCUT
100
AcDbLine
 10
84.715987907
 20
49.098395011
 30
0.0
 11
86.71909791851077
 21
49.63365414155358
 31
0.0
  0
LINE
  5
203
330
1D
100
AcDbEntity
  8
NOCUT
100
AcDbLine
 10
86.71909791851077
 20
49.63365414155358
 30
0.0
 11
86.26033600789582
 21
40.15322689191643
 31
0.0
  0
LINE
  5
204
330
1D
100
AcDbEntity
  8
NOCUT
100
AcDbLine
 10
86.26033600789582
 20
40.15322689191643
 30
0.0
 11
86.078739808
 21
39.600455363
 31
0.0
  0
LINE
  5
205
330
1D
100
AcDbEntity
  8
NOCUT
100
AcDbLine
 10
86.078739808
 20
39.600455363
 30
0.0
 11
86.046258056
 21
39.585597007
 31
0.0
  0
LINE
  5
206
330
1D
100
AcDbEntity
  8
NOCUT
100
AcDbLine
 10
86.046258056
 20
39.585597007
 30
0.0
 11
85.937218587
 21
37.505
 31
0.0
  0
LINE
  5
207
330
1D
100
AcDbEntity
  8
NOCUT
100
AcDbLine
 10
85.937218587
 20
37.505
 30
0.0
 11
83.2
 21
37.505
 31
0.0
  0
LINE
  5
208
330
1D
100
AcDbEntity
  8
NOCUT
100
AcDbLine
 10
83.2
 20
37.505
 30
0.0
 11
83.2
 21
0.0
 31
0.0
  0
ARC
  5
209
330
1D
100
AcDbEntity
  8
NOCUT
100
AcDbCircle
 10
52.88707342802633
 20
45.10931840613622
 30
0.0
 40
0.8871091880584924
100
AcDbArc
 50
84.38524111789852
 51
180.5144574974214
  0
LINE
  5
20B
330
1D
100
AcDbEntity
  8
1
100
AcDbLine
 10
84.586869883
 20
49.351803402
 30
0.0
 11
84.715987907
 21
49.098395011
 31
0.0
  0
LINE
  5
20C
330
1D
100
AcDbEntity
  8
1
100
AcDbLine
 10
84.715987907
 20
49.098395011
 30
0.0
 11
80.069015866
 21
46.730644494
 31
0.0
  0
LINE
  5
20D
330
1D
100
AcDbEntity
  8
3
100
AcDbLine
 10
84.71598789801108
 20
49.09839502864176
 30
0.0
 11
86.71909791851077
 21
49.63365414155358
 31
0.0
  0
LINE
  5
20E
330
1D
100
AcDbEntity
  8
3
100
AcDbLine
 10
86.71909791851077
 20
49.63365414155358
 30
0.0
 11
86.26033600789582
 21
40.15322689191643
 31
0.0
  0
LINE
  5
20F
330
1D
100
AcDbEntity
  8
3
100
AcDbLine
 10
86.26033600789582
 20
40.15322689191643
 30
0.0
 11
86.078739808
 21
39.600455363
 31
0.0
  0
LINE
  5
210
330
1D
100
AcDbEntity
  8
1
100
AcDbLine
 10
86.078739808
 20
39.600455363
 30
0.0
 11
86.046258056
 21
39.585597007
 31
0.0
  0
LINE
  5
211
330
1D
100
AcDbEntity
  8
1
100
AcDbLine
 10
79.901540806
 20
43.535029982
 30
0.0
 11
85.99478474910626
 21
39.57412739367338
 31
0.0
  0
LINE
  5
212
330
1D
100
AcDbEntity
  8
1
100
AcDbLine
 10
85.99478474910626
 20
39.57412739367338
 30
0.0
 11
86.04565695903477
 21
39.57412739367338
 31
0.0
  0
CIRCLE
  5
229
102
{ACAD_REACTORS
330
343
102
}
330
1D
100
AcDbEntity
  8
1
100
AcDbCircle
 10
83.559092535
 20
44.9455415725
 30
0.0
 40
1.899973599500008
  0
LWPOLYLINE
  5
22B
330
1D
100
AcDbEntity
  8
INFTOTAL
100
AcDbPolyline
 90
        4
 70
     1
 43
0.0
 10
-138.613809845527
 20
106.615797704207
 10
-138.613809845527
 20
-88.87369046346173
 10
181.5944912481024
 20
-88.87369046346173
 10
181.5944912481024
 20
106.615797704207
  0
LINE
  5
285
330
1D
100
AcDbEntity
  8
SK4
100
AcDbLine
 10
-52.773880459
 20
0.0
 30
0.0
 11
85.48480429699998
 21
0.0
 31
0.0
  0
LINE
  5
286
330
1D
100
AcDbEntity
  8
SK4
100
AcDbLine
 10
-2.214253224
 20
8.199299972
 30
0.0
 11
63.64738952799999
 21
35.59795759600001
 31
0.0
  0
LINE
  5
29C
330
1D
100
AcDbEntity
  8
SK3
100
AcDbLine
 10
-2.0
 20
11.0
 30
0.0
 11
0.0
 21
11.83108969694426
 31
0.0
  0
LINE
  5
29D
330
1D
100
AcDbEntity
  8
SK3
100
AcDbLine
 10
-2.0
 20
11.0
 30
0.0
 11
0.0
 21
7.535978586049441
 31
0.0
  0
LINE
  5
29E
330
1D
100
AcDbEntity
  8
SK3
100
AcDbLine
 10
-2.0
 20
-11.0
 30
0.0
 11
0.0
 21
-7.535978586049453
 31
0.0
  0
LINE
  5
30C
330
1D
100
AcDbEntity
  8
CUT
100
AcDbLine
 10
77.798843003
 20
44.900537902
 30
0.0
 11
85.860884194
 21
39.664987136
 31
0.0
  0
ARC
  5
30D
102
{ACAD_REACTORS
330
343
102
}
330
1D
100
AcDbEntity
  8
CUT
100
AcDbCircle
 10
78.016698617
 20
45.23600613
 30
0.0
 40
0.4
100
AcDbArc
 50
117.0000000000002
 51
236.9999999999997
  0
LINE
  5
30E
102
{ACAD_REACTORS
330
343
102
}
330
1D
100
AcDbEntity
  8
CUT
100
AcDbLine
 10
86.400242979
 20
49.95656583400001
 30
0.0
 11
77.835102417
 21
45.592408739
 31
0.0
  0
ARC
  5
30F
102
{ACAD_REACTORS
330
343
102
}
330
1D
100
AcDbEntity
  8
CUT
100
AcDbCircle
 10
86.581839179
 20
49.60016322400001
 30
0.0
 40
0.4
100
AcDbArc
 50
356.9999999999985
 51
117.0000000000007
  0
LINE
  5
310
330
1D
100
AcDbEntity
  8
CUT
100
AcDbLine
 10
86.478191622
 20
39.979520981
 30
0.0
 11
86.981290993
 21
49.579228842
 31
0.0
  0
ARC
  5
311
330
1D
100
AcDbEntity
  8
CUT
100
AcDbCircle
 10
86.078739808
 20
40.000455363
 30
0.0
 40
0.4
100
AcDbArc
 50
236.9999999999997
 51
356.9999999999995
  0
HATCH
  5
343
330
1D
100
AcDbEntity
  8
7
100
AcDbHatch
 10
0.0
 20
0.0
 30
0.0
210
0.0
220
0.0
230
1.0
  2
ANSI31
 70
     0
 71
     1
 91
        2
 92
        7
 72
     1
 73
     1
 93
        6
 10
86.47819162192637
 20
39.97952098062711
 42
0.0
 10
86.98129099292638
 20
49.57922884162711
 42
0.5773502689263375
 10
86.40024297907813
 20
49.95656583375651
 42
0.0
 10
77.83510241707813
 20
45.59240873950651
 42
0.5773502691532454
 10
77.79884300299548
 20
44.90053790261638
 42
0.0
 10
85.86088419399549
 20
39.66498713586638
 42
0.5773502693424131
 97
        6
330
5E
330
30F
330
30E
330
30D
330
5A
330
5F
 92
       22
 72
     1
 73
     1
 93
        4
 10
81.6591189355
 20
44.9455415725
 42
-0.0734149394827076
 10
81.74016604337817
 20
45.49454621567185
 42
-0.0708242596229291
 10
81.9656405968067
 20
45.98034136005803
 42
-0.7467354178184611
 10
85.4590661345
 20
44.9455415725
 42
-1.000000000526329
 97
        2
330
60
330
229
 75
     0
 76
     1
 52
0.0
 41
5.0
 77
     0
 78
     1
 53
45.0
 43
0.0
 44
0.0
 45
-0.4419417382415922
 46
0.4419417382415922
 79
     0
 47
0.0
 98
        2
 10
86.16097431462094
 20
47.73375193249336
 10
86.16097431462094
 20
47.73375193249336
1001
ACAD
1010
0.0
1020
0.0
1030
0.0
  0
LINE
  5
352
330
1D
100
AcDbEntity
  8
SK4
100
AcDbLine
 10
64.0
 20
-45.389405719
 30
0.0
 11
64.0
 21
49.235819661
 31
0.0
  0
LINE
  5
353
330
1D
100
AcDbEntity
  8
SK4
100
AcDbLine
 10
85.98789719298465
 20
44.81825331391136
 30
0.0
 11
81.13028787701397
 21
45.07282983108895
 31
0.0
  0
LINE
  5
354
330
1D
100
AcDbEntity
  8
SK4
100
AcDbLine
 10
83.68638079358855
 20
47.37434623048547
 30
0.0
 11
83.43180427641096
 21
42.51673691451479
 31
0.0
  0
LINE
  5
355
330
1D
100
AcDbEntity
  8
SK4
100
AcDbLine
 10
83.6863807935881
 20
47.37434623048549
 30
0.0
 11
83.4318042764105
 21
42.51673691451482
 31
0.0
  0
LINE
  5
356
330
1D
100
AcDbEntity
  8
SK4
100
AcDbLine
 10
85.98789719298419
 20
44.81825331391138
 30
0.0
 11
81.13028787701352
 21
45.07282983108897
 31
0.0
  0
LINE
  5
35B
330
1D
100
AcDbEntity
  8
SK1
100
AcDbLine
 10
0.0000000000000001
 20
-22.46698729810778
 30
0.0
 11
0.0000000000000001
 21
22.46698729810778
 31
0.0
  0
ENDSEC
  0
SECTION
  2
OBJECTS
  0
DICTIONARY
  5
C
330
0
100
AcDbDictionary
281
     1
  3
ACAD_DETAILVIEWSTYLE
350
1EC
  3
ACAD_GROUP
350
D
  3
ACAD_LAYOUT
350
1A
  3
ACAD_MATERIAL
350
181
  3
ACAD_MLEADERSTYLE
350
18E
  3
ACAD_MLINESTYLE
350
17
  3
ACAD_PLOTSETTINGS
350
19
  3
ACAD_PLOTSTYLENAME
350
E
  3
ACAD_SCALELIST
350
14A
  3
ACAD_SECTIONVIEWSTYLE
350
1ED
  3
ACAD_TABLESTYLE
350
1D7
  3
ACAD_VISUALSTYLE
350
170
  3
ACDB_RECOMPOSE_DATA
350
35F
  3
AcDbVariableDictionary
350
18C
  3
APPDATA
350
1DA
  0
SUN
  5
270
330
144
100
AcDbSun
 90
        1
290
     0
 63
     7
421
 16777215
 40
1.0
291
     1
 91
  2455826
 92
 54000000
292
     0
 70
     2
 71
   256
280
     1
  0
DICTIONARY
  5
1DB
330
2
100
AcDbDictionary
280
     1
281
     1
  3
ACAD_LAYERSTATES
360
1DC
  3
ACLYDICTIONARY
360
32F
  0
DICTIONARY
  5
331
330
1D
100
AcDbDictionary
280
     1
281
     1
  3
ACAD_SORTENTS
360
332
  0
DICTIONARY
  5
1EC
102
{ACAD_REACTORS
330
C
102
}
330
C
100
AcDbDictionary
281
     1
  0
DICTIONARY
  5
D
102
{ACAD_REACTORS
330
C
102
}
330
C
100
AcDbDictionary
281
     1
  0
DICTIONARY
  5
1A
102
{ACAD_REACTORS
330
C
102
}
330
C
100
AcDbDictionary
281
     1
  3
Layout1
350
1C
  3
Model
350
1E
  0
DICTIONARY
  5
181
102
{ACAD_REACTORS
330
C
102
}
330
C
100
AcDbDictionary
281
     1
  3
ByBlock
350
183
  3
ByLayer
350
182
  3
Global
350
184
  0
DICTIONARY
  5
18E
102
{ACAD_REACTORS
330
C
102
}
330
C
100
AcDbDictionary
281
     1
  3
Standard
350
1D9
  0
DICTIONARY
  5
17
102
{ACAD_REACTORS
330
C
102
}
330
C
100
AcDbDictionary
281
     1
  3
Standard
350
18
  0
DICTIONARY
  5
19
102
{ACAD_REACTORS
330
C
102
}
330
C
100
AcDbDictionary
281
     1
  0
ACDBDICTIONARYWDFLT
  5
E
102
{ACAD_REACTORS
330
C
102
}
330
C
100
AcDbDictionary
281
     1
  3
Normal
350
F
100
AcDbDictionaryWithDefault
340
F
  0
DICTIONARY
  5
14A
102
{ACAD_REACTORS
330
C
102
}
330
C
100
AcDbDictionary
281
     1
  3
A0
350
14B
  3
A1
350
14C
  3
A2
350
14D
  3
A3
350
14E
  3
A4
350
14F
  3
A5
350
150
  3
A6
350
151
  3
A7
350
152
  3
A8
350
153
  3
A9
350
154
  3
B0
350
155
  3
B1
350
156
  3
B2
350
157
  3
B3
350
158
  3
B4
350
159
  3
B5
350
15A
  3
B6
350
15B
  3
B7
350
15C
  3
B8
350
15D
  3
B9
350
15E
  3
C0
350
15F
  3
C1
350
160
  3
C2
350
161
  3
C3
350
162
  3
C4
350
163
  3
C5
350
164
  3
C6
350
165
  3
C7
350
166
  3
C8
350
167
  3
C9
350
168
  3
D0
350
169
  3
D1
350
16A
  3
D2
350
16B
  0
DICTIONARY
  5
1ED
102
{ACAD_REACTORS
330
C
102
}
330
C
100
AcDbDictionary
281
     1
  0
DICTIONARY
  5
1D7
102
{ACAD_REACTORS
330
C
102
}
330
C
100
AcDbDictionary
281
     1
  3
Standard
350
1D8
  0
DICTIONARY
  5
170
102
{ACAD_REACTORS
330
C
102
}
330
C
100
AcDbDictionary
281
     1
  3
2dWireframe
350
175
  3
3D Hidden
350
177
  3
3dWireframe
350
176
  3
Basic
350
178
  3
Brighten
350
17C
  3
ColorChange
350
180
  3
Conceptual
350
17A
  3
Dim
350
17B
  3
EdgeColorOff
350
1D1
  3
Facepattern
350
17F
  3
Flat
350
171
  3
FlatWithEdges
350
172
  3
Gouraud
350
173
  3
GouraudWithEdges
350
174
  3
Hidden
350
1CE
  3
JitterOff
350
1CF
  3
Linepattern
350
17E
  3
OverhangOff
350
1D0
  3
Realistic
350
179
  3
Shaded
350
1D6
  3
Shaded with edges
350
1D5
  3
Shades of Gray
350
1D2
  3
Sketchy
350
1D3
  3
Thicken
350
17D
  3
Wireframe
350
1CD
  3
X-Ray
350
1D4
  0
XRECORD
  5
35F
102
{ACAD_REACTORS
330
C
102
}
330
C
100
AcDbXrecord
280
     1
 90
        1
330
1D8
  0
DICTIONARY
  5
18C
102
{ACAD_REACTORS
330
C
102
}
330
C
100
AcDbDictionary
281
     1
  3
CANNOSCALE
350
1E9
  3
CMLEADERSTYLE
350
1EB
  3
CTABLESTYLE
350
1EA
  3
DIMASSOC
350
190
  3
HIDETEXT
350
191
  3
MSLTSCALE
350
18F
  0
DICTIONARY
  5
1DA
102
{ACAD_REACTORS
330
C
102
}
330
C
100
AcDbDictionary
281
     1
  0
DICTIONARY
  5
1DC
102
{ACAD_REACTORS
330
1DB
102
}
330
1DB
100
AcDbDictionary
281
     1
  0
DICTIONARY
  5
32F
102
{ACAD_REACTORS
330
1DB
102
}
330
1DB
100
AcDbDictionary
281
     1
1001
ACAD
1000
<All
  0
SORTENTSTABLE
  5
332
102
{ACAD_REACTORS
330
331
102
}
330
331
100
AcDbSortentsTable
330
1D
331
0
  5
33C
331
44
  5
47
331
45
  5
48
331
46
  5
49
331
47
  5
4A
331
48
  5
4B
331
49
  5
4C
331
4A
  5
4D
331
4B
  5
4E
331
4C
  5
50
331
4D
  5
51
331
4E
  5
52
331
50
  5
54
331
51
  5
55
331
52
  5
56
331
54
  5
57
331
55
  5
58
331
56
  5
5A
331
57
  5
5B
331
58
  5
5C
331
5A
  5
69
331
5B
  5
6A
331
5C
  5
6B
331
5D
  5
6C
331
5E
  5
6D
331
5F
  5
6E
331
60
  5
6F
331
61
  5
70
331
62
  5
71
331
63
  5
72
331
64
  5
73
331
65
  5
74
331
66
  5
75
331
67
  5
76
331
68
  5
77
331
69
  5
78
331
6A
  5
79
331
6B
  5
7A
331
6C
  5
7B
331
6D
  5
7C
331
6E
  5
7D
331
6F
  5
7E
331
70
  5
7F
331
71
  5
80
331
72
  5
81
331
73
  5
82
331
74
  5
83
331
75
  5
84
331
76
  5
85
331
77
  5
86
331
78
  5
87
331
79
  5
88
331
7A
  5
89
331
7B
  5
8A
331
7C
  5
8B
331
7D
  5
8C
331
7E
  5
8D
331
7F
  5
8E
331
80
  5
8F
331
81
  5
90
331
82
  5
91
331
83
  5
92
331
84
  5
93
331
85
  5
94
331
86
  5
95
331
87
  5
96
331
88
  5
97
331
89
  5
98
331
8A
  5
99
331
8B
  5
9A
331
8C
  5
9B
331
8D
  5
9C
331
8E
  5
9D
331
8F
  5
9E
331
90
  5
9F
331
91
  5
A0
331
92
  5
A1
331
93
  5
A2
331
94
  5
A3
331
95
  5
A4
331
96
  5
A5
331
97
  5
A6
331
98
  5
A7
331
99
  5
A8
331
9A
  5
A9
331
9B
  5
AA
331
9C
  5
AB
331
9D
  5
AC
331
9E
  5
AD
331
9F
  5
AE
331
A0
  5
AF
331
A1
  5
B0
331
A2
  5
B1
331
A3
  5
B2
331
A4
  5
B3
331
A5
  5
B4
331
A6
  5
B5
331
A7
  5
B6
331
A8
  5
B7
331
A9
  5
B8
331
AA
  5
B9
331
AB
  5
BA
331
AC
  5
BB
331
AD
  5
BC
331
AE
  5
BD
331
AF
  5
BE
331
B0
  5
BF
331
B1
  5
C0
331
B2
  5
C1
331
B3
  5
C2
331
B4
  5
C3
331
B5
  5
C4
331
B6
  5
C5
331
B7
  5
C6
331
B8
  5
C7
331
B9
  5
C8
331
BA
  5
C9
331
BB
  5
CA
331
BC
  5
CB
331
BD
  5
CC
331
BE
  5
CD
331
BF
  5
CE
331
C0
  5
CF
331
C1
  5
D0
331
C2
  5
D1
331
C3
  5
D2
331
C4
  5
D3
331
C5
  5
D4
331
C6
  5
D5
331
C7
  5
D6
331
C8
  5
D7
331
C9
  5
D8
331
CA
  5
D9
331
CB
  5
DA
331
CC
  5
DB
331
CD
  5
DC
331
CE
  5
DD
331
CF
  5
DE
331
D0
  5
DF
331
D1
  5
E0
331
D2
  5
E1
331
D3
  5
E2
331
D4
  5
E3
331
D5
  5
E4
331
D6
  5
E5
331
D7
  5
E6
331
D8
  5
E7
331
D9
  5
E8
331
DA
  5
E9
331
DB
  5
EA
331
DC
  5
EB
331
DD
  5
EC
331
DE
  5
ED
331
DF
  5
EE
331
E0
  5
EF
331
E1
  5
F0
331
E2
  5
F1
331
E3
  5
F2
331
E4
  5
F3
331
E5
  5
F4
331
E6
  5
F5
331
E7
  5
F6
331
E8
  5
F7
331
E9
  5
F8
331
EA
  5
F9
331
EB
  5
FA
331
EC
  5
FB
331
ED
  5
FC
331
EE
  5
FD
331
EF
  5
FE
331
F0
  5
FF
331
F1
  5
100
331
F2
  5
101
331
F3
  5
102
331
F4
  5
103
331
F5
  5
104
331
F6
  5
106
331
F7
  5
107
331
F8
  5
108
331
F9
  5
109
331
FA
  5
10A
331
FB
  5
10B
331
FC
  5
10C
331
FD
  5
10D
331
FE
  5
10E
331
FF
  5
10F
331
100
  5
110
331
101
  5
111
331
102
  5
112
331
103
  5
113
331
104
  5
114
331
106
  5
115
331
107
  5
116
331
108
  5
117
331
109
  5
118
331
10A
  5
119
331
10B
  5
11A
331
10C
  5
11B
331
10D
  5
11C
331
10E
  5
11D
331
10F
  5
11E
331
110
  5
11F
331
111
  5
120
331
112
  5
121
331
113
  5
122
331
114
  5
123
331
115
  5
124
331
116
  5
125
331
117
  5
126
331
118
  5
127
331
119
  5
128
331
11A
  5
129
331
11B
  5
12A
331
11C
  5
12B
331
11D
  5
12C
331
11E
  5
12D
331
11F
  5
12E
331
120
  5
12F
331
121
  5
130
331
122
  5
131
331
123
  5
132
331
124
  5
133
331
125
  5
134
331
126
  5
135
331
127
  5
136
331
128
  5
137
331
129
  5
13A
331
12A
  5
13B
331
12B
  5
13C
331
12C
  5
13D
331
12D
  5
13E
331
12E
  5
13F
331
12F
  5
140
331
130
  5
141
331
131
  5
142
331
132
  5
1E2
331
133
  5
1EE
331
134
  5
1EF
331
135
  5
1F0
331
136
  5
1F1
331
137
  5
1F2
331
13A
  5
1F3
331
13B
  5
1F4
331
13C
  5
1F5
331
13D
  5
1F6
331
13E
  5
1F7
331
13F
  5
1F8
331
140
  5
1F9
331
141
  5
1FA
331
142
  5
1FB
331
1E2
  5
1FC
331
1EE
  5
1FD
331
1EF
  5
1FE
331
1F0
  5
1FF
331
1F1
  5
200
331
1F2
  5
201
331
1F3
  5
202
331
1F4
  5
203
331
1F5
  5
204
331
1F6
  5
205
331
1F7
  5
206
331
1F8
  5
207
331
1F9
  5
208
331
1FA
  5
209
331
1FB
  5
20B
331
1FC
  5
20C
331
1FD
  5
20D
331
1FE
  5
20E
331
1FF
  5
20F
331
200
  5
210
331
201
  5
211
331
202
  5
212
331
203
  5
229
331
204
  5
22B
331
205
  5
285
331
206
  5
286
331
207
  5
29C
331
208
  5
29D
331
209
  5
29E
331
20B
  5
30B
331
20C
  5
30C
331
20D
  5
30D
331
20E
  5
30E
331
20F
  5
30F
331
210
  5
310
331
211
  5
311
331
212
  5
330
331
229
  5
335
331
22B
  5
336
331
285
  5
337
331
286
  5
338
331
29C
  5
339
331
29D
  5
33A
331
29E
  5
33B
331
30C
  5
33D
331
30D
  5
33F
331
30E
  5
340
331
30F
  5
341
331
310
  5
342
331
311
  5
343
331
343
  5
68
  0
LAYOUT
  5
1C
102
{ACAD_REACTORS
330
1A
102
}
330
1A
100
AcDbPlotSettings
  1

  2
none_device
  4

  6

 40
0.0
 41
0.0
 42
0.0
 43
0.0
 44
0.0
 45
0.0
 46
0.0
 47
0.0
 48
0.0
 49
0.0
140
0.0
141
0.0
142
1.0
143
1.0
 70
   688
 72
     0
 73
     0
 74
     5
  7

 75
    16
 76
     0
 77
     2
 78
   300
147
1.0
148
0.0
149
0.0
100
AcDbLayout
  1
Layout1
 70
     1
 71
     1
 10
0.0
 20
0.0
 11
12.0
 21
9.0
 12
0.0
 22
0.0
 32
0.0
 14
1.000000000000000E+20
 24
1.000000000000000E+20
 34
1.000000000000000E+20
 15
-1.000000000000000E+20
 25
-1.000000000000000E+20
 35
-1.000000000000000E+20
146
0.0
 13
0.0
 23
0.0
 33
0.0
 16
1.0
 26
0.0
 36
0.0
 17
0.0
 27
1.0
 37
0.0
 76
     0
330
1B
  0
LAYOUT
  5
1E
102
{ACAD_REACTORS
330
1A
102
}
330
1A
100
AcDbPlotSettings
  1

  2
none_device
  4

  6

 40
0.0
 41
0.0
 42
0.0
 43
0.0
 44
0.0
 45
0.0
 46
0.0
 47
0.0
 48
0.0
 49
0.0
140
0.0
141
0.0
142
1.0
143
1.0
 70
  1712
 72
     0
 73
     0
 74
     0
  7

 75
     0
 76
     0
 77
     2
 78
   300
147
1.0
148
0.0
149
0.0
100
AcDbLayout
  1
Model
 70
     1
 71
     0
 10
0.0
 20
0.0
 11
12.0
 21
9.0
 12
0.0
 22
0.0
 32
0.0
 14
-138.613809845527
 24
-88.87369046346173
 34
0.0
 15
181.5944912481024
 25
106.615797704207
 35
0.0
146
0.0
 13
0.0
 23
0.0
 33
0.0
 16
1.0
 26
0.0
 36
0.0
 17
0.0
 27
1.0
 37
0.0
 76
     0
330
1D
331
144
  0
MATERIAL
  5
183
102
{ACAD_REACTORS
330
181
102
}
330
181
100
AcDbMaterial
  1
ByBlock
 72
     1
 94
      127
  0
MATERIAL
  5
182
102
{ACAD_REACTORS
330
181
102
}
330
181
100
AcDbMaterial
  1
ByLayer
 72
     1
 94
      127
  0
MATERIAL
  5
184
102
{ACAD_REACTORS
330
181
102
}
330
181
100
AcDbMaterial
  1
Global
 72
     1
 94
      127
  0
MLEADERSTYLE
  5
1D9
102
{ACAD_REACTORS
330
18E
102
}
330
18E
100
AcDbMLeaderStyle
179
     2
170
     2
171
     1
172
     0
 90
        2
 40
0.0
 41
0.0
173
     1
 91
-1056964608
340
14
 92
       -2
290
     1
 42
0.09
291
     1
 43
0.36
  3
Standard
341
0
 44
0.18
300

342
11
174
     1
178
     1
175
     1
176
     0
 93
-1056964608
 45
0.18
292
     0
297
     0
 46
0.18
343
0
 94
-1056964608
 47
1.0
 49
1.0
140
1.0
293
     1
141
0.0
294
     1
177
     0
142
1.0
295
     0
296
     0
143
0.125
271
     0
272
     9
273
     9
298
     0
  0
MLINESTYLE
  5
18
102
{ACAD_REACTORS
330
17
102
}
330
17
100
AcDbMlineStyle
  2
Standard
 70
     0
  3

 62
   256
 51
90.0
 52
90.0
 71
     2
 49
0.5
 62
   256
  6
BYLAYER
 49
-0.5
 62
   256
  6
BYLAYER
  0
ACDBPLACEHOLDER
  5
F
102
{ACAD_REACTORS
330
E
102
}
330
E
  0
SCALE
  5
14B
102
{ACAD_REACTORS
330
14A
102
}
330
14A
100
AcDbScale
 70
     0
300
1:1
140
1.0
141
1.0
290
     1
  0
SCALE
  5
14C
102
{ACAD_REACTORS
330
14A
102
}
330
14A
100
AcDbScale
 70
     0
300
1:2
140
1.0
141
2.0
290
     0
  0
SCALE
  5
14D
102
{ACAD_REACTORS
330
14A
102
}
330
14A
100
AcDbScale
 70
     0
300
1:4
140
1.0
141
4.0
290
     0
  0
SCALE
  5
14E
102
{ACAD_REACTORS
330
14A
102
}
330
14A
100
AcDbScale
 70
     0
300
1:5
140
1.0
141
5.0
290
     0
  0
SCALE
  5
14F
102
{ACAD_REACTORS
330
14A
102
}
330
14A
100
AcDbScale
 70
     0
300
1:8
140
1.0
141
8.0
290
     0
  0
SCALE
  5
150
102
{ACAD_REACTORS
330
14A
102
}
330
14A
100
AcDbScale
 70
     0
300
1:10
140
1.0
141
10.0
290
     0
  0
SCALE
  5
151
102
{ACAD_REACTORS
330
14A
102
}
330
14A
100
AcDbScale
 70
     0
300
1:16
140
1.0
141
16.0
290
     0
  0
SCALE
  5
152
102
{ACAD_REACTORS
330
14A
102
}
330
14A
100
AcDbScale
 70
     0
300
1:20
140
1.0
141
20.0
290
     0
  0
SCALE
  5
153
102
{ACAD_REACTORS
330
14A
102
}
330
14A
100
AcDbScale
 70
     0
300
1:30
140
1.0
141
30.0
290
     0
  0
SCALE
  5
154
102
{ACAD_REACTORS
330
14A
102
}
330
14A
100
AcDbScale
 70
     0
300
1:40
140
1.0
141
40.0
290
     0
  0
SCALE
  5
155
102
{ACAD_REACTORS
330
14A
102
}
330
14A
100
AcDbScale
 70
     0
300
1:50
140
1.0
141
50.0
290
     0
  0
SCALE
  5
156
102
{ACAD_REACTORS
330
14A
102
}
330
14A
100
AcDbScale
 70
     0
300
1:100
140
1.0
141
100.0
290
     0
  0
SCALE
  5
157
102
{ACAD_REACTORS
330
14A
102
}
330
14A
100
AcDbScale
 70
     0
300
2:1
140
2.0
141
1.0
290
     0
  0
SCALE
  5
158
102
{ACAD_REACTORS
330
14A
102
}
330
14A
100
AcDbScale
 70
     0
300
4:1
140
4.0
141
1.0
290
     0
  0
SCALE
  5
159
102
{ACAD_REACTORS
330
14A
102
}
330
14A
100
AcDbScale
 70
     0
300
8:1
140
8.0
141
1.0
290
     0
  0
SCALE
  5
15A
102
{ACAD_REACTORS
330
14A
102
}
330
14A
100
AcDbScale
 70
     0
300
10:1
140
10.0
141
1.0
290
     0
  0
SCALE
  5
15B
102
{ACAD_REACTORS
330
14A
102
}
330
14A
100
AcDbScale
 70
     0
300
100:1
140
100.0
141
1.0
290
     0
  0
SCALE
  5
15C
102
{ACAD_REACTORS
330
14A
102
}
330
14A
100
AcDbScale
 70
     0
300
1/128" = 1'-0"
140
0.0078125
141
12.0
290
     0
  0
SCALE
  5
15D
102
{ACAD_REACTORS
330
14A
102
}
330
14A
100
AcDbScale
 70
     0
300
1/64" = 1'-0"
140
0.015625
141
12.0
290
     0
  0
SCALE
  5
15E
102
{ACAD_REACTORS
330
14A
102
}
330
14A
100
AcDbScale
 70
     0
300
1/32" = 1'-0"
140
0.03125
141
12.0
290
     0
  0
SCALE
  5
15F
102
{ACAD_REACTORS
330
14A
102
}
330
14A
100
AcDbScale
 70
     0
300
1/16" = 1'-0"
140
0.0625
141
12.0
290
     0
  0
SCALE
  5
160
102
{ACAD_REACTORS
330
14A
102
}
330
14A
100
AcDbScale
 70
     0
300
3/32" = 1'-0"
140
0.09375
141
12.0
290
     0
  0
SCALE
  5
161
102
{ACAD_REACTORS
330
14A
102
}
330
14A
100
AcDbScale
 70
     0
300
1/8" = 1'-0"
140
0.125
141
12.0
290
     0
  0
SCALE
  5
162
102
{ACAD_REACTORS
330
14A
102
}
330
14A
100
AcDbScale
 70
     0
300
3/16" = 1'-0"
140
0.1875
141
12.0
290
     0
  0
SCALE
  5
163
102
{ACAD_REACTORS
330
14A
102
}
330
14A
100
AcDbScale
 70
     0
300
1/4" = 1'-0"
140
0.25
141
12.0
290
     0
  0
SCALE
  5
164
102
{ACAD_REACTORS
330
14A
102
}
330
14A
100
AcDbScale
 70
     0
300
3/8" = 1'-0"
140
0.375
141
12.0
290
     0
  0
SCALE
  5
165
102
{ACAD_REACTORS
330
14A
102
}
330
14A
100
AcDbScale
 70
     0
300
1/2" = 1'-0"
140
0.5
141
12.0
290
     0
  0
SCALE
  5
166
102
{ACAD_REACTORS
330
14A
102
}
330
14A
100
AcDbScale
 70
     0
300
3/4" = 1'-0"
140
0.75
141
12.0
290
     0
  0
SCALE
  5
167
102
{ACAD_REACTORS
330
14A
102
}
330
14A
100
AcDbScale
 70
     0
300
1" = 1'-0"
140
1.0
141
12.0
290
     0
  0
SCALE
  5
168
102
{ACAD_REACTORS
330
14A
102
}
330
14A
100
AcDbScale
 70
     0
300
1-1/2" = 1'-0"
140
1.5
141
12.0
290
     0
  0
SCALE
  5
169
102
{ACAD_REACTORS
330
14A
102
}
330
14A
100
AcDbScale
 70
     0
300
3" = 1'-0"
140
3.0
141
12.0
290
     0
  0
SCALE
  5
16A
102
{ACAD_REACTORS
330
14A
102
}
330
14A
100
AcDbScale
 70
     0
300
6" = 1'-0"
140
6.0
141
12.0
290
     0
  0
SCALE
  5
16B
102
{ACAD_REACTORS
330
14A
102
}
330
14A
100
AcDbScale
 70
     0
300
1'-0" = 1'-0"
140
12.0
141
12.0
290
     0
  0
TABLESTYLE
  5
1D8
102
{ACAD_REACTORS
330
1D7
102
}
102
{ACAD_XDICTIONARY
360
35D
102
}
330
1D7
100
AcDbTableStyle
  3
Standard
 70
     0
 71
     0
 40
0.06
 41
0.06
280
     0
281
     0
  7
Standard
140
0.18
170
     2
 62
     0
 63
   257
283
     0
 90
        4
 91
        0
  1

274
    -2
284
     1
 64
     0
275
    -2
285
     1
 65
     0
276
    -2
286
     1
 66
     0
277
    -2
287
     1
 67
     0
278
    -2
288
     1
 68
     0
279
    -2
289
     1
 69
     0
  7
Standard
140
0.25
170
     5
 62
     0
 63
   257
283
     0
 90
        4
 91
        0
  1

274
    -2
284
     1
 64
     0
275
    -2
285
     1
 65
     0
276
    -2
286
     1
 66
     0
277
    -2
287
     1
 67
     0
278
    -2
288
     1
 68
     0
279
    -2
289
     1
 69
     0
  7
Standard
140
0.18
170
     5
 62
     0
 63
   257
283
     0
 90
        4
 91
        0
  1

274
    -2
284
     1
 64
     0
275
    -2
285
     1
 65
     0
276
    -2
286
     1
 66
     0
277
    -2
287
     1
 67
     0
278
    -2
288
     1
 68
     0
279
    -2
289
     1
 69
     0
  0
VISUALSTYLE
  5
175
102
{ACAD_REACTORS
330
170
102
}
330
170
100
AcDbVisualStyle
  2
2dWireframe
 70
     4
177
     3
291
     0
 70
    58
 90
        0
176
     1
 90
        2
176
     1
 90
        0
176
     1
 90
        0
176
     1
 40
-0.6
176
     1
 40
-30.0
176
     1
 62
     7
176
     1
 90
        1
176
     1
 90
        4
176
     1
 62
     7
176
     1
 62
   257
176
     1
 90
        1
176
     1
 90
        1
176
     1
 40
1.0
176
     1
 90
        0
176
     1
 62
   257
176
     1
 40
1.0
176
     1
 90
        1
176
     1
 90
        6
176
     1
 90
        2
176
     1
 62
     7
176
     1
 90
        5
176
     1
 90
        0
176
     1
 90
        0
176
     1
290
     0
176
     1
 90
        1
176
     1
 40
0.0
176
     1
 90
        0
176
     1
290
     1
176
     1
290
     1
176
     1
290
     0
176
     1
290
     0
176
     1
290
     0
176
     1
290
     0
176
     1
290
     0
176
     1
290
     0
176
     1
290
     0
176
     1
 90
       50
176
     1
 40
0.0
176
     1
 40
1.0
176
     1
 90
        0
176
     1
 62
    18
420
        0
176
     1
 90
       50
176
     1
 90
        3
176
     1
 62
     5
420
      255
176
     1
290
     0
176
     1
 90
       50
176
     1
 90
       50
176
     1
 90
       50
176
     1
290
     0
176
     1
 90
       50
176
     1
 62
   256
176
     0
 40
1.0
176
     0
 90
        2
176
     1
  1
strokes_ogs.tif
176
     1
290
     0
176
     1
 40
1.0
176
     1
 40
1.0
176
     1
  0
VISUALSTYLE
  5
177
102
{ACAD_REACTORS
330
170
102
}
330
170
100
AcDbVisualStyle
  2
3D Hidden
 70
     6
177
     3
291
     0
 70
    58
 90
        1
176
     1
 90
        2
176
     1
 90
        2
176
     1
 90
        0
176
     1
 40
-0.6
176
     1
 40
-30.0
176
     1
 62
     7
176
     1
 90
        2
176
     1
 90
        2
176
     1
 62
     7
176
     1
 62
   257
176
     1
 90
        2
176
     1
 90
        1
176
     1
 40
40.0
176
     1
 90
        0
176
     1
 62
   257
176
     1
 40
1.0
176
     1
 90
        1
176
     1
 90
        6
176
     1
 90
        2
176
     1
 62
     7
176
     1
 90
        3
176
     1
 90
        0
176
     1
 90
        0
176
     1
290
     0
176
     1
 90
        1
176
     1
 40
0.0
176
     1
 90
        0
176
     1
290
     0
176
     1
290
     1
176
     1
290
     1
176
     1
290
     0
176
     1
290
     0
176
     1
290
     0
176
     1
290
     0
176
     1
290
     0
176
     1
290
     0
176
     1
 90
       50
176
     1
 40
0.0
176
     1
 40
1.0
176
     1
 90
        0
176
     1
 62
    18
420
        0
176
     1
 90
       50
176
     1
 90
        3
176
     1
 62
     5
420
      255
176
     1
290
     0
176
     1
 90
       50
176
     1
 90
       50
176
     1
 90
       50
176
     1
290
     0
176
     1
 90
       50
176
     1
 62
   256
176
     0
 40
1.0
176
     0
 90
        2
176
     1
  1
strokes_ogs.tif
176
     1
290
     0
176
     1
 40
1.0
176
     1
 40
1.0
176
     1
  0
VISUALSTYLE
  5
176
102
{ACAD_REACTORS
330
170
102
}
330
170
100
AcDbVisualStyle
  2
3dWireframe
 70
     5
177
     3
291
     0
 70
    58
 90
        0
176
     1
 90
        2
176
     1
 90
        0
176
     1
 90
        0
176
     1
 40
-0.6
176
     1
 40
-30.0
176
     1
 62
     7
176
     1
 90
        1
176
     1
 90
        4
176
     1
 62
     7
176
     1
 62
   257
176
     1
 90
        1
176
     1
 90
        1
176
     1
 40
1.0
176
     1
 90
        0
176
     1
 62
   257
176
     1
 40
1.0
176
     1
 90
        1
176
     1
 90
        6
176
     1
 90
        2
176
     1
 62
     7
176
     1
 90
        5
176
     1
 90
        0
176
     1
 90
        0
176
     1
290
     0
176
     1
 90
        1
176
     1
 40
0.0
176
     1
 90
        0
176
     1
290
     0
176
     1
290
     1
176
     1
290
     1
176
     1
290
     0
176
     1
290
     0
176
     1
290
     0
176
     1
290
     0
176
     1
290
     0
176
     1
290
     0
176
     1
 90
       50
176
     1
 40
0.0
176
     1
 40
1.0
176
     1
 90
        0
176
     1
 62
    18
420
        0
176
     1
 90
       50
176
     1
 90
        3
176
     1
 62
     5
420
      255
176
     1
290
     0
176
     1
 90
       50
176
     1
 90
       50
176
     1
 90
       50
176
     1
290
     0
176
     1
 90
       50
176
     1
 62
   256
176
     0
 40
1.0
176
     0
 90
        2
176
     1
  1
strokes_ogs.tif
176
     1
290
     0
176
     1
 40
1.0
176
     1
 40
1.0
176
     1
  0
VISUALSTYLE
  5
178
102
{ACAD_REACTORS
330
170
102
}
330
170
100
AcDbVisualStyle
  2
Basic
 70
     7
177
     3
291
     1
 70
    58
 90
        1
176
     1
 90
        0
176
     1
 90
        1
176
     1
 90
        0
176
     1
 40
-0.6
176
     1
 40
-30.0
176
     1
 62
     7
176
     1
 90
        0
176
     1
 90
        4
176
     1
 62
     7
176
     1
 62
   257
176
     1
 90
        1
176
     1
 90
        1
176
     1
 40
1.0
176
     1
 90
        8
176
     1
 62
     7
176
     1
 40
1.0
176
     1
 90
        1
176
     1
 90
        6
176
     1
 90
        2
176
     1
 62
     7
176
     1
 90
        5
176
     1
 90
        0
176
     1
 90
        0
176
     1
290
     0
176
     1
 90
        1
176
     1
 40
0.0
176
     1
 90
        0
176
     1
290
     0
176
     1
290
     1
176
     1
290
     1
176
     1
290
     0
176
     1
290
     0
176
     1
290
     0
176
     1
290
     0
176
     1
290
     0
176
     1
290
     0
176
     1
 90
       50
176
     1
 40
0.0
176
     1
 40
1.0
176
     1
 90
        0
176
     1
 62
    18
420
        0
176
     1
 90
       50
176
     1
 90
        3
176
     1
 62
     5
420
      255
176
     1
290
     0
176
     1
 90
       50
176
     1
 90
       50
176
     1
 90
       50
176
     1
290
     0
176
     1
 90
       50
176
     1
 62
   256
176
     0
 40
1.0
176
     0
 90
        2
176
     1
  1
strokes_ogs.tif
176
     1
290
     0
176
     1
 40
1.0
176
     1
 40
1.0
176
     1
  0
VISUALSTYLE
  5
17C
102
{ACAD_REACTORS
330
170
102
}
330
170
100
AcDbVisualStyle
  2
Brighten
 70
    12
177
     3
291
     1
 70
    58
 90
        2
176
     1
 90
        2
176
     1
 90
        0
176
     1
 90
        0
176
     1
 40
-0.6
176
     1
 40
-30.0
176
     1
 62
     7
176
     1
 90
        1
176
     1
 90
        4
176
     1
 62
     7
176
     1
 62
   257
176
     1
 90
        1
176
     1
 90
        1
176
     1
 40
1.0
176
     1
 90
        8
176
     1
 62
     7
176
     1
 40
1.0
176
     1
 90
        1
176
     1
 90
        6
176
     1
 90
        2
176
     1
 62
     7
176
     1
 90
        5
176
     1
 90
        0
176
     1
 90
        0
176
     1
290
     0
176
     1
 90
        1
176
     1
 40
50.0
176
     1
 90
        0
176
     1
290
     0
176
     1
290
     1
176
     1
290
     1
176
     1
290
     0
176
     1
290
     0
176
     1
290
     0
176
     1
290
     0
176
     1
290
     0
176
     1
290
     0
176
     1
 90
       50
176
     1
 40
0.0
176
     1
 40
1.0
176
     1
 90
        0
176
     1
 62
    18
420
        0
176
     1
 90
       50
176
     1
 90
        3
176
     1
 62
     5
420
      255
176
     1
290
     0
176
     1
 90
       50
176
     1
 90
       50
176
     1
 90
       50
176
     1
290
     0
176
     1
 90
       50
176
     1
 62
   256
176
     0
 40
1.0
176
     0
 90
        2
176
     1
  1
strokes_ogs.tif
176
     1
290
     0
176
     1
 40
1.0
176
     1
 40
1.0
176
     1
  0
VISUALSTYLE
  5
180
102
{ACAD_REACTORS
330
170
102
}
330
170
100
AcDbVisualStyle
  2
ColorChange
 70
    16
177
     3
291
     1
 70
    58
 90
        2
176
     1
 90
        2
176
     1
 90
        3
176
     1
 90
        0
176
     1
 40
-0.6
176
     1
 40
-30.0
176
     1
 62
     8
176
     1
 90
        1
176
     1
 90
        4
176
     1
 62
     7
176
     1
 62
   257
176
     1
 90
        1
176
     1
 90
        1
176
     1
 40
1.0
176
     1
 90
        8
176
     1
 62
     8
176
     1
 40
1.0
176
     1
 90
        1
176
     1
 90
        6
176
     1
 90
        2
176
     1
 62
     7
176
     1
 90
        5
176
     1
 90
        0
176
     1
 90
        0
176
     1
290
     0
176
     1
 90
        1
176
     1
 40
0.0
176
     1
 90
        0
176
     1
290
     0
176
     1
290
     1
176
     1
290
     1
176
     1
290
     0
176
     1
290
     0
176
     1
290
     0
176
     1
290
     0
176
     1
290
     0
176
     1
290
     0
176
     1
 90
       50
176
     1
 40
0.0
176
     1
 40
1.0
176
     1
 90
        0
176
     1
 62
    18
420
        0
176
     1
 90
       50
176
     1
 90
        3
176
     1
 62
     5
420
      255
176
     1
290
     0
176
     1
 90
       50
176
     1
 90
       50
176
     1
 90
       50
176
     1
290
     0
176
     1
 90
       50
176
     1
 62
   256
176
     0
 40
1.0
176
     0
 90
        2
176
     1
  1
strokes_ogs.tif
176
     1
290
     0
176
     1
 40
1.0
176
     1
 40
1.0
176
     1
  0
VISUALSTYLE
  5
17A
102
{ACAD_REACTORS
330
170
102
}
330
170
100
AcDbVisualStyle
  2
Conceptual
 70
     9
177
     3
291
     0
 70
    58
 90
        3
176
     1
 90
        2
176
     1
 90
        0
176
     1
 90
        0
176
     1
 40
-0.6
176
     1
 40
-30.0
176
     1
 62
     7
176
     1
 90
        2
176
     1
 90
        2
176
     1
 62
     7
176
     1
 62
   257
176
     1
 90
        1
176
     1
 90
        1
176
     1
 40
40.0
176
     1
 90
        8
176
     1
 62
     7
176
     1
 40
1.0
176
     1
 90
        1
176
     1
 90
        6
176
     1
 90
        2
176
     1
 62
     7
176
     1
 90
        3
176
     1
 90
        0
176
     1
 90
        0
176
     1
290
     0
176
     1
 90
        1
176
     1
 40
0.0
176
     1
 90
        0
176
     1
290
     0
176
     1
290
     1
176
     1
290
     1
176
     1
290
     0
176
     1
290
     0
176
     1
290
     0
176
     1
290
     0
176
     1
290
     0
176
     1
290
     0
176
     1
 90
       50
176
     1
 40
0.0
176
     1
 40
1.0
176
     1
 90
        0
176
     1
 62
    18
420
        0
176
     1
 90
       50
176
     1
 90
        3
176
     1
 62
     5
420
      255
176
     1
290
     0
176
     1
 90
       50
176
     1
 90
       50
176
     1
 90
       50
176
     1
290
     0
176
     1
 90
       50
176
     1
 62
   256
176
     0
 40
1.0
176
     0
 90
        2
176
     1
  1
strokes_ogs.tif
176
     1
290
     0
176
     1
 40
1.0
176
     1
 40
1.0
176
     1
  0
VISUALSTYLE
  5
17B
102
{ACAD_REACTORS
330
170
102
}
330
170
100
AcDbVisualStyle
  2
Dim
 70
    11
177
     3
291
     1
 70
    58
 90
        2
176
     1
 90
        2
176
     1
 90
        0
176
     1
 90
        0
176
     1
 40
-0.6
176
     1
 40
-30.0
176
     1
 62
     7
176
     1
 90
        1
176
     1
 90
        4
176
     1
 62
     7
176
     1
 62
   257
176
     1
 90
        1
176
     1
 90
        1
176
     1
 40
1.0
176
     1
 90
        8
176
     1
 62
     7
176
     1
 40
1.0
176
     1
 90
        1
176
     1
 90
        6
176
     1
 90
        2
176
     1
 62
     7
176
     1
 90
        5
176
     1
 90
        0
176
     1
 90
        0
176
     1
290
     0
176
     1
 90
        1
176
     1
 40
-50.0
176
     1
 90
        0
176
     1
290
     0
176
     1
290
     1
176
     1
290
     1
176
     1
290
     0
176
     1
290
     0
176
     1
290
     0
176
     1
290
     0
176
     1
290
     0
176
     1
290
     0
176
     1
 90
       50
176
     1
 40
0.0
176
     1
 40
1.0
176
     1
 90
        0
176
     1
 62
    18
420
        0
176
     1
 90
       50
176
     1
 90
        3
176
     1
 62
     5
420
      255
176
     1
290
     0
176
     1
 90
       50
176
     1
 90
       50
176
     1
 90
       50
176
     1
290
     0
176
     1
 90
       50
176
     1
 62
   256
176
     0
 40
1.0
176
     0
 90
        2
176
     1
  1
strokes_ogs.tif
176
     1
290
     0
176
     1
 40
1.0
176
     1
 40
1.0
176
     1
  0
VISUALSTYLE
  5
1D1
102
{ACAD_REACTORS
330
170
102
}
330
170
100
AcDbVisualStyle
  2
EdgeColorOff
 70
    22
177
     3
291
     1
 70
    58
 90
        2
176
     0
 90
        2
176
     0
 90
        0
176
     0
 90
        0
176
     0
 40
0.6
176
     0
 40
30.0
176
     0
 62
     7
420
 16777215
176
     0
 90
        1
176
     0
 90
        4
176
     0
 62
     7
176
     0
 62
   257
176
     0
 90
        1
176
     0
 90
        1
176
     0
 40
1.0
176
     0
 90
        8
176
     2
 62
     7
176
     0
 40
1.0
176
     0
 90
        1
176
     0
 90
        6
176
     0
 90
        2
176
     0
 62
     7
176
     0
 90
        5
176
     0
 90
        0
176
     0
 90
        0
176
     0
290
     0
176
     0
 90
        1
176
     0
 40
0.0
176
     0
 90
        0
176
     0
290
     0
176
     0
290
     1
176
     0
290
     1
176
     0
290
     0
176
     0
290
     0
176
     0
290
     0
176
     0
290
     0
176
     0
290
     0
176
     0
290
     0
176
     0
 90
       50
176
     0
 40
0.0
176
     0
 40
1.0
176
     0
 90
        0
176
     0
 62
    18
420
        0
176
     0
 90
       50
176
     0
 90
        3
176
     0
 62
     5
420
      255
176
     0
290
     0
176
     0
 90
       50
176
     0
 90
       50
176
     0
 90
       50
176
     0
290
     0
176
     0
 90
       50
176
     0
 62
   256
176
     0
 40
1.0
176
     0
 90
        2
176
     0
  1
strokes_ogs.tif
176
     0
290
     0
176
     0
 40
1.0
176
     0
 40
1.0
176
     0
  0
VISUALSTYLE
  5
17F
102
{ACAD_REACTORS
330
170
102
}
330
170
100
AcDbVisualStyle
  2
Facepattern
 70
    15
177
     3
291
     1
 70
    58
 90
        2
176
     1
 90
        2
176
     1
 90
        0
176
     1
 90
        0
176
     1
 40
-0.6
176
     1
 40
-30.0
176
     1
 62
     7
176
     1
 90
        1
176
     1
 90
        4
176
     1
 62
     7
176
     1
 62
   257
176
     1
 90
        1
176
     1
 90
        1
176
     1
 40
1.0
176
     1
 90
        8
176
     1
 62
     7
176
     1
 40
1.0
176
     1
 90
        1
176
     1
 90
        6
176
     1
 90
        2
176
     1
 62
     7
176
     1
 90
        5
176
     1
 90
        0
176
     1
 90
        0
176
     1
290
     0
176
     1
 90
        1
176
     1
 40
0.0
176
     1
 90
        0
176
     1
290
     0
176
     1
290
     1
176
     1
290
     1
176
     1
290
     0
176
     1
290
     0
176
     1
290
     0
176
     1
290
     0
176
     1
290
     0
176
     1
290
     0
176
     1
 90
       50
176
     1
 40
0.0
176
     1
 40
1.0
176
     1
 90
        0
176
     1
 62
    18
420
        0
176
     1
 90
       50
176
     1
 90
        3
176
     1
 62
     5
420
      255
176
     1
290
     0
176
     1
 90
       50
176
     1
 90
       50
176
     1
 90
       50
176
     1
290
     0
176
     1
 90
       50
176
     1
 62
   256
176
     0
 40
1.0
176
     0
 90
        2
176
     1
  1
strokes_ogs.tif
176
     1
290
     0
176
     1
 40
1.0
176
     1
 40
1.0
176
     1
  0
VISUALSTYLE
  5
171
102
{ACAD_REACTORS
330
170
102
}
330
170
100
AcDbVisualStyle
  2
Flat
 70
     0
177
     3
291
     1
 70
    58
 90
        2
176
     1
 90
        1
176
     1
 90
        1
176
     1
 90
        2
176
     1
 40
-0.6
176
     1
 40
30.0
176
     1
 62
     7
176
     1
 90
        0
176
     1
 90
        4
176
     1
 62
     7
176
     1
 62
   257
176
     1
 90
        1
176
     1
 90
        1
176
     1
 40
1.0
176
     1
 90
        8
176
     1
 62
     7
176
     1
 40
1.0
176
     1
 90
        1
176
     1
 90
        6
176
     1
 90
        2
176
     1
 62
     7
176
     1
 90
        5
176
     1
 90
        0
176
     1
 90
        0
176
     1
290
     0
176
     1
 90
       13
176
     1
 40
0.0
176
     1
 90
        0
176
     1
290
     0
176
     1
290
     1
176
     1
290
     1
176
     1
290
     0
176
     1
290
     0
176
     1
290
     0
176
     1
290
     0
176
     1
290
     0
176
     1
290
     0
176
     1
 90
       50
176
     1
 40
0.0
176
     1
 40
1.0
176
     1
 90
        0
176
     1
 62
    18
420
        0
176
     1
 90
       50
176
     1
 90
        3
176
     1
 62
     5
420
      255
176
     1
290
     0
176
     1
 90
       50
176
     1
 90
       50
176
     1
 90
       50
176
     1
290
     0
176
     1
 90
       50
176
     1
 62
   256
176
     0
 40
1.0
176
     0
 90
        2
176
     1
  1
strokes_ogs.tif
176
     1
290
     0
176
     1
 40
1.0
176
     1
 40
1.0
176
     1
  0
VISUALSTYLE
  5
172
102
{ACAD_REACTORS
330
170
102
}
330
170
100
AcDbVisualStyle
  2
FlatWithEdges
 70
     1
177
     3
291
     1
 70
    58
 90
        2
176
     1
 90
        1
176
     1
 90
        1
176
     1
 90
        2
176
     1
 40
-0.6
176
     1
 40
30.0
176
     1
 62
     7
176
     1
 90
        1
176
     1
 90
        4
176
     1
 62
     7
176
     1
 62
   257
176
     1
 90
        1
176
     1
 90
        1
176
     1
 40
1.0
176
     1
 90
        0
176
     1
 62
   257
176
     1
 40
1.0
176
     1
 90
        1
176
     1
 90
        6
176
     1
 90
        2
176
     1
 62
     7
176
     1
 90
        5
176
     1
 90
        0
176
     1
 90
        0
176
     1
290
     0
176
     1
 90
       13
176
     1
 40
0.0
176
     1
 90
        0
176
     1
290
     0
176
     1
290
     1
176
     1
290
     1
176
     1
290
     0
176
     1
290
     0
176
     1
290
     0
176
     1
290
     0
176
     1
290
     0
176
     1
290
     0
176
     1
 90
       50
176
     1
 40
0.0
176
     1
 40
1.0
176
     1
 90
        0
176
     1
 62
    18
420
        0
176
     1
 90
       50
176
     1
 90
        3
176
     1
 62
     5
420
      255
176
     1
290
     0
176
     1
 90
       50
176
     1
 90
       50
176
     1
 90
       50
176
     1
290
     0
176
     1
 90
       50
176
     1
 62
   256
176
     0
 40
1.0
176
     0
 90
        2
176
     1
  1
strokes_ogs.tif
176
     1
290
     0
176
     1
 40
1.0
176
     1
 40
1.0
176
     1
  0
VISUALSTYLE
  5
173
102
{ACAD_REACTORS
330
170
102
}
330
170
100
AcDbVisualStyle
  2
Gouraud
 70
     2
177
     3
291
     1
 70
    58
 90
        2
176
     1
 90
        2
176
     1
 90
        1
176
     1
 90
        2
176
     1
 40
-0.6
176
     1
 40
30.0
176
     1
 62
     7
176
     1
 90
        0
176
     1
 90
        4
176
     1
 62
     7
176
     1
 62
   257
176
     1
 90
        1
176
     1
 90
        1
176
     1
 40
1.0
176
     1
 90
        0
176
     1
 62
     7
176
     1
 40
1.0
176
     1
 90
        1
176
     1
 90
        6
176
     1
 90
        2
176
     1
 62
     7
176
     1
 90
        5
176
     1
 90
        0
176
     1
 90
        0
176
     1
290
     0
176
     1
 90
       13
176
     1
 40
0.0
176
     1
 90
        0
176
     1
290
     0
176
     1
290
     1
176
     1
290
     1
176
     1
290
     0
176
     1
290
     0
176
     1
290
     0
176
     1
290
     0
176
     1
290
     0
176
     1
290
     0
176
     1
 90
       50
176
     1
 40
0.0
176
     1
 40
1.0
176
     1
 90
        0
176
     1
 62
    18
420
        0
176
     1
 90
       50
176
     1
 90
        3
176
     1
 62
     5
420
      255
176
     1
290
     0
176
     1
 90
       50
176
     1
 90
       50
176
     1
 90
       50
176
     1
290
     0
176
     1
 90
       50
176
     1
 62
   256
176
     0
 40
1.0
176
     0
 90
        2
176
     1
  1
strokes_ogs.tif
176
     1
290
     0
176
     1
 40
1.0
176
     1
 40
1.0
176
     1
  0
VISUALSTYLE
  5
174
102
{ACAD_REACTORS
330
170
102
}
330
170
100
AcDbVisualStyle
  2
GouraudWithEdges
 70
     3
177
     3
291
     1
 70
    58
 90
        2
176
     1
 90
        2
176
     1
 90
        1
176
     1
 90
        2
176
     1
 40
-0.6
176
     1
 40
30.0
176
     1
 62
     7
176
     1
 90
        1
176
     1
 90
        4
176
     1
 62
     7
176
     1
 62
   257
176
     1
 90
        1
176
     1
 90
        1
176
     1
 40
1.0
176
     1
 90
        0
176
     1
 62
   257
176
     1
 40
1.0
176
     1
 90
        1
176
     1
 90
        6
176
     1
 90
        2
176
     1
 62
     7
176
     1
 90
        5
176
     1
 90
        0
176
     1
 90
        0
176
     1
290
     0
176
     1
 90
       13
176
     1
 40
0.0
176
     1
 90
        0
176
     1
290
     0
176
     1
290
     1
176
     1
290
     1
176
     1
290
     0
176
     1
290
     0
176
     1
290
     0
176
     1
290
     0
176
     1
290
     0
176
     1
290
     0
176
     1
 90
       50
176
     1
 40
0.0
176
     1
 40
1.0
176
     1
 90
        0
176
     1
 62
    18
420
        0
176
     1
 90
       50
176
     1
 90
        3
176
     1
 62
     5
420
      255
176
     1
290
     0
176
     1
 90
       50
176
     1
 90
       50
176
     1
 90
       50
176
     1
290
     0
176
     1
 90
       50
176
     1
 62
   256
176
     0
 40
1.0
176
     0
 90
        2
176
     1
  1
strokes_ogs.tif
176
     1
290
     0
176
     1
 40
1.0
176
     1
 40
1.0
176
     1
  0
VISUALSTYLE
  5
1CE
102
{ACAD_REACTORS
330
170
102
}
330
170
100
AcDbVisualStyle
  2
Hidden
 70
     6
177
     3
291
     0
 70
    58
 90
        1
176
     1
 90
        2
176
     1
 90
        2
176
     1
 90
        0
176
     1
 40
0.6
176
     1
 40
30.0
176
     1
 62
     7
420
 16777215
176
     1
 90
        2
176
     1
 90
        2
176
     1
 62
     7
176
     1
 62
   257
176
     1
 90
        2
176
     1
 90
        1
176
     1
 40
40.0
176
     1
 90
        0
176
     1
 62
   257
176
     1
 40
1.0
176
     1
 90
        1
176
     1
 90
        6
176
     1
 90
        2
176
     1
 62
     7
176
     1
 90
        3
176
     1
 90
        0
176
     1
 90
        0
176
     1
290
     0
176
     1
 90
        1
176
     1
 40
0.0
176
     1
 90
        0
176
     1
290
     0
176
     1
290
     1
176
     1
290
     1
176
     1
290
     0
176
     1
290
     0
176
     1
290
     0
176
     1
290
     0
176
     1
290
     0
176
     1
290
     0
176
     1
 90
       50
176
     1
 40
0.0
176
     1
 40
1.0
176
     1
 90
        0
176
     1
 62
    18
420
        0
176
     1
 90
       50
176
     1
 90
        3
176
     1
 62
     5
420
      255
176
     1
290
     0
176
     1
 90
       50
176
     1
 90
       50
176
     1
 90
       50
176
     1
290
     0
176
     1
 90
       50
176
     1
 62
   256
176
     0
 40
1.0
176
     0
 90
        2
176
     1
  1
strokes_ogs.tif
176
     1
290
     0
176
     1
 40
1.0
176
     1
 40
1.0
176
     1
  0
VISUALSTYLE
  5
1CF
102
{ACAD_REACTORS
330
170
102
}
330
170
100
AcDbVisualStyle
  2
JitterOff
 70
    20
177
     3
291
     1
 70
    58
 90
        2
176
     0
 90
        2
176
     0
 90
        0
176
     0
 90
        0
176
     0
 40
0.6
176
     0
 40
30.0
176
     0
 62
     7
420
 16777215
176
     0
 90
        1
176
     0
 90
        4
176
     0
 62
     7
176
     0
 62
   257
176
     0
 90
        1
176
     0
 90
        1
176
     0
 40
1.0
176
     0
 90
       10
176
     2
 62
     7
176
     0
 40
1.0
176
     0
 90
        1
176
     0
 90
        6
176
     0
 90
        2
176
     0
 62
     7
176
     0
 90
        5
176
     0
 90
        0
176
     0
 90
        0
176
     0
290
     0
176
     0
 90
        1
176
     0
 40
0.0
176
     0
 90
        0
176
     0
290
     0
176
     0
290
     1
176
     0
290
     1
176
     0
290
     0
176
     0
290
     0
176
     0
290
     0
176
     0
290
     0
176
     0
290
     0
176
     0
290
     0
176
     0
 90
       50
176
     0
 40
0.0
176
     0
 40
1.0
176
     0
 90
        0
176
     0
 62
    18
420
        0
176
     0
 90
       50
176
     0
 90
        3
176
     0
 62
     5
420
      255
176
     0
290
     0
176
     0
 90
       50
176
     0
 90
       50
176
     0
 90
       50
176
     0
290
     0
176
     0
 90
       50
176
     0
 62
   256
176
     0
 40
1.0
176
     0
 90
        2
176
     0
  1
strokes_ogs.tif
176
     0
290
     0
176
     0
 40
1.0
176
     0
 40
1.0
176
     0
  0
VISUALSTYLE
  5
17E
102
{ACAD_REACTORS
330
170
102
}
330
170
100
AcDbVisualStyle
  2
Linepattern
 70
    14
177
     3
291
     1
 70
    58
 90
        2
176
     1
 90
        2
176
     1
 90
        0
176
     1
 90
        0
176
     1
 40
-0.6
176
     1
 40
-30.0
176
     1
 62
     7
176
     1
 90
        1
176
     1
 90
        4
176
     1
 62
     7
176
     1
 62
   257
176
     1
 90
        7
176
     1
 90
        7
176
     1
 40
1.0
176
     1
 90
        8
176
     1
 62
     7
176
     1
 40
1.0
176
     1
 90
        1
176
     1
 90
        6
176
     1
 90
        2
176
     1
 62
     7
176
     1
 90
        5
176
     1
 90
        0
176
     1
 90
        0
176
     1
290
     0
176
     1
 90
        1
176
     1
 40
0.0
176
     1
 90
        0
176
     1
290
     0
176
     1
290
     1
176
     1
290
     1
176
     1
290
     0
176
     1
290
     0
176
     1
290
     0
176
     1
290
     0
176
     1
290
     0
176
     1
290
     0
176
     1
 90
       50
176
     1
 40
0.0
176
     1
 40
1.0
176
     1
 90
        0
176
     1
 62
    18
420
        0
176
     1
 90
       50
176
     1
 90
        3
176
     1
 62
     5
420
      255
176
     1
290
     0
176
     1
 90
       50
176
     1
 90
       50
176
     1
 90
       50
176
     1
290
     0
176
     1
 90
       50
176
     1
 62
   256
176
     0
 40
1.0
176
     0
 90
        2
176
     1
  1
strokes_ogs.tif
176
     1
290
     0
176
     1
 40
1.0
176
     1
 40
1.0
176
     1
  0
VISUALSTYLE
  5
1D0
102
{ACAD_REACTORS
330
170
102
}
330
170
100
AcDbVisualStyle
  2
OverhangOff
 70
    21
177
     3
291
     1
 70
    58
 90
        2
176
     0
 90
        2
176
     0
 90
        0
176
     0
 90
        0
176
     0
 40
0.6
176
     0
 40
30.0
176
     0
 62
     7
420
 16777215
176
     0
 90
        1
176
     0
 90
        4
176
     0
 62
     7
176
     0
 62
   257
176
     0
 90
        1
176
     0
 90
        1
176
     0
 40
1.0
176
     0
 90
        9
176
     2
 62
     7
176
     0
 40
1.0
176
     0
 90
        1
176
     0
 90
        6
176
     0
 90
        2
176
     0
 62
     7
176
     0
 90
        5
176
     0
 90
        0
176
     0
 90
        0
176
     0
290
     0
176
     0
 90
        1
176
     0
 40
0.0
176
     0
 90
        0
176
     0
290
     0
176
     0
290
     1
176
     0
290
     1
176
     0
290
     0
176
     0
290
     0
176
     0
290
     0
176
     0
290
     0
176
     0
290
     0
176
     0
290
     0
176
     0
 90
       50
176
     0
 40
0.0
176
     0
 40
1.0
176
     0
 90
        0
176
     0
 62
    18
420
        0
176
     0
 90
       50
176
     0
 90
        3
176
     0
 62
     5
420
      255
176
     0
290
     0
176
     0
 90
       50
176
     0
 90
       50
176
     0
 90
       50
176
     0
290
     0
176
     0
 90
       50
176
     0
 62
   256
176
     0
 40
1.0
176
     0
 90
        2
176
     0
  1
strokes_ogs.tif
176
     0
290
     0
176
     0
 40
1.0
176
     0
 40
1.0
176
     0
  0
VISUALSTYLE
  5
179
102
{ACAD_REACTORS
330
170
102
}
330
170
100
AcDbVisualStyle
  2
Realistic
 70
     8
177
     3
291
     0
 70
    58
 90
        2
176
     1
 90
        2
176
     1
 90
        0
176
     1
 90
        0
176
     1
 40
-0.6
176
     1
 40
-30.0
176
     1
 62
     7
176
     1
 90
        1
176
     1
 90
        0
176
     1
 62
     7
176
     1
 62
   257
176
     1
 90
        1
176
     1
 90
        1
176
     1
 40
1.0
176
     1
 90
        8
176
     1
 62
     8
176
     1
 40
1.0
176
     1
 90
        1
176
     1
 90
        6
176
     1
 90
        2
176
     1
 62
     7
176
     1
 90
        5
176
     1
 90
        0
176
     1
 90
        0
176
     1
290
     0
176
     1
 90
       13
176
     1
 40
0.0
176
     1
 90
        0
176
     1
290
     0
176
     1
290
     1
176
     1
290
     1
176
     1
290
     0
176
     1
290
     0
176
     1
290
     0
176
     1
290
     0
176
     1
290
     0
176
     1
290
     0
176
     1
 90
       50
176
     1
 40
0.0
176
     1
 40
1.0
176
     1
 90
        0
176
     1
 62
    18
420
        0
176
     1
 90
       50
176
     1
 90
        3
176
     1
 62
     5
420
      255
176
     1
290
     0
176
     1
 90
       50
176
     1
 90
       50
176
     1
 90
       50
176
     1
290
     0
176
     1
 90
       50
176
     1
 62
   256
176
     0
 40
1.0
176
     0
 90
        2
176
     1
  1
strokes_ogs.tif
176
     1
290
     0
176
     1
 40
1.0
176
     1
 40
1.0
176
     1
  0
VISUALSTYLE
  5
1D6
102
{ACAD_REACTORS
330
170
102
}
330
170
100
AcDbVisualStyle
  2
Shaded
 70
    27
177
     3
291
     0
 70
    58
 90
        2
176
     1
 90
        2
176
     1
 90
        1
176
     1
 90
        2
176
     1
 40
0.6
176
     1
 40
30.0
176
     1
 62
     7
420
 16777215
176
     1
 90
        0
176
     1
 90
        4
176
     1
 62
     7
176
     1
 62
   257
176
     1
 90
        1
176
     1
 90
        1
176
     1
 40
1.0
176
     1
 90
        8
176
     1
 62
   257
176
     1
 40
1.0
176
     1
 90
        1
176
     1
 90
        6
176
     1
 90
        2
176
     1
 62
     8
420
  7895160
176
     1
 90
        3
176
     1
 90
        0
176
     1
 90
        0
176
     1
290
     0
176
     1
 90
        5
176
     1
 40
0.0
176
     1
 90
        0
176
     1
290
     0
176
     1
290
     1
176
     1
290
     1
176
     1
290
     0
176
     1
290
     0
176
     1
290
     0
176
     1
290
     0
176
     1
290
     0
176
     1
290
     0
176
     1
 90
       50
176
     1
 40
0.0
176
     1
 40
1.0
176
     1
 90
        0
176
     1
 62
    18
420
        0
176
     1
 90
       50
176
     1
 90
        3
176
     1
 62
     5
420
      255
176
     1
290
     0
176
     1
 90
       50
176
     1
 90
       50
176
     1
 90
       50
176
     1
290
     0
176
     1
 90
       50
176
     1
 62
   256
176
     0
 40
1.0
176
     0
 90
        2
176
     1
  1
strokes_ogs.tif
176
     1
290
     0
176
     1
 40
1.0
176
     1
 40
1.0
176
     1
  0
VISUALSTYLE
  5
1D5
102
{ACAD_REACTORS
330
170
102
}
330
170
100
AcDbVisualStyle
  2
Shaded with edges
 70
    26
177
     3
291
     0
 70
    58
 90
        2
176
     1
 90
        2
176
     1
 90
        1
176
     1
 90
        2
176
     1
 40
0.6
176
     1
 40
30.0
176
     1
 62
     7
420
 16777215
176
     1
 90
        1
176
     1
 90
       10
176
     1
 62
     7
176
     1
 62
   257
176
     1
 90
        2
176
     1
 90
        1
176
     1
 40
1.0
176
     1
 90
        8
176
     1
 62
   257
176
     1
 40
1.0
176
     1
 90
        1
176
     1
 90
        6
176
     1
 90
        2
176
     1
 62
     7
176
     1
 90
        3
176
     1
 90
        0
176
     1
 90
        0
176
     1
290
     0
176
     1
 90
        5
176
     1
 40
0.0
176
     1
 90
        0
176
     1
290
     0
176
     1
290
     1
176
     1
290
     1
176
     1
290
     0
176
     1
290
     0
176
     1
290
     0
176
     1
290
     0
176
     1
290
     0
176
     1
290
     0
176
     1
 90
       50
176
     1
 40
0.0
176
     1
 40
1.0
176
     1
 90
        0
176
     1
 62
    18
420
        0
176
     1
 90
       50
176
     1
 90
        3
176
     1
 62
     5
420
      255
176
     1
290
     0
176
     1
 90
       50
176
     1
 90
       50
176
     1
 90
       50
176
     1
290
     0
176
     1
 90
       50
176
     1
 62
   256
176
     0
 40
1.0
176
     0
 90
        2
176
     1
  1
strokes_ogs.tif
176
     1
290
     0
176
     1
 40
1.0
176
     1
 40
1.0
176
     1
  0
VISUALSTYLE
  5
1D2
102
{ACAD_REACTORS
330
170
102
}
330
170
100
AcDbVisualStyle
  2
Shades of Gray
 70
    23
177
     3
291
     0
 70
    58
 90
        2
176
     1
 90
        2
176
     1
 90
        3
176
     1
 90
        0
176
     1
 40
0.6
176
     1
 40
30.0
176
     1
 62
     7
420
 16777215
176
     1
 90
        2
176
     1
 90
        2
176
     1
 62
     7
176
     1
 62
     7
176
     1
 90
        1
176
     1
 90
        1
176
     1
 40
40.0
176
     1
 90
        8
176
     1
 62
     7
176
     1
 40
1.0
176
     1
 90
        1
176
     1
 90
        6
176
     1
 90
        2
176
     1
 62
     7
176
     1
 90
        3
176
     1
 90
        0
176
     1
 90
        0
176
     1
290
     0
176
     1
 90
        1
176
     1
 40
0.0
176
     1
 90
        0
176
     1
290
     0
176
     1
290
     1
176
     1
290
     1
176
     1
290
     0
176
     1
290
     0
176
     1
290
     0
176
     1
290
     0
176
     1
290
     0
176
     1
290
     0
176
     1
 90
       50
176
     1
 40
0.0
176
     1
 40
1.0
176
     1
 90
        0
176
     1
 62
    18
420
        0
176
     1
 90
       50
176
     1
 90
        3
176
     1
 62
     5
420
      255
176
     1
290
     0
176
     1
 90
       50
176
     1
 90
       50
176
     1
 90
       50
176
     1
290
     0
176
     1
 90
       50
176
     1
 62
   256
176
     0
 40
1.0
176
     0
 90
        2
176
     1
  1
strokes_ogs.tif
176
     1
290
     0
176
     1
 40
1.0
176
     1
 40
1.0
176
     1
  0
VISUALSTYLE
  5
1D3
102
{ACAD_REACTORS
330
170
102
}
330
170
100
AcDbVisualStyle
  2
Sketchy
 70
    24
177
     3
291
     0
 70
    58
 90
        1
176
     1
 90
        2
176
     1
 90
        2
176
     1
 90
        0
176
     1
 40
0.6
176
     1
 40
30.0
176
     1
 62
     7
420
 16777215
176
     1
 90
        2
176
     1
 90
        2
176
     1
 62
     7
176
     1
 62
     7
176
     1
 90
        1
176
     1
 90
        1
176
     1
 40
40.0
176
     1
 90
       11
176
     1
 62
     7
176
     1
 40
1.0
176
     1
 90
        1
176
     1
 90
        6
176
     1
 90
        2
176
     1
 62
     7
176
     1
 90
        6
176
     1
 90
        0
176
     1
 90
        0
176
     1
290
     0
176
     1
 90
        1
176
     1
 40
0.0
176
     1
 90
        0
176
     1
290
     0
176
     1
290
     1
176
     1
290
     1
176
     1
290
     0
176
     1
290
     0
176
     1
290
     0
176
     1
290
     0
176
     1
290
     0
176
     1
290
     0
176
     1
 90
       50
176
     1
 40
0.0
176
     1
 40
1.0
176
     1
 90
        0
176
     1
 62
    18
420
        0
176
     1
 90
       50
176
     1
 90
        3
176
     1
 62
     5
420
      255
176
     1
290
     0
176
     1
 90
       50
176
     1
 90
       50
176
     1
 90
       50
176
     1
290
     0
176
     1
 90
       50
176
     1
 62
   256
176
     0
 40
1.0
176
     0
 90
        2
176
     1
  1
strokes_ogs.tif
176
     1
290
     0
176
     1
 40
1.0
176
     1
 40
1.0
176
     1
  0
VISUALSTYLE
  5
17D
102
{ACAD_REACTORS
330
170
102
}
330
170
100
AcDbVisualStyle
  2
Thicken
 70
    13
177
     3
291
     1
 70
    58
 90
        2
176
     1
 90
        2
176
     1
 90
        0
176
     1
 90
        0
176
     1
 40
-0.6
176
     1
 40
-30.0
176
     1
 62
     7
176
     1
 90
        1
176
     1
 90
        4
176
     1
 62
     7
176
     1
 62
   257
176
     1
 90
        1
176
     1
 90
        1
176
     1
 40
1.0
176
     1
 90
       12
176
     1
 62
     7
176
     1
 40
1.0
176
     1
 90
        1
176
     1
 90
        6
176
     1
 90
        2
176
     1
 62
     7
176
     1
 90
        5
176
     1
 90
        0
176
     1
 90
        0
176
     1
290
     0
176
     1
 90
        1
176
     1
 40
0.0
176
     1
 90
        0
176
     1
290
     0
176
     1
290
     1
176
     1
290
     1
176
     1
290
     0
176
     1
290
     0
176
     1
290
     0
176
     1
290
     0
176
     1
290
     0
176
     1
290
     0
176
     1
 90
       50
176
     1
 40
0.0
176
     1
 40
1.0
176
     1
 90
        0
176
     1
 62
    18
420
        0
176
     1
 90
       50
176
     1
 90
        3
176
     1
 62
     5
420
      255
176
     1
290
     0
176
     1
 90
       50
176
     1
 90
       50
176
     1
 90
       50
176
     1
290
     0
176
     1
 90
       50
176
     1
 62
   256
176
     0
 40
1.0
176
     0
 90
        2
176
     1
  1
strokes_ogs.tif
176
     1
290
     0
176
     1
 40
1.0
176
     1
 40
1.0
176
     1
  0
VISUALSTYLE
  5
1CD
102
{ACAD_REACTORS
330
170
102
}
330
170
100
AcDbVisualStyle
  2
Wireframe
 70
     5
177
     3
291
     0
 70
    58
 90
        0
176
     1
 90
        2
176
     1
 90
        0
176
     1
 90
        0
176
     1
 40
0.6
176
     1
 40
30.0
176
     1
 62
     7
420
 16777215
176
     1
 90
        1
176
     1
 90
        4
176
     1
 62
     7
176
     1
 62
   257
176
     1
 90
        1
176
     1
 90
        1
176
     1
 40
1.0
176
     1
 90
        0
176
     1
 62
   257
176
     1
 40
1.0
176
     1
 90
        1
176
     1
 90
        6
176
     1
 90
        2
176
     1
 62
     7
176
     1
 90
        3
176
     1
 90
        0
176
     1
 90
        0
176
     1
290
     0
176
     1
 90
        1
176
     1
 40
0.0
176
     1
 90
        0
176
     1
290
     0
176
     1
290
     1
176
     1
290
     1
176
     1
290
     0
176
     1
290
     0
176
     1
290
     0
176
     1
290
     0
176
     1
290
     0
176
     1
290
     0
176
     1
 90
       50
176
     1
 40
0.0
176
     1
 40
1.0
176
     1
 90
        0
176
     1
 62
    18
420
        0
176
     1
 90
       50
176
     1
 90
        3
176
     1
 62
     5
420
      255
176
     1
290
     0
176
     1
 90
       50
176
     1
 90
       50
176
     1
 90
       50
176
     1
290
     0
176
     1
 90
       50
176
     1
 62
   256
176
     0
 40
1.0
176
     0
 90
        2
176
     1
  1
strokes_ogs.tif
176
     1
290
     0
176
     1
 40
1.0
176
     1
 40
1.0
176
     1
  0
VISUALSTYLE
  5
1D4
102
{ACAD_REACTORS
330
170
102
}
330
170
100
AcDbVisualStyle
  2
X-Ray
 70
    25
177
     3
291
     0
 70
    58
 90
        2
176
     1
 90
        2
176
     1
 90
        1
176
     1
 90
        1
176
     1
 40
0.5
176
     1
 40
30.0
176
     1
 62
     7
420
 16777215
176
     1
 90
        1
176
     1
 90
        0
176
     1
 62
     7
176
     1
 62
   257
176
     1
 90
        1
176
     1
 90
        1
176
     1
 40
1.0
176
     1
 90
        8
176
     1
 62
     7
176
     1
 40
1.0
176
     1
 90
        1
176
     1
 90
        6
176
     1
 90
        2
176
     1
 62
     7
176
     1
 90
        3
176
     1
 90
        0
176
     1
 90
        0
176
     1
290
     0
176
     1
 90
       13
176
     1
 40
0.0
176
     1
 90
        0
176
     1
290
     0
176
     1
290
     1
176
     1
290
     1
176
     1
290
     0
176
     1
290
     0
176
     1
290
     0
176
     1
290
     0
176
     1
290
     0
176
     1
290
     0
176
     1
 90
       50
176
     1
 40
0.0
176
     1
 40
1.0
176
     1
 90
        0
176
     1
 62
    18
420
        0
176
     1
 90
       50
176
     1
 90
        3
176
     1
 62
     5
420
      255
176
     1
290
     0
176
     1
 90
       50
176
     1
 90
       50
176
     1
 90
       50
176
     1
290
     0
176
     1
 90
       50
176
     1
 62
   256
176
     0
 40
1.0
176
     0
 90
        2
176
     1
  1
strokes_ogs.tif
176
     1
290
     0
176
     1
 40
1.0
176
     1
 40
1.0
176
     1
  0
DICTIONARYVAR
  5
1E9
102
{ACAD_REACTORS
330
18C
102
}
330
18C
100
DictionaryVariables
280
     0
  1
1:1
  0
DICTIONARYVAR
  5
1EB
102
{ACAD_REACTORS
330
18C
102
}
330
18C
100
DictionaryVariables
280
     0
  1
Standard
  0
DICTIONARYVAR
  5
1EA
102
{ACAD_REACTORS
330
18C
102
}
330
18C
100
DictionaryVariables
280
     0
  1
Standard
  0
DICTIONARYVAR
  5
190
102
{ACAD_REACTORS
330
18C
102
}
330
18C
100
DictionaryVariables
280
     0
  1
2
  0
DICTIONARYVAR
  5
191
102
{ACAD_REACTORS
330
18C
102
}
330
18C
100
DictionaryVariables
280
     0
  1
1
  0
DICTIONARYVAR
  5
18F
102
{ACAD_REACTORS
330
18C
102
}
330
18C
100
DictionaryVariables
280
     0
  1
0
  0
DICTIONARY
  5
35D
330
1D8
100
AcDbDictionary
280
     1
281
     1
  3
ACAD_ROUNDTRIP_2008_TABLESTYLE_CELLSTYLEMAP
360
35E
  0
CELLSTYLEMAP
  5
35E
102
{ACAD_REACTORS
330
35D
102
}
330
35D
100
AcDbCellStyleMap
 90
        3
300
CELLSTYLE
  1
TABLEFORMAT_BEGIN
 90
        5
170
     1
 91
        0
 92
    32768
 62
   257
 93
        1
300
CONTENTFORMAT
  1
CONTENTFORMAT_BEGIN
 90
        0
 91
        0
 92
        4
 93
        0
300

 40
0.0
140
1.0
 94
        5
 62
     0
340
11
144
0.25
309
CONTENTFORMAT_END
171
     1
301
MARGIN
  1
CELLMARGIN_BEGIN
 40
0.06
 40
0.06
 40
0.06
 40
0.06
 40
0.06
 40
0.06
309
CELLMARGIN_END
 94
        6
 95
        1
302
GRIDFORMAT
  1
GRIDFORMAT_BEGIN
 90
        0
 91
        1
 62
     0
 92
       -2
340
14
 93
        0
 40
0.045
309
GRIDFORMAT_END
 95
        2
302
GRIDFORMAT
  1
GRIDFORMAT_BEGIN
 90
        0
 91
        1
 62
     0
 92
       -2
340
14
 93
        0
 40
0.045
309
GRIDFORMAT_END
 95
        4
302
GRIDFORMAT
  1
GRIDFORMAT_BEGIN
 90
        0
 91
        1
 62
     0
 92
       -2
340
14
 93
        0
 40
0.045
309
GRIDFORMAT_END
 95
        8
302
GRIDFORMAT
  1
GRIDFORMAT_BEGIN
 90
        0
 91
        1
 62
     0
 92
       -2
340
14
 93
        0
 40
0.045
309
GRIDFORMAT_END
 95
       16
302
GRIDFORMAT
  1
GRIDFORMAT_BEGIN
 90
        0
 91
        1
 62
     0
 92
       -2
340
14
 93
        0
 40
0.045
309
GRIDFORMAT_END
 95
       32
302
GRIDFORMAT
  1
GRIDFORMAT_BEGIN
 90
        0
 91
        1
 62
     0
 92
       -2
340
14
 93
        0
 40
0.045
309
GRIDFORMAT_END
309
TABLEFORMAT_END
  1
CELLSTYLE_BEGIN
 90
        1
 91
        1
300
_TITLE
309
CELLSTYLE_END
300
CELLSTYLE
  1
TABLEFORMAT_BEGIN
 90
        5
170
     1
 91
        0
 92
        0
 62
   257
 93
        1
300
CONTENTFORMAT
  1
CONTENTFORMAT_BEGIN
 90
        0
 91
        0
 92
        4
 93
        0
300

 40
0.0
140
1.0
 94
        5
 62
     0
340
11
144
0.18
309
CONTENTFORMAT_END
171
     1
301
MARGIN
  1
CELLMARGIN_BEGIN
 40
0.06
 40
0.06
 40
0.06
 40
0.06
 40
0.06
 40
0.06
309
CELLMARGIN_END
 94
        6
 95
        1
302
GRIDFORMAT
  1
GRIDFORMAT_BEGIN
 90
        0
 91
        1
 62
     0
 92
       -2
340
14
 93
        0
 40
0.045
309
GRIDFORMAT_END
 95
        2
302
GRIDFORMAT
  1
GRIDFORMAT_BEGIN
 90
        0
 91
        1
 62
     0
 92
       -2
340
14
 93
        0
 40
0.045
309
GRIDFORMAT_END
 95
        4
302
GRIDFORMAT
  1
GRIDFORMAT_BEGIN
 90
        0
 91
        1
 62
     0
 92
       -2
340
14
 93
        0
 40
0.045
309
GRIDFORMAT_END
 95
        8
302
GRIDFORMAT
  1
GRIDFORMAT_BEGIN
 90
        0
 91
        1
 62
     0
 92
       -2
340
14
 93
        0
 40
0.045
309
GRIDFORMAT_END
 95
       16
302
GRIDFORMAT
  1
GRIDFORMAT_BEGIN
 90
        0
 91
        1
 62
     0
 92
       -2
340
14
 93
        0
 40
0.045
309
GRIDFORMAT_END
 95
       32
302
GRIDFORMAT
  1
GRIDFORMAT_BEGIN
 90
        0
 91
        1
 62
     0
 92
       -2
340
14
 93
        0
 40
0.045
309
GRIDFORMAT_END
309
TABLEFORMAT_END
  1
CELLSTYLE_BEGIN
 90
        2
 91
        1
300
_HEADER
309
CELLSTYLE_END
300
CELLSTYLE
  1
TABLEFORMAT_BEGIN
 90
        5
170
     1
 91
        0
 92
        0
 62
   257
 93
        1
300
CONTENTFORMAT
  1
CONTENTFORMAT_BEGIN
 90
        0
 91
        0
 92
        4
 93
        0
300

 40
0.0
140
1.0
 94
        2
 62
     0
340
11
144
0.18
309
CONTENTFORMAT_END
171
     1
301
MARGIN
  1
CELLMARGIN_BEGIN
 40
0.06
 40
0.06
 40
0.06
 40
0.06
 40
0.06
 40
0.06
309
CELLMARGIN_END
 94
        6
 95
        1
302
GRIDFORMAT
  1
GRIDFORMAT_BEGIN
 90
        0
 91
        1
 62
     0
 92
       -2
340
14
 93
        0
 40
0.045
309
GRIDFORMAT_END
 95
        2
302
GRIDFORMAT
  1
GRIDFORMAT_BEGIN
 90
        0
 91
        1
 62
     0
 92
       -2
340
14
 93
        0
 40
0.045
309
GRIDFORMAT_END
 95
        4
302
GRIDFORMAT
  1
GRIDFORMAT_BEGIN
 90
        0
 91
        1
 62
     0
 92
       -2
340
14
 93
        0
 40
0.045
309
GRIDFORMAT_END
 95
        8
302
GRIDFORMAT
  1
GRIDFORMAT_BEGIN
 90
        0
 91
        1
 62
     0
 92
       -2
340
14
 93
        0
 40
0.045
309
GRIDFORMAT_END
 95
       16
302
GRIDFORMAT
  1
GRIDFORMAT_BEGIN
 90
        0
 91
        1
 62
     0
 92
       -2
340
14
 93
        0
 40
0.045
309
GRIDFORMAT_END
 95
       32
302
GRIDFORMAT
  1
GRIDFORMAT_BEGIN
 90
        0
 91
        1
 62
     0
 92
       -2
340
14
 93
        0
 40
0.045
309
GRIDFORMAT_END
309
TABLEFORMAT_END
  1
CELLSTYLE_BEGIN
 90
        3
 91
        2
300
_DATA
309
CELLSTYLE_END
  0
ENDSEC
  0
EOF
